  0
SECTION
  2
HEADER
  9
$ACADVER
  1
AC1021
  9
$ACADMAINTVER
 70
    25
  9
$DWGCODEPAGE
  3
ANSI_1252
  9
$AUTHOR
  1
User
  9
$CUSTOMPROPERTYTAG
  1
Manager
  9
$CUSTOMPROPERTY
  1

  9
$CUSTOMPROPERTYTAG
  1
Company
  9
$CUSTOMPROPERTY
  1

  9
$CUSTOMPROPERTYTAG
  1
Category
  9
$CUSTOMPROPERTY
  1

  9
$CUSTOMPROPERTYTAG
  1
Part Number
  9
$CUSTOMPROPERTY
  1
C33571 td
  9
$CUSTOMPROPERTYTAG
  1
Description
  9
$CUSTOMPROPERTY
  1

  9
$CUSTOMPROPERTYTAG
  1
Project
  9
$CUSTOMPROPERTY
  1

  9
$CUSTOMPROPERTYTAG
  1
Designer
  9
$CUSTOMPROPERTY
  1
User
  9
$CUSTOMPROPERTYTAG
  1
Engineer
  9
$CUSTOMPROPERTY
  1

  9
$CUSTOMPROPERTYTAG
  1
Authority
  9
$CUSTOMPROPERTY
  1

  9
$CUSTOMPROPERTYTAG
  1
Cost Center
  9
$CUSTOMPROPERTY
  1

  9
$CUSTOMPROPERTYTAG
  1
Vendor
  9
$CUSTOMPROPERTY
  1

  9
$CUSTOMPROPERTYTAG
  1
User Status
  9
$CUSTOMPROPERTY
  1

  9
$CUSTOMPROPERTYTAG
  1
Design Status
  9
$CUSTOMPROPERTY
  1
WorkInProgress
  9
$CUSTOMPROPERTYTAG
  1
Checked by
  9
$CUSTOMPROPERTY
  1

  9
$CUSTOMPROPERTYTAG
  1
Engr Approved by
  9
$CUSTOMPROPERTY
  1

  9
$CUSTOMPROPERTYTAG
  1
Mfg Approved by
  9
$CUSTOMPROPERTY
  1

  9
$INSBASE
 10
0.0
 20
0.0
 30
0.0
  9
$EXTMIN
 10
0.0
 20
0.0
 30
0.0
  9
$EXTMAX
 10
594.0
 20
420.0
 30
0.0
  9
$LIMMIN
 10
0.0
 20
0.0
  9
$LIMMAX
 10
594.0
 20
420.0
  9
$ORTHOMODE
 70
     0
  9
$REGENMODE
 70
     1
  9
$FILLMODE
 70
     1
  9
$QTEXTMODE
 70
     0
  9
$MIRRTEXT
 70
     0
  9
$LTSCALE
 40
2.0
  9
$ATTMODE
 70
     1
  9
$TEXTSIZE
 40
0.2
  9
$TRACEWID
 40
0.05
  9
$TEXTSTYLE
  7
Standard
  9
$CLAYER
  8
0
  9
$CELTYPE
  6
ByLayer
  9
$CECOLOR
 62
   256
  9
$CELTSCALE
 40
1.0
  9
$DISPSILH
 70
     0
  9
$DIMSCALE
 40
1.0
  9
$DIMASZ
 40
1.799999999999999
  9
$DIMEXO
 40
0.0625
  9
$DIMDLI
 40
0.38
  9
$DIMRND
 40
0.0
  9
$DIMDLE
 40
0.0
  9
$DIMEXE
 40
0.18
  9
$DIMTP
 40
0.0
  9
$DIMTM
 40
0.0
  9
$DIMTXT
 40
0.3499999940395355
  9
$DIMCEN
 40
0.09
  9
$DIMTSZ
 40
0.0
  9
$DIMTOL
 70
     0
  9
$DIMLIM
 70
     0
  9
$DIMTIH
 70
     1
  9
$DIMTOH
 70
     1
  9
$DIMSE1
 70
     0
  9
$DIMSE2
 70
     0
  9
$DIMTAD
 70
     0
  9
$DIMZIN
 70
     0
  9
$DIMBLK
  1

  9
$DIMASO
 70
     1
  9
$DIMSHO
 70
     1
  9
$DIMPOST
  1

  9
$DIMAPOST
  1

  9
$DIMALT
 70
     0
  9
$DIMALTD
 70
     2
  9
$DIMALTF
 40
25.4
  9
$DIMLFAC
 40
1.0
  9
$DIMTOFL
 70
     0
  9
$DIMTVP
 40
0.0
  9
$DIMTIX
 70
     0
  9
$DIMSOXD
 70
     0
  9
$DIMSAH
 70
     0
  9
$DIMBLK1
  1

  9
$DIMBLK2
  1

  9
$DIMSTYLE
  2
Standard
  9
$DIMCLRD
 70
     0
  9
$DIMCLRE
 70
     0
  9
$DIMCLRT
 70
     0
  9
$DIMTFAC
 40
1.0
  9
$DIMGAP
 40
0.09
  9
$DIMJUST
 70
     0
  9
$DIMSD1
 70
     0
  9
$DIMSD2
 70
     0
  9
$DIMTOLJ
 70
     1
  9
$DIMTZIN
 70
     0
  9
$DIMALTZ
 70
     0
  9
$DIMALTTZ
 70
     0
  9
$DIMUPT
 70
     0
  9
$DIMDEC
 70
     4
  9
$DIMTDEC
 70
     4
  9
$DIMALTU
 70
     2
  9
$DIMALTTD
 70
     2
  9
$DIMTXSTY
  7
Standard
  9
$DIMAUNIT
 70
     0
  9
$DIMADEC
 70
     0
  9
$DIMALTRND
 40
0.0
  9
$DIMAZIN
 70
     0
  9
$DIMDSEP
 70
    46
  9
$DIMATFIT
 70
     3
  9
$DIMFRAC
 70
     0
  9
$DIMLDRBLK
  1

  9
$DIMLUNIT
 70
     2
  9
$DIMLWD
 70
    -2
  9
$DIMLWE
 70
    -2
  9
$DIMTMOVE
 70
     0
  9
$DIMFXL
 40
1.0
  9
$DIMFXLON
 70
     0
  9
$DIMJOGANG
 40
0.7853981633974483
  9
$DIMTFILL
 70
     0
  9
$DIMTFILLCLR
 70
     0
  9
$DIMARCSYM
 70
     0
  9
$DIMLTYPE
  6

  9
$DIMLTEX1
  6

  9
$DIMLTEX2
  6

  9
$LUNITS
 70
     2
  9
$LUPREC
 70
     4
  9
$SKETCHINC
 40
0.1
  9
$FILLETRAD
 40
0.0
  9
$AUNITS
 70
     0
  9
$AUPREC
 70
     0
  9
$MENU
  1
.
  9
$ELEVATION
 40
0.0
  9
$PELEVATION
 40
0.0
  9
$THICKNESS
 40
0.0
  9
$LIMCHECK
 70
     0
  9
$CHAMFERA
 40
0.0
  9
$CHAMFERB
 40
0.0
  9
$CHAMFERC
 40
0.0
  9
$CHAMFERD
 40
0.0
  9
$SKPOLY
 70
     0
  9
$TDCREATE
 40
2454312.701255602
  9
$TDUCREATE
 40
2454312.367922268
  9
$TDUPDATE
 40
2454312.701255602
  9
$TDUUPDATE
 40
2454312.367922268
  9
$TDINDWG
 40
0.0000043403
  9
$TDUSRTIMER
 40
0.0000043403
  9
$USRTIMER
 70
     1
  9
$ANGBASE
 50
0.0
  9
$ANGDIR
 70
     0
  9
$PDMODE
 70
     0
  9
$PDSIZE
 40
0.0
  9
$PLINEWID
 40
0.0
  9
$SPLFRAME
 70
     0
  9
$SPLINETYPE
 70
     6
  9
$SPLINESEGS
 70
     8
  9
$HANDSEED
  5
4C7
  9
$SURFTAB1
 70
     6
  9
$SURFTAB2
 70
     6
  9
$SURFTYPE
 70
     6
  9
$SURFU
 70
     6
  9
$SURFV
 70
     6
  9
$UCSBASE
  2

  9
$UCSNAME
  2

  9
$UCSORG
 10
0.0
 20
0.0
 30
0.0
  9
$UCSXDIR
 10
1.0
 20
0.0
 30
0.0
  9
$UCSYDIR
 10
0.0
 20
1.0
 30
0.0
  9
$UCSORTHOREF
  2

  9
$UCSORTHOVIEW
 70
     0
  9
$UCSORGTOP
 10
0.0
 20
0.0
 30
0.0
  9
$UCSORGBOTTOM
 10
0.0
 20
0.0
 30
0.0
  9
$UCSORGLEFT
 10
0.0
 20
0.0
 30
0.0
  9
$UCSORGRIGHT
 10
0.0
 20
0.0
 30
0.0
  9
$UCSORGFRONT
 10
0.0
 20
0.0
 30
0.0
  9
$UCSORGBACK
 10
0.0
 20
0.0
 30
0.0
  9
$PUCSBASE
  2

  9
$PUCSNAME
  2

  9
$PUCSORG
 10
0.0
 20
0.0
 30
0.0
  9
$PUCSXDIR
 10
1.0
 20
0.0
 30
0.0
  9
$PUCSYDIR
 10
0.0
 20
1.0
 30
0.0
  9
$PUCSORTHOREF
  2

  9
$PUCSORTHOVIEW
 70
     0
  9
$PUCSORGTOP
 10
0.0
 20
0.0
 30
0.0
  9
$PUCSORGBOTTOM
 10
0.0
 20
0.0
 30
0.0
  9
$PUCSORGLEFT
 10
0.0
 20
0.0
 30
0.0
  9
$PUCSORGRIGHT
 10
0.0
 20
0.0
 30
0.0
  9
$PUCSORGFRONT
 10
0.0
 20
0.0
 30
0.0
  9
$PUCSORGBACK
 10
0.0
 20
0.0
 30
0.0
  9
$USERI1
 70
     0
  9
$USERI2
 70
     0
  9
$USERI3
 70
     0
  9
$USERI4
 70
     0
  9
$USERI5
 70
     0
  9
$USERR1
 40
0.0
  9
$USERR2
 40
0.0
  9
$USERR3
 40
0.0
  9
$USERR4
 40
0.0
  9
$USERR5
 40
0.0
  9
$WORLDVIEW
 70
     1
  9
$SHADEDGE
 70
     3
  9
$SHADEDIF
 70
    70
  9
$TILEMODE
 70
     1
  9
$MAXACTVP
 70
    64
  9
$PINSBASE
 10
0.0
 20
0.0
 30
0.0
  9
$PLIMCHECK
 70
     0
  9
$PEXTMIN
 10
0.0
 20
0.0
 30
0.0
  9
$PEXTMAX
 10
594.0
 20
420.0
 30
0.0
  9
$PLIMMIN
 10
0.0
 20
0.0
  9
$PLIMMAX
 10
594.0
 20
420.0
  9
$UNITMODE
 70
     0
  9
$VISRETAIN
 70
     1
  9
$PLINEGEN
 70
     0
  9
$PSLTSCALE
 70
     1
  9
$TREEDEPTH
 70
  3020
  9
$CMLSTYLE
  2
Standard
  9
$CMLJUST
 70
     0
  9
$CMLSCALE
 40
1.0
  9
$PROXYGRAPHICS
 70
     1
  9
$MEASUREMENT
 70
     1
  9
$CELWEIGHT
370
    -1
  9
$ENDCAPS
280
     0
  9
$JOINSTYLE
280
     0
  9
$LWDISPLAY
290
     0
  9
$INSUNITS
 70
     4
  9
$HYPERLINKBASE
  1

  9
$STYLESHEET
  1

  9
$XEDIT
290
     1
  9
$CEPSNTYPE
380
     0
  9
$PSTYLEMODE
290
     1
  9
$FINGERPRINTGUID
  2
{C1672897-7295-4C0A-B903-CE0FAEB46DC2}
  9
$VERSIONGUID
  2
{020B7B78-C449-4212-A34F-92F6E5000E42}
  9
$EXTNAMES
290
     1
  9
$PSVPSCALE
 40
0.0
  9
$OLESTARTUP
290
     0
  9
$SORTENTS
280
   127
  9
$INDEXCTL
280
     0
  9
$HIDETEXT
280
     1
  9
$XCLIPFRAME
290
     0
  9
$HALOGAP
280
     0
  9
$OBSCOLOR
 70
   257
  9
$OBSLTYPE
280
     0
  9
$INTERSECTIONDISPLAY
280
     0
  9
$INTERSECTIONCOLOR
 70
   257
  9
$DIMASSOC
280
     1
  9
$PROJECTNAME
  1

  9
$CAMERADISPLAY
290
     0
  9
$LENSLENGTH
 40
50.0
  9
$CAMERAHEIGHT
 40
0.0
  9
$STEPSPERSEC
 40
2.0
  9
$STEPSIZE
 40
6.0
  9
$3DDWFPREC
 40
2.0
  9
$PSOLWIDTH
 40
0.25
  9
$PSOLHEIGHT
 40
4.0
  9
$LOFTANG1
 40
1.570796326794896
  9
$LOFTANG2
 40
1.570796326794896
  9
$LOFTMAG1
 40
0.0
  9
$LOFTMAG2
 40
0.0
  9
$LOFTPARAM
 70
     7
  9
$LOFTNORMALS
280
     1
  9
$LATITUDE
 40
37.795
  9
$LONGITUDE
 40
-122.394
  9
$NORTHDIRECTION
 40
0.0
  9
$TIMEZONE
 70
 -8000
  9
$LIGHTGLYPHDISPLAY
280
     1
  9
$TILEMODELIGHTSYNCH
280
     1
  9
$CMATERIAL
347
11
  9
$SOLIDHIST
280
     1
  9
$SHOWHIST
280
     1
  9
$DWFFRAME
280
     2
  9
$DGNFRAME
280
     0
  9
$REALWORLDSCALE
290
     1
  9
$INTERFERECOLOR
 62
     1
  9
$INTERFEREOBJVS
345
33
  9
$INTERFEREVPVS
346
30
  9
$CSHADOW
280
     0
  9
$SHADOWPLANELOCATION
 40
0.0
  0
ENDSEC
  0
SECTION
  2
CLASSES
  0
CLASS
  1
ACDBDICTIONARYWDFLT
  2
AcDbDictionaryWithDefault
  3
ObjectDBX Classes
 90
        0
 91
        1
280
     0
281
     0
  0
CLASS
  1
MATERIAL
  2
AcDbMaterial
  3
ObjectDBX Classes
 90
     1153
 91
        3
280
     0
281
     0
  0
CLASS
  1
VISUALSTYLE
  2
AcDbVisualStyle
  3
ObjectDBX Classes
 90
     4095
 91
       16
280
     0
281
     0
  0
CLASS
  1
SCALE
  2
AcDbScale
  3
ObjectDBX Classes
 90
     1153
 91
       33
280
     0
281
     0
  0
CLASS
  1
TABLESTYLE
  2
AcDbTableStyle
  3
ObjectDBX Classes
 90
     4095
 91
        1
280
     0
281
     0
  0
CLASS
  1
MLEADERSTYLE
  2
AcDbMLeaderStyle
  3
ACDB_MLEADERSTYLE_CLASS
 90
     4095
 91
        1
280
     0
281
     0
  0
CLASS
  1
DICTIONARYVAR
  2
AcDbDictionaryVar
  3
ObjectDBX Classes
 90
        0
 91
        3
280
     0
281
     0
  0
CLASS
  1
CELLSTYLEMAP
  2
AcDbCellStyleMap
  3
ObjectDBX Classes
 90
     1152
 91
        1
280
     0
281
     0
  0
ENDSEC
  0
SECTION
  2
TABLES
  0
TABLE
  2
VPORT
  5
8
330
0
100
AcDbSymbolTable
 70
     1
  0
VPORT
  5
5F
330
8
100
AcDbSymbolTableRecord
100
AcDbViewportTableRecord
  2
*Active
 70
     0
 10
0.0
 20
0.0
 11
1.0
 21
1.0
 12
297.0
 22
210.0
 13
0.0
 23
0.0
 14
1.0
 24
1.0
 15
0.0
 25
0.0
 16
0.0
 26
0.0
 36
1.0
 17
0.0
 27
0.0
 37
0.0
 40
420.0
 41
1.414285714285714
 42
50.0
 43
0.0
 44
0.0
 50
0.0
 51
0.0
 71
     0
 72
   100
 73
     1
 74
     1
 75
     0
 76
     0
 77
     0
 78
     0
281
     0
 65
     1
110
0.0
120
0.0
130
0.0
111
1.0
121
0.0
131
0.0
112
0.0
122
1.0
132
0.0
 79
     0
146
0.0
 60
     3
 61
     5
292
     1
282
     1
141
0.0
142
0.0
 63
   250
421
  3355443
  0
ENDTAB
  0
TABLE
  2
LTYPE
  5
5
330
0
100
AcDbSymbolTable
 70
    59
  0
LTYPE
  5
63
330
5
100
AcDbSymbolTableRecord
100
AcDbLinetypeTableRecord
  2
ByBlock
 70
     0
  3

 72
    65
 73
     0
 40
0.0
  0
LTYPE
  5
64
330
5
100
AcDbSymbolTableRecord
100
AcDbLinetypeTableRecord
  2
ByLayer
 70
     0
  3

 72
    65
 73
     0
 40
0.0
  0
LTYPE
  5
65
330
5
100
AcDbSymbolTableRecord
100
AcDbLinetypeTableRecord
  2
Continuous
 70
     0
  3
Solid line
 72
    65
 73
     0
 40
0.0
  0
LTYPE
  5
7D
330
5
100
AcDbSymbolTableRecord
100
AcDbLinetypeTableRecord
  2
BY_STANDARD
 70
     0
  3
By Standard ____________    ____    ____   _
 72
    65
 73
     6
 40
1.240299999999999
 49
0.6614
 74
     0
 49
-0.0827
 74
     0
 49
0.1654
 74
     0
 49
-0.0827
 74
     0
 49
0.1654
 74
     0
 49
-0.0827
 74
     0
  0
LTYPE
  5
7E
330
5
100
AcDbSymbolTableRecord
100
AcDbLinetypeTableRecord
  2
CHAIN
 70
     0
  3
Chain ____ _ ____ _ ____ _ ____ _ ____ _ ____
 72
    65
 73
     4
 40
0.7087
 49
0.4724000000000001
 74
     0
 49
-0.0591
 74
     0
 49
0.1181
 74
     0
 49
-0.0591
 74
     0
  0
LTYPE
  5
7F
330
5
100
AcDbSymbolTableRecord
100
AcDbLinetypeTableRecord
  2
DASH_DOT
 70
     0
  3
Dash dot __ . __ . __ . __ . __ . __ . __ . __
 72
    65
 73
     4
 40
0.37
 49
0.24
 74
     0
 49
-0.06
 74
     0
 49
0.01
 74
     0
 49
-0.06
 74
     0
  0
LTYPE
  5
80
330
5
100
AcDbSymbolTableRecord
100
AcDbLinetypeTableRecord
  2
DOUBLE_DASH_DOT
 70
     0
  3
Double-Dash Dot __ __ . __ __ . __ __ . __ _
 72
    65
 73
     6
 40
0.4398
 49
0.24
 74
     0
 49
-0.06
 74
     0
 49
0.0098
 74
     0
 49
-0.06
 74
     0
 49
0.01
 74
     0
 49
-0.06
 74
     0
  0
LTYPE
  5
81
330
5
100
AcDbSymbolTableRecord
100
AcDbLinetypeTableRecord
  2
DASH_TRIPLE_DOT
 70
     0
  3
Dash Triple-Dot _ . . . _ . . . _ . . . _
 72
    65
 73
     8
 40
0.51
 49
0.24
 74
     0
 49
-0.06
 74
     0
 49
0.01
 74
     0
 49
-0.06
 74
     0
 49
0.01
 74
     0
 49
-0.06
 74
     0
 49
0.01
 74
     0
 49
-0.06
 74
     0
  0
LTYPE
  5
82
330
5
100
AcDbSymbolTableRecord
100
AcDbLinetypeTableRecord
  2
DASHED
 70
     0
  3
Dashed __ __ __ __ __ __ __ __ __ __ __ __ __ _
 72
    65
 73
     2
 40
0.2067
 49
0.1654
 74
     0
 49
-0.0413
 74
     0
  0
LTYPE
  5
83
330
5
100
AcDbSymbolTableRecord
100
AcDbLinetypeTableRecord
  2
DASH_DOUBLE_DOT
 70
     0
  3
Dash Double-Dot __ . . __ . . __ . . __ . .
 72
    65
 73
     6
 40
0.4398
 49
0.24
 74
     0
 49
-0.06
 74
     0
 49
0.0098
 74
     0
 49
-0.06
 74
     0
 49
0.01
 74
     0
 49
-0.06
 74
     0
  0
LTYPE
  5
84
330
5
100
AcDbSymbolTableRecord
100
AcDbLinetypeTableRecord
  2
DASHED_SPACE
 70
     0
  3
Dashed Space __ __ __ __ __ __ __ __ __ __ __ _
 72
    65
 73
     2
 40
0.2067
 49
0.1654
 74
     0
 49
-0.0413
 74
     0
  0
LTYPE
  5
85
330
5
100
AcDbSymbolTableRecord
100
AcDbLinetypeTableRecord
  2
DOTTED
 70
     0
  3
Dotted . . . . . . . . . . . . . . . . . . . . 
 72
    65
 73
     2
 40
0.0482
 49
0.0069
 74
     0
 49
-0.0413
 74
     0
  0
LTYPE
  5
86
330
5
100
AcDbSymbolTableRecord
100
AcDbLinetypeTableRecord
  2
DOUBLE_DASH_CHAIN
 70
     0
  3
Double-Dash Chain ______  __  __  ______  __  _
 72
    65
 73
     6
 40
1.240299999999999
 49
0.6614
 74
     0
 49
-0.0827
 74
     0
 49
0.1654
 74
     0
 49
-0.0827
 74
     0
 49
0.1654
 74
     0
 49
-0.0827
 74
     0
  0
LTYPE
  5
88
330
5
100
AcDbSymbolTableRecord
100
AcDbLinetypeTableRecord
  2
DOUBLE_DASH_DOUBLE_DOT
 70
     0
  3
Double-Dash Double-dot _ _ . . _ _ . . _
 72
    65
 73
     8
 40
0.7400000000000001
 49
0.24
 74
     0
 49
-0.06
 74
     0
 49
0.24
 74
     0
 49
-0.06
 74
     0
 49
0.01
 74
     0
 49
-0.06
 74
     0
 49
0.01
 74
     0
 49
-0.06
 74
     0
  0
LTYPE
  5
89
330
5
100
AcDbSymbolTableRecord
100
AcDbLinetypeTableRecord
  2
DOUBLE_DASH_TRIPLE_DOT
 70
     0
  3
Double Dash Triple Dot __ __ . . . __ __ . .
 72
    65
 73
    10
 40
0.8100000000000001
 49
0.24
 74
     0
 49
-0.06
 74
     0
 49
0.24
 74
     0
 49
-0.06
 74
     0
 49
0.01
 74
     0
 49
-0.06
 74
     0
 49
0.01
 74
     0
 49
-0.06
 74
     0
 49
0.01
 74
     0
 49
-0.06
 74
     0
  0
LTYPE
  5
8A
330
5
100
AcDbSymbolTableRecord
100
AcDbLinetypeTableRecord
  2
LONG_DASH_DOTTED
 70
     0
  3
Long Dash Dotted ____ . ____ . ____ . ____ . _
 72
    65
 73
     4
 40
0.3543
 49
0.2362
 74
     0
 49
-0.0295
 74
     0
 49
0.0591
 74
     0
 49
-0.0295
 74
     0
  0
LTYPE
  5
8B
330
5
100
AcDbSymbolTableRecord
100
AcDbLinetypeTableRecord
  2
LONG_DASH_DOUBLE_DOT
 70
     0
  3
Long Dash Double Dot ________  .  .  ________  
 72
    65
 73
     6
 40
0.6799999999999999
 49
0.48
 74
     0
 49
-0.06
 74
     0
 49
0.01
 74
     0
 49
-0.06
 74
     0
 49
0.01
 74
     0
 49
-0.06
 74
     0
  0
LTYPE
  5
8C
330
5
100
AcDbSymbolTableRecord
100
AcDbLinetypeTableRecord
  2
LONG_DASH_TRIPLE_DOT
 70
     0
  3
Long Dash Triple Dot ____ ... ____ ... ____
 72
    65
 73
     8
 40
0.3689
 49
0.2362
 74
     0
 49
-0.0295
 74
     0
 49
0.0049
 74
     0
 49
-0.0295
 74
     0
 49
0.0049
 74
     0
 49
-0.0295
 74
     0
 49
0.0049
 74
     0
 49
-0.0295
 74
     0
  0
LTYPE
  5
8D
330
5
100
AcDbSymbolTableRecord
100
AcDbLinetypeTableRecord
  2
BORDER
 70
     0
  3
Border __ __ . __ __ . __ __ . __ __ . __ __ .
 72
    65
 73
     6
 40
1.75
 49
0.5
 74
     0
 49
-0.25
 74
     0
 49
0.5
 74
     0
 49
-0.25
 74
     0
 49
0.0
 74
     0
 49
-0.25
 74
     0
  0
LTYPE
  5
8E
330
5
100
AcDbSymbolTableRecord
100
AcDbLinetypeTableRecord
  2
BORDER2
 70
     0
  3
Border (.5x) __.__.__.__.__.__.__.__.__.__.__.
 72
    65
 73
     6
 40
0.875
 49
0.25
 74
     0
 49
-0.125
 74
     0
 49
0.25
 74
     0
 49
-0.125
 74
     0
 49
0.0
 74
     0
 49
-0.125
 74
     0
  0
LTYPE
  5
8F
330
5
100
AcDbSymbolTableRecord
100
AcDbLinetypeTableRecord
  2
BORDERX2
 70
     0
  3
Border (2x) ____  ____  .  ____  ____  .  ___
 72
    65
 73
     6
 40
3.5
 49
1.0
 74
     0
 49
-0.5
 74
     0
 49
1.0
 74
     0
 49
-0.5
 74
     0
 49
0.0
 74
     0
 49
-0.5
 74
     0
  0
LTYPE
  5
90
330
5
100
AcDbSymbolTableRecord
100
AcDbLinetypeTableRecord
  2
CENTER
 70
     0
  3
Center ____ _ ____ _ ____ _ ____ _ ____ _ ____
 72
    65
 73
     4
 40
2.0
 49
1.25
 74
     0
 49
-0.25
 74
     0
 49
0.25
 74
     0
 49
-0.25
 74
     0
  0
LTYPE
  5
91
330
5
100
AcDbSymbolTableRecord
100
AcDbLinetypeTableRecord
  2
CENTER2
 70
     0
  3
Center (.5x) ___ _ ___ _ ___ _ ___ _ ___ _ ___
 72
    65
 73
     4
 40
1.125
 49
0.75
 74
     0
 49
-0.125
 74
     0
 49
0.125
 74
     0
 49
-0.125
 74
     0
  0
LTYPE
  5
92
330
5
100
AcDbSymbolTableRecord
100
AcDbLinetypeTableRecord
  2
CENTERX2
 70
     0
  3
Center (2x) ________  __  ________  __  _____
 72
    65
 73
     4
 40
4.0
 49
2.5
 74
     0
 49
-0.5
 74
     0
 49
0.5
 74
     0
 49
-0.5
 74
     0
  0
LTYPE
  5
93
330
5
100
AcDbSymbolTableRecord
100
AcDbLinetypeTableRecord
  2
DASHDOT2
 70
     0
  3
Dash dot (.5x) _._._._._._._._._._._._._._._.
 72
    65
 73
     4
 40
0.5
 49
0.25
 74
     0
 49
-0.125
 74
     0
 49
0.0
 74
     0
 49
-0.125
 74
     0
  0
LTYPE
  5
94
330
5
100
AcDbSymbolTableRecord
100
AcDbLinetypeTableRecord
  2
DASHDOTX2
 70
     0
  3
Dash dot (2x) ____  .  ____  .  ____  .  ___
 72
    65
 73
     4
 40
2.0
 49
1.0
 74
     0
 49
-0.5
 74
     0
 49
0.0
 74
     0
 49
-0.5
 74
     0
  0
LTYPE
  5
96
330
5
100
AcDbSymbolTableRecord
100
AcDbLinetypeTableRecord
  2
DASHED2
 70
     0
  3
Dashed (.5x) _ _ _ _ _ _ _ _ _ _ _ _ _ _ _ _ _
 72
    65
 73
     2
 40
0.375
 49
0.25
 74
     0
 49
-0.125
 74
     0
  0
LTYPE
  5
97
330
5
100
AcDbSymbolTableRecord
100
AcDbLinetypeTableRecord
  2
DASHEDX2
 70
     0
  3
Dashed (2x) ____  ____  ____  ____  ____  ___
 72
    65
 73
     2
 40
1.5
 49
1.0
 74
     0
 49
-0.5
 74
     0
  0
LTYPE
  5
98
330
5
100
AcDbSymbolTableRecord
100
AcDbLinetypeTableRecord
  2
DIVIDE
 70
     0
  3
Divide ____ . . ____ . . ____ . . ____ . . ____
 72
    65
 73
     6
 40
1.25
 49
0.5
 74
     0
 49
-0.25
 74
     0
 49
0.0
 74
     0
 49
-0.25
 74
     0
 49
0.0
 74
     0
 49
-0.25
 74
     0
  0
LTYPE
  5
99
330
5
100
AcDbSymbolTableRecord
100
AcDbLinetypeTableRecord
  2
DIVIDE2
 70
     0
  3
Divide (.5x) __..__..__..__..__..__..__..__.._
 72
    65
 73
     6
 40
0.625
 49
0.25
 74
     0
 49
-0.125
 74
     0
 49
0.0
 74
     0
 49
-0.125
 74
     0
 49
0.0
 74
     0
 49
-0.125
 74
     0
  0
LTYPE
  5
9A
330
5
100
AcDbSymbolTableRecord
100
AcDbLinetypeTableRecord
  2
DIVIDEX2
 70
     0
  3
Divide (2x) ________  .  .  ________  .  .  _
 72
    65
 73
     6
 40
2.5
 49
1.0
 74
     0
 49
-0.5
 74
     0
 49
0.0
 74
     0
 49
-0.5
 74
     0
 49
0.0
 74
     0
 49
-0.5
 74
     0
  0
LTYPE
  5
9B
330
5
100
AcDbSymbolTableRecord
100
AcDbLinetypeTableRecord
  2
DOT
 70
     0
  3
Dot . . . . . . . . . . . . . . . . . . . . . .
 72
    65
 73
     2
 40
0.25
 49
0.0
 74
     0
 49
-0.25
 74
     0
  0
LTYPE
  5
9C
330
5
100
AcDbSymbolTableRecord
100
AcDbLinetypeTableRecord
  2
DOT2
 70
     0
  3
Dot (.5x) .....................................
 72
    65
 73
     2
 40
0.125
 49
0.0
 74
     0
 49
-0.125
 74
     0
  0
LTYPE
  5
9D
330
5
100
AcDbSymbolTableRecord
100
AcDbLinetypeTableRecord
  2
DOTX2
 70
     0
  3
Dot (2x) .  .  .  .  .  .  .  .  .  .  .  .  . 
 72
    65
 73
     2
 40
0.5
 49
0.0
 74
     0
 49
-0.5
 74
     0
  0
LTYPE
  5
9E
330
5
100
AcDbSymbolTableRecord
100
AcDbLinetypeTableRecord
  2
HIDDEN
 70
     0
  3
Hidden __ __ __ __ __ __ __ __ __ __ __ __ __ _
 72
    65
 73
     2
 40
0.375
 49
0.25
 74
     0
 49
-0.125
 74
     0
  0
LTYPE
  5
9F
330
5
100
AcDbSymbolTableRecord
100
AcDbLinetypeTableRecord
  2
HIDDEN2
 70
     0
  3
Hidden (.5x) _ _ _ _ _ _ _ _ _ _ _ _ _ _ _ _ _
 72
    65
 73
     2
 40
0.1875
 49
0.125
 74
     0
 49
-0.0625
 74
     0
  0
LTYPE
  5
A0
330
5
100
AcDbSymbolTableRecord
100
AcDbLinetypeTableRecord
  2
HIDDENX2
 70
     0
  3
Hidden (2x) ____ ____ ____ ____ ____ ____ ____
 72
    65
 73
     2
 40
0.75
 49
0.5
 74
     0
 49
-0.25
 74
     0
  0
LTYPE
  5
A1
330
5
100
AcDbSymbolTableRecord
100
AcDbLinetypeTableRecord
  2
PHANTOM
 70
     0
  3
Phantom ______  __  __  ______  __  __  ______
 72
    65
 73
     6
 40
2.5
 49
1.25
 74
     0
 49
-0.25
 74
     0
 49
0.25
 74
     0
 49
-0.25
 74
     0
 49
0.25
 74
     0
 49
-0.25
 74
     0
  0
LTYPE
  5
A2
330
5
100
AcDbSymbolTableRecord
100
AcDbLinetypeTableRecord
  2
PHANTOM2
 70
     0
  3
Phantom (.5x) ___ _ _ ___ _ _ ___ _ _ ___ _ _
 72
    65
 73
     6
 40
1.25
 49
0.625
 74
     0
 49
-0.125
 74
     0
 49
0.125
 74
     0
 49
-0.125
 74
     0
 49
0.125
 74
     0
 49
-0.125
 74
     0
  0
LTYPE
  5
A3
330
5
100
AcDbSymbolTableRecord
100
AcDbLinetypeTableRecord
  2
PHANTOMX2
 70
     0
  3
Phantom (2x) ____________    ____    ____   _
 72
    65
 73
     6
 40
5.0
 49
2.5
 74
     0
 49
-0.5
 74
     0
 49
0.5
 74
     0
 49
-0.5
 74
     0
 49
0.5
 74
     0
 49
-0.5
 74
     0
  0
LTYPE
  5
A4
330
5
100
AcDbSymbolTableRecord
100
AcDbLinetypeTableRecord
  2
ACAD_ISO02W100
 70
     0
  3
ISO dash __ __ __ __ __ __ __ __ __ __ __ __ __
 72
    65
 73
     2
 40
0.59
 49
0.47
 74
     0
 49
-0.12
 74
     0
  0
LTYPE
  5
A5
330
5
100
AcDbSymbolTableRecord
100
AcDbLinetypeTableRecord
  2
ACAD_ISO03W100
 70
     0
  3
ISO dash space __    __    __    __    __    __
 72
    65
 73
     2
 40
1.179999999999999
 49
0.47
 74
     0
 49
-0.71
 74
     0
  0
LTYPE
  5
A6
330
5
100
AcDbSymbolTableRecord
100
AcDbLinetypeTableRecord
  2
ACAD_ISO04W100
 70
     0
  3
ISO long-dash dot ____ . ____ . ____ . ____ . _
 72
    65
 73
     4
 40
1.179999999999999
 49
0.9399999999999998
 74
     0
 49
-0.12
 74
     0
 49
0.0
 74
     0
 49
-0.12
 74
     0
  0
LTYPE
  5
A7
330
5
100
AcDbSymbolTableRecord
100
AcDbLinetypeTableRecord
  2
ACAD_ISO05W100
 70
     0
  3
ISO long-dash double-dot ____ .. ____ .. ____ .
 72
    65
 73
     6
 40
1.299999999999999
 49
0.9399999999999998
 74
     0
 49
-0.12
 74
     0
 49
0.0
 74
     0
 49
-0.12
 74
     0
 49
0.0
 74
     0
 49
-0.12
 74
     0
  0
LTYPE
  5
A8
330
5
100
AcDbSymbolTableRecord
100
AcDbLinetypeTableRecord
  2
ACAD_ISO06W100
 70
     0
  3
ISO long-dash triple-dot ____ ... ____ ... ____
 72
    65
 73
     8
 40
1.419999999999999
 49
0.9399999999999998
 74
     0
 49
-0.12
 74
     0
 49
0.0
 74
     0
 49
-0.12
 74
     0
 49
0.0
 74
     0
 49
-0.12
 74
     0
 49
0.0
 74
     0
 49
-0.12
 74
     0
  0
LTYPE
  5
A9
330
5
100
AcDbSymbolTableRecord
100
AcDbLinetypeTableRecord
  2
ACAD_ISO07W100
 70
     0
  3
ISO dot . . . . . . . . . . . . . . . . . . . .
 72
    65
 73
     2
 40
0.12
 49
0.0
 74
     0
 49
-0.12
 74
     0
  0
LTYPE
  5
AA
330
5
100
AcDbSymbolTableRecord
100
AcDbLinetypeTableRecord
  2
ACAD_ISO08W100
 70
     0
  3
ISO long-dash short-dash ____ __ ____ __ ____ _
 72
    65
 73
     4
 40
0.95
 49
0.47
 74
     0
 49
-0.12
 74
     0
 49
0.24
 74
     0
 49
-0.12
 74
     0
  0
LTYPE
  5
AB
330
5
100
AcDbSymbolTableRecord
100
AcDbLinetypeTableRecord
  2
ACAD_ISO09W100
 70
     0
  3
ISO long-dash double-short-dash ____ __ __ ____
 72
    65
 73
     6
 40
1.31
 49
0.47
 74
     0
 49
-0.12
 74
     0
 49
0.24
 74
     0
 49
-0.12
 74
     0
 49
0.24
 74
     0
 49
-0.12
 74
     0
  0
LTYPE
  5
AC
330
5
100
AcDbSymbolTableRecord
100
AcDbLinetypeTableRecord
  2
ACAD_ISO10W100
 70
     0
  3
ISO dash dot __ . __ . __ . __ . __ . __ . __ .
 72
    65
 73
     4
 40
0.71
 49
0.47
 74
     0
 49
-0.12
 74
     0
 49
0.0
 74
     0
 49
-0.12
 74
     0
  0
LTYPE
  5
AD
330
5
100
AcDbSymbolTableRecord
100
AcDbLinetypeTableRecord
  2
ACAD_ISO11W100
 70
     0
  3
ISO double-dash dot __ __ . __ __ . __ __ . __ 
 72
    65
 73
     6
 40
1.299999999999999
 49
0.47
 74
     0
 49
-0.12
 74
     0
 49
0.47
 74
     0
 49
-0.12
 74
     0
 49
0.0
 74
     0
 49
-0.12
 74
     0
  0
LTYPE
  5
AE
330
5
100
AcDbSymbolTableRecord
100
AcDbLinetypeTableRecord
  2
ACAD_ISO12W100
 70
     0
  3
ISO dash double-dot __ . . __ . . __ . . __ . .
 72
    65
 73
     6
 40
0.8299999999999998
 49
0.47
 74
     0
 49
-0.12
 74
     0
 49
0.0
 74
     0
 49
-0.12
 74
     0
 49
0.0
 74
     0
 49
-0.12
 74
     0
  0
LTYPE
  5
AF
330
5
100
AcDbSymbolTableRecord
100
AcDbLinetypeTableRecord
  2
ACAD_ISO13W100
 70
     0
  3
ISO double-dash double-dot __ __ . . __ __ . . 
 72
    65
 73
     8
 40
1.419999999999999
 49
0.47
 74
     0
 49
-0.12
 74
     0
 49
0.47
 74
     0
 49
-0.12
 74
     0
 49
0.0
 74
     0
 49
-0.12
 74
     0
 49
0.0
 74
     0
 49
-0.12
 74
     0
  0
LTYPE
  5
B0
330
5
100
AcDbSymbolTableRecord
100
AcDbLinetypeTableRecord
  2
ACAD_ISO14W100
 70
     0
  3
ISO dash triple-dot __ . . . __ . . . __ . . . 
 72
    65
 73
     8
 40
0.95
 49
0.47
 74
     0
 49
-0.12
 74
     0
 49
0.0
 74
     0
 49
-0.12
 74
     0
 49
0.0
 74
     0
 49
-0.12
 74
     0
 49
0.0
 74
     0
 49
-0.12
 74
     0
  0
LTYPE
  5
B1
330
5
100
AcDbSymbolTableRecord
100
AcDbLinetypeTableRecord
  2
ACAD_ISO15W100
 70
     0
  3
ISO double-dash triple-dot __ __ . . . __ __ . 
 72
    65
 73
    10
 40
1.539999999999999
 49
0.47
 74
     0
 49
-0.12
 74
     0
 49
0.47
 74
     0
 49
-0.12
 74
     0
 49
0.0
 74
     0
 49
-0.12
 74
     0
 49
0.0
 74
     0
 49
-0.12
 74
     0
 49
0.0
 74
     0
 49
-0.12
 74
     0
  0
LTYPE
  5
B4
330
5
100
AcDbSymbolTableRecord
100
AcDbLinetypeTableRecord
  2
FENCELINE1
 70
     0
  3
Fenceline circle ----0-----0----0-----0----0---
 72
    65
 73
     4
 40
1.45
 49
0.25
 74
     0
 49
-0.1
 74
     4
 75
   133
340
B3
 46
0.1
 50
0.0
 44
-0.1
 45
0.0
 49
-0.1
 74
     0
 49
1.0
 74
     0
  0
LTYPE
  5
B5
330
5
100
AcDbSymbolTableRecord
100
AcDbLinetypeTableRecord
  2
FENCELINE2
 70
     0
  3
Fenceline square ----[]-----[]----[]-----[]----
 72
    65
 73
     4
 40
1.45
 49
0.25
 74
     0
 49
-0.1
 74
     4
 75
   132
340
B3
 46
0.1
 50
0.0
 44
-0.1
 45
0.0
 49
-0.1
 74
     0
 49
1.0
 74
     0
  0
LTYPE
  5
B6
330
5
100
AcDbSymbolTableRecord
100
AcDbLinetypeTableRecord
  2
TRACKS
 70
     0
  3
Tracks -|-|-|-|-|-|-|-|-|-|-|-|-|-|-|-|-|-|-|-|
 72
    65
 73
     2
 40
0.3
 49
0.15
 74
     4
 75
   130
340
B3
 46
0.25
 50
0.0
 44
0.0
 45
0.0
 49
0.15
 74
     0
  0
LTYPE
  5
B7
330
5
100
AcDbSymbolTableRecord
100
AcDbLinetypeTableRecord
  2
BATTING
 70
     0
  3
Batting SSSSSSSSSSSSSSSSSSSSSSSSSSSSSSSSSSSSSSS
 72
    65
 73
     4
 40
0.4001000000000001
 49
0.0001
 74
     0
 49
-0.1
 74
     4
 75
   134
340
B3
 46
0.1
 50
0.0
 44
-0.1
 45
0.0
 49
-0.2
 74
     4
 75
   134
340
B3
 46
0.1
 50
180.0
 44
0.1
 45
0.0
 49
-0.1
 74
     0
  0
LTYPE
  5
B8
330
5
100
AcDbSymbolTableRecord
100
AcDbLinetypeTableRecord
  2
HOT_WATER_SUPPLY
 70
     0
  3
Hot water supply ---- HW ---- HW ---- HW ----
 72
    65
 73
     3
 40
0.9
 49
0.5
 74
     0
 49
-0.2
 74
     2
 75
     0
340
5D
 46
0.1
 50
0.0
 44
-0.1
 45
-0.05
  9
HW
 49
-0.2
 74
     0
  0
LTYPE
  5
B9
330
5
100
AcDbSymbolTableRecord
100
AcDbLinetypeTableRecord
  2
GAS_LINE
 70
     0
  3
Gas line ----GAS----GAS----GAS----GAS----GAS---
 72
    65
 73
     3
 40
0.95
 49
0.5
 74
     0
 49
-0.2
 74
     2
 75
     0
340
5D
 46
0.1
 50
0.0
 44
-0.1
 45
-0.05
  9
GAS
 49
-0.25
 74
     0
  0
LTYPE
  5
BA
330
5
100
AcDbSymbolTableRecord
100
AcDbLinetypeTableRecord
  2
ZIGZAG
 70
     0
  3
Zig zag /\/\/\/\/\/\/\/\/\/\/\/\/\/\/\/\/\/\/\/
 72
    65
 73
     4
 40
0.8001000000000001
 49
0.0001
 74
     0
 49
-0.2
 74
     4
 75
   131
340
B3
 46
0.2
 50
0.0
 44
-0.2
 45
0.0
 49
-0.4
 74
     4
 75
   131
340
B3
 46
0.2
 50
180.0
 44
0.2
 45
0.0
 49
-0.2
 74
     0
  0
ENDTAB
  0
TABLE
  2
LAYER
  5
2
330
0
100
AcDbSymbolTable
 70
    25
  0
LAYER
  5
5C
330
2
100
AcDbSymbolTableRecord
100
AcDbLayerTableRecord
  2
0
 70
     0
 62
     7
  6
Continuous
370
    -3
390
F
347
21
  0
LAYER
  5
CE
330
2
100
AcDbSymbolTableRecord
100
AcDbLayerTableRecord
  2
Visible (ISO)
 70
     0
 62
     7
  6
Continuous
370
    50
390
F
347
21
  0
LAYER
  5
CF
330
2
100
AcDbSymbolTableRecord
100
AcDbLayerTableRecord
  2
Visible Narrow (ISO)
 70
     0
 62
     7
  6
Continuous
370
    35
390
F
347
21
  0
ENDTAB
  0
TABLE
  2
STYLE
  5
3
330
0
100
AcDbSymbolTable
 70
    12
  0
STYLE
  5
5D
330
3
100
AcDbSymbolTableRecord
100
AcDbTextStyleTableRecord
  2
Standard
 70
     0
 40
0.0
 41
1.0
 50
0.0
 71
     0
 42
0.2
  3
TAHOMA.TTF
  4

1001
ACAD
1000
Tahoma
1071
      256
  0
STYLE
  5
62
330
3
100
AcDbSymbolTableRecord
100
AcDbTextStyleTableRecord
  2
Annotative
 70
     0
 40
0.0
 41
1.0
 50
0.0
 71
     0
 42
0.2
  3

  4

1001
AcadAnnotative
1000
AnnotativeData
1002
{
1070
     1
1070
     1
1002
}
  0
STYLE
  5
B3
330
3
100
AcDbSymbolTableRecord
100
AcDbTextStyleTableRecord
  2

 70
     1
 40
0.0
 41
1.0
 50
0.0
 71
     0
 42
0.2
  3
ltypeshp.shx
  4

  0
STYLE
  5
D3
330
3
100
AcDbSymbolTableRecord
100
AcDbTextStyleTableRecord
  2
Installation
 70
     0
 40
0.0
 41
1.0
 50
0.0
 71
     0
 42
0.2
  3
TAHOMA.TTF
  4

1001
ACAD
1000
Tahoma
1071
      256
  0
STYLE
  5
D4
330
3
100
AcDbSymbolTableRecord
100
AcDbTextStyleTableRecord
  2
Label Text (ANSI)
 70
     0
 40
0.0
 41
1.0
 50
0.0
 71
     0
 42
0.2
  3
TAHOMA.TTF
  4

1001
ACAD
1000
Tahoma
1071
      256
  0
STYLE
  5
D5
330
3
100
AcDbSymbolTableRecord
100
AcDbTextStyleTableRecord
  2
Label Text (DIN)
 70
     0
 40
0.0
 41
1.0
 50
0.0
 71
     0
 42
0.2
  3
isocpeur.ttf
  4

1001
ACAD
1000
ISOCPEUR
1071
      256
  0
STYLE
  5
D6
330
3
100
AcDbSymbolTableRecord
100
AcDbTextStyleTableRecord
  2
Label Text (ISO)
 70
     0
 40
0.0
 41
1.0
 50
0.0
 71
     0
 42
0.2
  3
TAHOMA.TTF
  4

1001
ACAD
1000
Tahoma
1071
      256
  0
STYLE
  5
D7
330
3
100
AcDbSymbolTableRecord
100
AcDbTextStyleTableRecord
  2
Label Text (JIS)
 70
     0
 40
0.0
 41
1.0
 50
0.0
 71
     0
 42
0.2
  3
TAHOMA.TTF
  4

1001
ACAD
1000
Tahoma
1071
      256
  0
STYLE
  5
D8
330
3
100
AcDbSymbolTableRecord
100
AcDbTextStyleTableRecord
  2
Note Text (ANSI)
 70
     0
 40
0.0
 41
1.0
 50
0.0
 71
     0
 42
0.2
  3
TAHOMA.TTF
  4

1001
ACAD
1000
Tahoma
1071
      256
  0
STYLE
  5
D9
330
3
100
AcDbSymbolTableRecord
100
AcDbTextStyleTableRecord
  2
Note Text (DIN)
 70
     0
 40
0.0
 41
1.0
 50
0.0
 71
     0
 42
0.2
  3
isocpeur.ttf
  4

1001
ACAD
1000
ISOCPEUR
1071
      256
  0
STYLE
  5
DA
330
3
100
AcDbSymbolTableRecord
100
AcDbTextStyleTableRecord
  2
Note Text (ISO)
 70
     0
 40
0.0
 41
1.0
 50
0.0
 71
     0
 42
0.2
  3
TAHOMA.TTF
  4

1001
ACAD
1000
Tahoma
1071
      256
  0
STYLE
  5
DB
330
3
100
AcDbSymbolTableRecord
100
AcDbTextStyleTableRecord
  2
Note Text (JIS)
 70
     0
 40
0.0
 41
1.0
 50
0.0
 71
     0
 42
0.2
  3
TAHOMA.TTF
  4

1001
ACAD
1000
Tahoma
1071
      256
  0
ENDTAB
  0
TABLE
  2
VIEW
  5
6
330
0
100
AcDbSymbolTable
 70
     0
  0
ENDTAB
  0
TABLE
  2
UCS
  5
7
330
0
100
AcDbSymbolTable
 70
     0
  0
ENDTAB
  0
TABLE
  2
APPID
  5
9
330
0
100
AcDbSymbolTable
 70
     3
  0
APPID
  5
5E
330
9
100
AcDbSymbolTableRecord
100
AcDbRegAppTableRecord
  2
ACAD
 70
     0
  0
APPID
  5
66
330
9
100
AcDbSymbolTableRecord
100
AcDbRegAppTableRecord
  2
AcadAnnotative
 70
     0
  0
APPID
  5
70
330
9
100
AcDbSymbolTableRecord
100
AcDbRegAppTableRecord
  2
ACAD_MLEADERVER
 70
     0
  0
ENDTAB
  0
TABLE
  2
DIMSTYLE
  5
A
330
0
100
AcDbSymbolTable
 70
    16
100
AcDbDimStyleTable
 71
     0
  0
DIMSTYLE
105
60
330
A
100
AcDbSymbolTableRecord
100
AcDbDimStyleTableRecord
  2
Standard
 70
     0
340
5D
  0
DIMSTYLE
105
61
330
A
100
AcDbSymbolTableRecord
100
AcDbDimStyleTableRecord
  2
Annotative
 70
     0
340
5D
1001
AcadAnnotative
1000
AnnotativeData
1002
{
1070
     1
1070
     1
1002
}
  0
DIMSTYLE
105
DC
330
A
100
AcDbSymbolTableRecord
100
AcDbDimStyleTableRecord
  2
Default - Method 1b (ISO)
 70
     0
 40
2.0
 41
2.5
 42
0.0
 43
5.999999999999999
 44
3.174999999999999
 45
0.00000001
 46
10.0
 73
     0
 77
     1
 78
     8
 79
     2
140
3.5
143
0.03937
147
0.762
171
     3
172
     1
176
   256
177
   256
178
   256
179
     2
271
     2
272
     2
274
     3
278
    44
284
     8
286
     8
340
DA
371
    -1
372
    -1
  0
DIMSTYLE
105
DD
330
A
100
AcDbSymbolTableRecord
100
AcDbDimStyleTableRecord
  2
Default - Method 1b (ISO)$7
 70
     0
 40
2.0
 41
2.5
 42
0.0
 43
5.999999999999999
 44
3.174999999999999
 45
0.00000001
 46
10.0
 73
     0
 77
     1
 78
     8
 79
     2
140
3.5
143
0.03937
147
0.762
171
     3
172
     1
176
   256
177
   256
178
   256
179
     2
271
     2
272
     2
274
     3
278
    44
284
     8
286
     8
340
DA
371
    -1
372
    -1
  0
DIMSTYLE
105
DE
330
A
100
AcDbSymbolTableRecord
100
AcDbDimStyleTableRecord
  2
Default - Method 2a (ISO)
 70
     0
 40
2.0
 41
2.5
 42
0.0
 43
5.999999999999999
 44
3.174999999999999
 45
0.00000001
 46
10.0
 77
     1
 78
     8
 79
     2
140
3.5
143
0.03937
147
0.762
171
     3
172
     1
176
   256
177
   256
178
   256
179
     2
271
     2
272
     2
274
     3
278
    44
284
     8
286
     8
340
DA
371
    -1
372
    -1
  0
DIMSTYLE
105
DF
330
A
100
AcDbSymbolTableRecord
100
AcDbDimStyleTableRecord
  2
Default - Method 2a (ISO)$7
 70
     0
 40
2.0
 41
2.5
 42
0.0
 43
5.999999999999999
 44
3.174999999999999
 45
0.00000001
 46
10.0
 77
     1
 78
     8
 79
     2
140
3.5
143
0.03937
147
0.762
171
     3
172
     1
176
   256
177
   256
178
   256
179
     2
271
     2
272
     2
274
     3
278
    44
284
     8
286
     8
340
DA
371
    -1
372
    -1
  0
DIMSTYLE
105
E0
330
A
100
AcDbSymbolTableRecord
100
AcDbDimStyleTableRecord
  2
Default - Method 2b (ISO)
 70
     0
 40
2.0
 41
2.5
 42
0.0
 43
5.999999999999999
 44
3.174999999999999
 45
0.00000001
 46
10.0
 77
     1
 78
     8
 79
     2
140
3.5
143
0.03937
147
0.762
171
     3
172
     1
176
   256
177
   256
178
   256
179
     2
271
     2
272
     2
274
     3
278
    44
284
     8
286
     8
340
DA
371
    -1
372
    -1
  0
DIMSTYLE
105
E1
330
A
100
AcDbSymbolTableRecord
100
AcDbDimStyleTableRecord
  2
Default - Method 2b (ISO)$7
 70
     0
 40
2.0
 41
2.5
 42
0.0
 43
5.999999999999999
 44
3.174999999999999
 45
0.00000001
 46
10.0
 77
     1
 78
     8
 79
     2
140
3.5
143
0.03937
147
0.762
171
     3
172
     1
176
   256
177
   256
178
   256
179
     2
271
     2
272
     2
274
     3
278
    44
284
     8
286
     8
340
DA
371
    -1
372
    -1
  0
DIMSTYLE
105
E2
330
A
100
AcDbSymbolTableRecord
100
AcDbDimStyleTableRecord
  2
Default - mm [in] (ISO)
 70
     0
  4
 in
 40
2.0
 41
2.5
 42
0.0
 43
5.999999999999999
 44
3.174999999999999
 45
0.00000001
 46
10.0
 73
     0
 74
     0
 77
     1
 78
     8
 79
     2
140
3.5
143
0.03937
147
0.762
170
     1
171
     3
172
     1
176
   256
177
   256
178
   256
179
     3
271
     3
272
     2
274
     3
275
     1
278
    44
284
     8
285
     8
286
     8
340
DA
371
    -1
372
    -1
  0
DIMSTYLE
105
E3
330
A
100
AcDbSymbolTableRecord
100
AcDbDimStyleTableRecord
  2
Default - mm [in] (ISO)$7
 70
     0
  4
 in
 40
2.0
 41
2.5
 42
0.0
 43
5.999999999999999
 44
3.174999999999999
 45
0.00000001
 46
10.0
 73
     0
 74
     0
 77
     1
 78
     8
 79
     2
140
3.5
143
0.03937
147
0.762
170
     1
171
     3
172
     1
176
   256
177
   256
178
   256
179
     3
271
     3
272
     2
274
     3
275
     1
278
    44
284
     8
285
     8
286
     8
340
DA
371
    -1
372
    -1
  0
DIMSTYLE
105
E4
330
A
100
AcDbSymbolTableRecord
100
AcDbDimStyleTableRecord
  2
Default (ISO)
 70
     0
 40
2.0
 41
2.5
 42
0.0
 43
5.999999999999999
 44
3.174999999999999
 45
0.00000001
 46
10.0
 73
     0
 74
     0
 77
     1
140
3.5
143
0.03937
146
1.001485756465366
147
0.762
171
     3
172
     1
176
   256
177
   256
178
   256
179
     2
271
     2
272
     2
274
     3
278
    44
340
DA
371
    -1
372
    -1
  0
DIMSTYLE
105
E5
330
A
100
AcDbSymbolTableRecord
100
AcDbDimStyleTableRecord
  2
Default (ISO)$7
 70
     0
 40
2.0
 41
2.5
 42
0.0
 43
5.999999999999999
 44
3.174999999999999
 45
0.00000001
 46
10.0
 73
     0
 74
     0
 77
     1
140
3.5
143
0.03937
146
1.001485756465366
147
0.762
171
     3
172
     1
176
   256
177
   256
178
   256
179
     2
271
     2
272
     2
274
     3
278
    44
340
DA
371
    -1
372
    -1
  0
DIMSTYLE
105
F4
330
A
100
AcDbSymbolTableRecord
100
AcDbDimStyleTableRecord
  2
Miscellaneous Object (ISO)
 70
     0
 40
2.0
 41
2.5
 42
0.0
 43
5.999999999999999
 44
3.174999999999999
 45
0.00000001
 46
10.0
 73
     0
 74
     0
 77
     1
140
5.25
143
0.03937
146
0.6676571709769112
147
0.762
171
     3
172
     1
176
   256
177
   256
178
   256
179
     2
271
     2
272
     2
274
     3
278
    44
340
D6
341
E6
371
    -1
372
    -1
  0
DIMSTYLE
105
F5
330
A
100
AcDbSymbolTableRecord
100
AcDbDimStyleTableRecord
  2
Miscellaneous Object (ISO)$7
 70
     0
 40
2.0
 41
5.0
 42
0.0
 43
5.999999999999999
 44
3.174999999999999
 45
0.00000001
 46
10.0
 73
     0
 74
     0
 77
     1
140
5.25
143
0.03937
146
0.6676571709769112
147
0.762
171
     3
172
     1
176
   256
177
   256
178
   256
179
     2
271
     2
272
     2
274
     3
278
    44
340
D6
341
E6
371
    25
372
    -1
  0
DIMSTYLE
105
F6
330
A
100
AcDbSymbolTableRecord
100
AcDbDimStyleTableRecord
  2
Alternate (ISO)
 70
     0
 40
2.0
 41
2.5
340
5D
342
F7
  0
DIMSTYLE
105
108
330
A
100
AcDbSymbolTableRecord
100
AcDbDimStyleTableRecord
  2
Datum (ISO)
 70
     0
 40
2.0
 41
2.5
340
5D
342
F7
  0
ENDTAB
  0
TABLE
  2
BLOCK_RECORD
  5
1
330
0
100
AcDbSymbolTable
 70
     4
  0
BLOCK_RECORD
  5
75
330
1
100
AcDbSymbolTableRecord
100
AcDbBlockTableRecord
  2
*Model_Space
340
78
 70
     0
280
     1
281
     0
  0
BLOCK_RECORD
  5
71
330
1
100
AcDbSymbolTableRecord
100
AcDbBlockTableRecord
  2
*Paper_Space
340
74
 70
     0
280
     1
281
     0
  0
BLOCK_RECORD
  5
79
330
1
100
AcDbSymbolTableRecord
100
AcDbBlockTableRecord
  2
*Paper_Space0
340
7C
 70
     0
280
     1
281
     0
  0
BLOCK_RECORD
  5
E6
330
1
100
AcDbSymbolTableRecord
100
AcDbBlockTableRecord
  2
Filled-1
340
0
 70
     0
280
     1
281
     0
  0
BLOCK_RECORD
  5
F7
330
1
100
AcDbSymbolTableRecord
100
AcDbBlockTableRecord
  2
_Closed
340
0
 70
     0
280
     1
281
     0
  0
BLOCK_RECORD
  5
FE
330
1
100
AcDbSymbolTableRecord
100
AcDbBlockTableRecord
  2
DatumFilled45
340
0
 70
     0
280
     1
281
     0
  0
ENDTAB
  0
ENDSEC
  0
SECTION
  2
BLOCKS
  0
BLOCK
  5
76
330
75
100
AcDbEntity
  8
0
100
AcDbBlockBegin
  2
*Model_Space
 70
     0
 10
0.0
 20
0.0
 30
0.0
  3
*Model_Space
  1

  0
ENDBLK
  5
77
330
75
100
AcDbEntity
  8
0
100
AcDbBlockEnd
  0
BLOCK
  5
72
330
71
100
AcDbEntity
 67
     1
  8
0
100
AcDbBlockBegin
  2
*Paper_Space
 70
     0
 10
0.0
 20
0.0
 30
0.0
  3
*Paper_Space
  1

  0
ENDBLK
  5
73
330
71
100
AcDbEntity
 67
     1
  8
0
100
AcDbBlockEnd
  0
BLOCK
  5
7A
330
79
100
AcDbEntity
 67
     1
  8
0
100
AcDbBlockBegin
  2
*Paper_Space0
 70
     0
 10
0.0
 20
0.0
 30
0.0
  3
*Paper_Space0
  1

  0
ENDBLK
  5
7B
330
79
100
AcDbEntity
 67
     1
  8
0
100
AcDbBlockEnd
  0
BLOCK
  5
E7
330
E6
100
AcDbEntity
  8
0
100
AcDbBlockBegin
  2
Filled-1
 70
     0
 10
0.0
 20
0.0
 30
0.0
  3
Filled-1
  1

  0
LINE
  5
E9
330
E6
100
AcDbEntity
  8
0
 62
     0
100
AcDbLine
 10
-1.0
 20
0.0
 30
0.0
 11
0.0
 21
0.0
 31
0.0
  0
POLYLINE
  5
EA
330
E6
100
AcDbEntity
  8
0
 62
     0
100
AcDb2dPolyline
 66
     1
 10
0.0
 20
0.0
 30
0.0
 70
   128
  0
VERTEX
  5
EB
330
EA
100
AcDbEntity
  8
0
 62
     0
100
AcDbVertex
100
AcDb2dVertex
 10
-1.0
 20
-0.1
 30
0.0
  0
VERTEX
  5
EC
330
EA
100
AcDbEntity
  8
0
 62
     0
100
AcDbVertex
100
AcDb2dVertex
 10
0.0
 20
0.0
 30
0.0
  0
VERTEX
  5
EE
330
EA
100
AcDbEntity
  8
0
 62
     0
100
AcDbVertex
100
AcDb2dVertex
 10
-1.0
 20
0.1
 30
0.0
  0
VERTEX
  5
EF
330
EA
100
AcDbEntity
  8
0
 62
     0
100
AcDbVertex
100
AcDb2dVertex
 10
-1.0
 20
-0.1
 30
0.0
  0
SEQEND
  5
ED
330
EA
100
AcDbEntity
  8
0
 62
     0
  0
SOLID
  5
F0
330
E6
100
AcDbEntity
  8
0
 62
     0
100
AcDbTrace
 10
-1.0
 20
-0.1
 30
0.0
 11
0.0
 21
0.0
 31
0.0
 12
-1.0
 22
0.1
 32
0.0
 13
-1.0
 23
-0.1
 33
0.0
  0
LINE
  5
F1
330
E6
100
AcDbEntity
  8
0
 62
     0
100
AcDbLine
 10
-1.0
 20
-0.1
 30
0.0
 11
0.0
 21
0.0
 31
0.0
  0
LINE
  5
F2
330
E6
100
AcDbEntity
  8
0
 62
     0
100
AcDbLine
 10
0.0
 20
0.0
 30
0.0
 11
-1.0
 21
0.1
 31
0.0
  0
LINE
  5
F3
330
E6
100
AcDbEntity
  8
0
 62
     0
100
AcDbLine
 10
-1.0
 20
0.1
 30
0.0
 11
-1.0
 21
-0.1
 31
0.0
  0
ENDBLK
  5
E8
330
E6
100
AcDbEntity
  8
0
100
AcDbBlockEnd
  0
BLOCK
  5
FC
330
F7
100
AcDbEntity
  8
0
100
AcDbBlockBegin
  2
_Closed
 70
     0
 10
0.0
 20
0.0
 30
0.0
  3
_Closed
  1

  0
LINE
  5
F8
330
F7
100
AcDbEntity
  8
0
  6
ByBlock
 62
     0
370
    -2
100
AcDbLine
 10
-1.0
 20
0.1666666666666666
 30
0.0
 11
0.0
 21
0.0
 31
0.0
  0
LINE
  5
F9
330
F7
100
AcDbEntity
  8
0
  6
ByBlock
 62
     0
370
    -2
100
AcDbLine
 10
0.0
 20
0.0
 30
0.0
 11
-1.0
 21
-0.1666666666666666
 31
0.0
  0
LINE
  5
FA
330
F7
100
AcDbEntity
  8
0
  6
ByBlock
 62
     0
370
    -2
100
AcDbLine
 10
-1.0
 20
0.1666666666666666
 30
0.0
 11
-1.0
 21
-0.1666666666666666
 31
0.0
  0
LINE
  5
FB
330
F7
100
AcDbEntity
  8
0
  6
ByBlock
 62
     0
370
    -2
100
AcDbLine
 10
0.0
 20
0.0
 30
0.0
 11
-1.0
 21
0.0
 31
0.0
  0
ENDBLK
  5
FD
330
F7
100
AcDbEntity
  8
0
100
AcDbBlockEnd
  0
BLOCK
  5
FF
330
FE
100
AcDbEntity
  8
0
100
AcDbBlockBegin
  2
DatumFilled45
 70
     0
 10
0.0
 20
0.0
 30
0.0
  3
DatumFilled45
  1

  0
POLYLINE
  5
101
330
FE
100
AcDbEntity
  8
0
 62
     0
100
AcDb2dPolyline
 66
     1
 10
0.0
 20
0.0
 30
0.0
 70
   128
  0
VERTEX
  5
102
330
101
100
AcDbEntity
  8
0
 62
     0
100
AcDbVertex
100
AcDb2dVertex
 10
0.0
 20
1.0
 30
0.0
  0
VERTEX
  5
103
330
101
100
AcDbEntity
  8
0
 62
     0
100
AcDbVertex
100
AcDb2dVertex
 10
0.0
 20
-1.0
 30
0.0
  0
VERTEX
  5
105
330
101
100
AcDbEntity
  8
0
 62
     0
100
AcDbVertex
100
AcDb2dVertex
 10
-1.0
 20
0.0
 30
0.0
  0
VERTEX
  5
106
330
101
100
AcDbEntity
  8
0
 62
     0
100
AcDbVertex
100
AcDb2dVertex
 10
0.0
 20
1.0
 30
0.0
  0
SEQEND
  5
104
330
101
100
AcDbEntity
  8
0
 62
     0
  0
SOLID
  5
107
330
FE
100
AcDbEntity
  8
0
 62
     0
100
AcDbTrace
 10
0.0
 20
1.0
 30
0.0
 11
0.0
 21
-1.0
 31
0.0
 12
-1.0
 22
0.0
 32
0.0
 13
0.0
 23
1.0
 33
0.0
  0
ENDBLK
  5
100
330
FE
100
AcDbEntity
  8
0
100
AcDbBlockEnd
  0
ENDSEC
  0
SECTION
  2
ENTITIES
  0
LINE
  5
109
330
75
100
AcDbEntity
  8
Visible (ISO)
100
AcDbLine
 10
165.8798452992349
 20
173.9331369526311
 30
0.0
 11
166.1579605941724
 21
174.3331369526311
 31
0.0
  0
POLYLINE
  5
10A
330
75
100
AcDbEntity
  8
Visible (ISO)
100
AcDb2dPolyline
 66
     1
 10
0.0
 20
0.0
 30
0.0
 70
   128
  0
VERTEX
  5
10B
330
10A
100
AcDbEntity
  8
Visible (ISO)
100
AcDbVertex
100
AcDb2dVertex
 10
173.3441853785518
 20
165.3331380016728
 30
0.0
  0
VERTEX
  5
10C
330
10A
100
AcDbEntity
  8
Visible (ISO)
100
AcDbVertex
100
AcDb2dVertex
 10
173.3439183497432
 20
165.3387909061834
 30
0.0
  0
VERTEX
  5
10E
330
10A
100
AcDbEntity
  8
Visible (ISO)
100
AcDbVertex
100
AcDb2dVertex
 10
173.3431363368038
 20
165.3444438106938
 30
0.0
  0
VERTEX
  5
10F
330
10A
100
AcDbEntity
  8
Visible (ISO)
100
AcDbVertex
100
AcDb2dVertex
 10
173.3418202662472
 20
165.3500967152043
 30
0.0
  0
VERTEX
  5
110
330
10A
100
AcDbEntity
  8
Visible (ISO)
100
AcDbVertex
100
AcDb2dVertex
 10
173.3399892115596
 20
165.3557496197148
 30
0.0
  0
VERTEX
  5
111
330
10A
100
AcDbEntity
  8
Visible (ISO)
100
AcDbVertex
100
AcDb2dVertex
 10
173.337624099255
 20
165.3614025242253
 30
0.0
  0
VERTEX
  5
112
330
10A
100
AcDbEntity
  8
Visible (ISO)
100
AcDbVertex
100
AcDb2dVertex
 10
173.3347344660763
 20
165.3670554287358
 30
0.0
  0
VERTEX
  5
113
330
10A
100
AcDbEntity
  8
Visible (ISO)
100
AcDbVertex
100
AcDb2dVertex
 10
173.3313298487667
 20
165.3727083332463
 30
0.0
  0
VERTEX
  5
114
330
10A
100
AcDbEntity
  8
Visible (ISO)
100
AcDbVertex
100
AcDb2dVertex
 10
173.3273911738399
 20
165.3783612377568
 30
0.0
  0
VERTEX
  5
115
330
10A
100
AcDbEntity
  8
Visible (ISO)
100
AcDbVertex
100
AcDb2dVertex
 10
173.3229375147823
 20
165.3840141422673
 30
0.0
  0
VERTEX
  5
116
330
10A
100
AcDbEntity
  8
Visible (ISO)
100
AcDbVertex
100
AcDb2dVertex
 10
173.3179497981075
 20
165.3896670467778
 30
0.0
  0
VERTEX
  5
117
330
10A
100
AcDbEntity
  8
Visible (ISO)
100
AcDbVertex
100
AcDb2dVertex
 10
173.3124470973018
 20
165.3953199512883
 30
0.0
  0
VERTEX
  5
118
330
10A
100
AcDbEntity
  8
Visible (ISO)
100
AcDbVertex
100
AcDb2dVertex
 10
173.3064198756221
 20
165.4009728557988
 30
0.0
  0
VERTEX
  5
119
330
10A
100
AcDbEntity
  8
Visible (ISO)
100
AcDbVertex
100
AcDb2dVertex
 10
173.2998681330684
 20
165.4066257603093
 30
0.0
  0
VERTEX
  5
11A
330
10A
100
AcDbEntity
  8
Visible (ISO)
100
AcDbVertex
100
AcDb2dVertex
 10
173.2927918696407
 20
165.4122786648198
 30
0.0
  0
VERTEX
  5
11B
330
10A
100
AcDbEntity
  8
Visible (ISO)
100
AcDbVertex
100
AcDb2dVertex
 10
173.2852006220821
 20
165.4179315693303
 30
0.0
  0
VERTEX
  5
11C
330
10A
100
AcDbEntity
  8
Visible (ISO)
100
AcDbVertex
100
AcDb2dVertex
 10
173.2770753169063
 20
165.4235844738408
 30
0.0
  0
VERTEX
  5
11D
330
10A
100
AcDbEntity
  8
Visible (ISO)
100
AcDbVertex
100
AcDb2dVertex
 10
173.2684350275997
 20
165.4292373783513
 30
0.0
  0
VERTEX
  5
11E
330
10A
100
AcDbEntity
  8
Visible (ISO)
100
AcDbVertex
100
AcDb2dVertex
 10
173.2592797541622
 20
165.4348926670476
 30
0.0
  0
VERTEX
  5
11F
330
10A
100
AcDbEntity
  8
Visible (ISO)
100
AcDbVertex
100
AcDb2dVertex
 10
173.2495999598507
 20
165.4405455715581
 30
0.0
  0
VERTEX
  5
120
330
10A
100
AcDbEntity
  8
Visible (ISO)
100
AcDbVertex
100
AcDb2dVertex
 10
173.2393956446651
 20
165.4461984760686
 30
0.0
  0
VERTEX
  5
121
330
10A
100
AcDbEntity
  8
Visible (ISO)
100
AcDbVertex
100
AcDb2dVertex
 10
173.2286763453487
 20
165.4518513805791
 30
0.0
  0
VERTEX
  5
122
330
10A
100
AcDbEntity
  8
Visible (ISO)
100
AcDbVertex
100
AcDb2dVertex
 10
173.2174325251583
 20
165.4575042850896
 30
0.0
  0
VERTEX
  5
123
330
10A
100
AcDbEntity
  8
Visible (ISO)
100
AcDbVertex
100
AcDb2dVertex
 10
173.205673720837
 20
165.4631571896001
 30
0.0
  0
VERTEX
  5
124
330
10A
100
AcDbEntity
  8
Visible (ISO)
100
AcDbVertex
100
AcDb2dVertex
 10
173.1933999323848
 20
165.4688100941106
 30
0.0
  0
SEQEND
  5
10D
330
10A
100
AcDbEntity
  8
Visible (ISO)
  0
POLYLINE
  5
125
330
75
100
AcDbEntity
  8
Visible (ISO)
100
AcDb2dPolyline
 66
     1
 10
0.0
 20
0.0
 30
0.0
 70
   128
  0
VERTEX
  5
126
330
125
100
AcDbEntity
  8
Visible (ISO)
100
AcDbVertex
100
AcDb2dVertex
 10
152.6949715876583
 20
167.6974635250493
 30
0.0
  0
VERTEX
  5
127
330
125
100
AcDbEntity
  8
Visible (ISO)
100
AcDbVertex
100
AcDb2dVertex
 10
152.5724530482295
 20
167.7744465000554
 30
0.0
  0
VERTEX
  5
129
330
125
100
AcDbEntity
  8
Visible (ISO)
100
AcDbVertex
100
AcDb2dVertex
 10
152.5469327235225
 20
167.8514270908757
 30
0.0
  0
VERTEX
  5
12A
330
125
100
AcDbEntity
  8
Visible (ISO)
100
AcDbVertex
100
AcDb2dVertex
 10
152.6186299586299
 20
167.9284100658818
 30
0.0
  0
VERTEX
  5
12B
330
125
100
AcDbEntity
  8
Visible (ISO)
100
AcDbVertex
100
AcDb2dVertex
 10
152.7868867182735
 20
168.0053906567021
 30
0.0
  0
VERTEX
  5
12C
330
125
100
AcDbEntity
  8
Visible (ISO)
100
AcDbVertex
100
AcDb2dVertex
 10
153.0501199030879
 20
168.0823736317082
 30
0.0
  0
VERTEX
  5
12D
330
125
100
AcDbEntity
  8
Visible (ISO)
100
AcDbVertex
100
AcDb2dVertex
 10
153.405869033337
 20
168.1593542225286
 30
0.0
  0
VERTEX
  5
12E
330
125
100
AcDbEntity
  8
Visible (ISO)
100
AcDbVertex
100
AcDb2dVertex
 10
153.8508153223995
 20
168.2363371975347
 30
0.0
  0
VERTEX
  5
12F
330
125
100
AcDbEntity
  8
Visible (ISO)
100
AcDbVertex
100
AcDb2dVertex
 10
154.3807912135127
 20
168.313317788355
 30
0.0
  0
VERTEX
  5
130
330
125
100
AcDbEntity
  8
Visible (ISO)
100
AcDbVertex
100
AcDb2dVertex
 10
154.9908471369747
 20
168.3903007633611
 30
0.0
  0
VERTEX
  5
131
330
125
100
AcDbEntity
  8
Visible (ISO)
100
AcDbVertex
100
AcDb2dVertex
 10
155.6752705836299
 20
168.4672813541814
 30
0.0
  0
VERTEX
  5
132
330
125
100
AcDbEntity
  8
Visible (ISO)
100
AcDbVertex
100
AcDb2dVertex
 10
156.4276719355586
 20
168.5442643291875
 30
0.0
  0
VERTEX
  5
133
330
125
100
AcDbEntity
  8
Visible (ISO)
100
AcDbVertex
100
AcDb2dVertex
 10
157.2410035395625
 20
168.6212449200078
 30
0.0
  0
VERTEX
  5
134
330
125
100
AcDbEntity
  8
Visible (ISO)
100
AcDbVertex
100
AcDb2dVertex
 10
158.1076646113399
 20
168.6982278950139
 30
0.0
  0
VERTEX
  5
135
330
125
100
AcDbEntity
  8
Visible (ISO)
100
AcDbVertex
100
AcDb2dVertex
 10
159.0195489192012
 20
168.7752084858342
 30
0.0
  0
VERTEX
  5
136
330
125
100
AcDbEntity
  8
Visible (ISO)
100
AcDbVertex
100
AcDb2dVertex
 10
159.968140151501
 20
168.8521914608403
 30
0.0
  0
VERTEX
  5
137
330
125
100
AcDbEntity
  8
Visible (ISO)
100
AcDbVertex
100
AcDb2dVertex
 10
160.9445596003536
 20
168.9291744358464
 30
0.0
  0
VERTEX
  5
138
330
125
100
AcDbEntity
  8
Visible (ISO)
100
AcDbVertex
100
AcDb2dVertex
 10
161.9396710658077
 20
169.0061550266667
 30
0.0
  0
VERTEX
  5
139
330
125
100
AcDbEntity
  8
Visible (ISO)
100
AcDbVertex
100
AcDb2dVertex
 10
162.9441857600216
 20
169.0831380016728
 30
0.0
  0
VERTEX
  5
13A
330
125
100
AcDbEntity
  8
Visible (ISO)
100
AcDbVertex
100
AcDb2dVertex
 10
163.9486909174923
 20
169.1601185924931
 30
0.0
  0
VERTEX
  5
13B
330
125
100
AcDbEntity
  8
Visible (ISO)
100
AcDbVertex
100
AcDb2dVertex
 10
164.9438119196895
 20
169.2371015674993
 30
0.0
  0
VERTEX
  5
13C
330
125
100
AcDbEntity
  8
Visible (ISO)
100
AcDbVertex
100
AcDb2dVertex
 10
165.9202218317989
 20
169.3140821583196
 30
0.0
  0
VERTEX
  5
13D
330
125
100
AcDbEntity
  8
Visible (ISO)
100
AcDbVertex
100
AcDb2dVertex
 10
166.8688130640987
 20
169.3910651333257
 30
0.0
  0
VERTEX
  5
13E
330
125
100
AcDbEntity
  8
Visible (ISO)
100
AcDbVertex
100
AcDb2dVertex
 10
167.7807069087032
 20
169.468045724146
 30
0.0
  0
VERTEX
  5
13F
330
125
100
AcDbEntity
  8
Visible (ISO)
100
AcDbVertex
100
AcDb2dVertex
 10
168.6473679804805
 20
169.5450286991521
 30
0.0
  0
VERTEX
  5
140
330
125
100
AcDbEntity
  8
Visible (ISO)
100
AcDbVertex
100
AcDb2dVertex
 10
169.4606995844845
 20
169.6220092899724
 30
0.0
  0
VERTEX
  5
141
330
125
100
AcDbEntity
  8
Visible (ISO)
100
AcDbVertex
100
AcDb2dVertex
 10
170.21309139967
 20
169.6989922649785
 30
0.0
  0
VERTEX
  5
142
330
125
100
AcDbEntity
  8
Visible (ISO)
100
AcDbVertex
100
AcDb2dVertex
 10
170.8975243830684
 20
169.7759728557988
 30
0.0
  0
VERTEX
  5
143
330
125
100
AcDbEntity
  8
Visible (ISO)
100
AcDbVertex
100
AcDb2dVertex
 10
171.5075707697872
 20
169.8529558308049
 30
0.0
  0
VERTEX
  5
144
330
125
100
AcDbEntity
  8
Visible (ISO)
100
AcDbVertex
100
AcDb2dVertex
 10
172.0375561976436
 20
169.9299364216252
 30
0.0
  0
VERTEX
  5
145
330
125
100
AcDbEntity
  8
Visible (ISO)
100
AcDbVertex
100
AcDb2dVertex
 10
172.4825024867061
 20
170.0069193966313
 30
0.0
  0
VERTEX
  5
146
330
125
100
AcDbEntity
  8
Visible (ISO)
100
AcDbVertex
100
AcDb2dVertex
 10
172.8382516169552
 20
170.0838999874517
 30
0.0
  0
VERTEX
  5
147
330
125
100
AcDbEntity
  8
Visible (ISO)
100
AcDbVertex
100
AcDb2dVertex
 10
173.1014848017696
 20
170.1608829624577
 30
0.0
  0
VERTEX
  5
148
330
125
100
AcDbEntity
  8
Visible (ISO)
100
AcDbVertex
100
AcDb2dVertex
 10
173.2697415614132
 20
170.2378635532781
 30
0.0
  0
VERTEX
  5
149
330
125
100
AcDbEntity
  8
Visible (ISO)
100
AcDbVertex
100
AcDb2dVertex
 10
173.3414387965206
 20
170.3148465282842
 30
0.0
  0
VERTEX
  5
14A
330
125
100
AcDbEntity
  8
Visible (ISO)
100
AcDbVertex
100
AcDb2dVertex
 10
173.3159089350704
 20
170.3918271191045
 30
0.0
  0
VERTEX
  5
14B
330
125
100
AcDbEntity
  8
Visible (ISO)
100
AcDbVertex
100
AcDb2dVertex
 10
173.1933999323848
 20
170.4688100941106
 30
0.0
  0
SEQEND
  5
128
330
125
100
AcDbEntity
  8
Visible (ISO)
  0
POLYLINE
  5
14C
330
75
100
AcDbEntity
  8
Visible (ISO)
100
AcDb2dPolyline
 66
     1
 10
0.0
 20
0.0
 30
0.0
 70
   128
  0
VERTEX
  5
14D
330
14C
100
AcDbEntity
  8
Visible (ISO)
100
AcDbVertex
100
AcDb2dVertex
 10
152.6949715876583
 20
172.6974635250493
 30
0.0
  0
VERTEX
  5
14E
330
14C
100
AcDbEntity
  8
Visible (ISO)
100
AcDbVertex
100
AcDb2dVertex
 10
152.5815987849239
 20
172.7656178600713
 30
0.0
  0
VERTEX
  5
150
330
14C
100
AcDbEntity
  8
Visible (ISO)
100
AcDbVertex
100
AcDb2dVertex
 10
152.5441861414913
 20
172.8337698109075
 30
0.0
  0
VERTEX
  5
151
330
14C
100
AcDbEntity
  8
Visible (ISO)
100
AcDbVertex
100
AcDb2dVertex
 10
152.5830102229122
 20
172.9019241459294
 30
0.0
  0
VERTEX
  5
152
330
14C
100
AcDbEntity
  8
Visible (ISO)
100
AcDbVertex
100
AcDb2dVertex
 10
152.6977849268916
 20
172.9700760967656
 30
0.0
  0
VERTEX
  5
153
330
14C
100
AcDbEntity
  8
Visible (ISO)
100
AcDbVertex
100
AcDb2dVertex
 10
152.8876805567745
 20
173.0382304317876
 30
0.0
  0
VERTEX
  5
154
330
14C
100
AcDbEntity
  8
Visible (ISO)
100
AcDbVertex
100
AcDb2dVertex
 10
153.1512761378291
 20
173.1063823826238
 30
0.0
  0
VERTEX
  5
155
330
14C
100
AcDbEntity
  8
Visible (ISO)
100
AcDbVertex
100
AcDb2dVertex
 10
153.486673858166
 20
173.1745343334599
 30
0.0
  0
VERTEX
  5
156
330
14C
100
AcDbEntity
  8
Visible (ISO)
100
AcDbVertex
100
AcDb2dVertex
 10
153.8913846278194
 20
173.2426886684819
 30
0.0
  0
VERTEX
  5
157
330
14C
100
AcDbEntity
  8
Visible (ISO)
100
AcDbVertex
100
AcDb2dVertex
 10
154.3624615931514
 20
173.3108406193181
 30
0.0
  0
VERTEX
  5
158
330
14C
100
AcDbEntity
  8
Visible (ISO)
100
AcDbVertex
100
AcDb2dVertex
 10
154.8964429163936
 20
173.3789949543401
 30
0.0
  0
VERTEX
  5
159
330
14C
100
AcDbEntity
  8
Visible (ISO)
100
AcDbVertex
100
AcDb2dVertex
 10
155.4894185328487
 20
173.4471469051763
 30
0.0
  0
VERTEX
  5
15A
330
14C
100
AcDbEntity
  8
Visible (ISO)
100
AcDbVertex
100
AcDb2dVertex
 10
156.137049224377
 20
173.5153012401982
 30
0.0
  0
VERTEX
  5
15B
330
14C
100
AcDbEntity
  8
Visible (ISO)
100
AcDbVertex
100
AcDb2dVertex
 10
156.8345666193965
 20
173.5834531910344
 30
0.0
  0
VERTEX
  5
15C
330
14C
100
AcDbEntity
  8
Visible (ISO)
100
AcDbVertex
100
AcDb2dVertex
 10
157.5768685603145
 20
173.6516075260564
 30
0.0
  0
VERTEX
  5
15D
330
14C
100
AcDbEntity
  8
Visible (ISO)
100
AcDbVertex
100
AcDb2dVertex
 10
158.3585191035274
 20
173.7197594768926
 30
0.0
  0
VERTEX
  5
15E
330
14C
100
AcDbEntity
  8
Visible (ISO)
100
AcDbVertex
100
AcDb2dVertex
 10
159.1737866663936
 20
173.7879138119145
 30
0.0
  0
VERTEX
  5
15F
330
14C
100
AcDbEntity
  8
Visible (ISO)
100
AcDbVertex
100
AcDb2dVertex
 10
160.0166917109493
 20
173.8560657627507
 30
0.0
  0
VERTEX
  5
160
330
14C
100
AcDbEntity
  8
Visible (ISO)
100
AcDbVertex
100
AcDb2dVertex
 10
160.8810544276241
 20
173.9242177135869
 30
0.0
  0
VERTEX
  5
161
330
14C
100
AcDbEntity
  8
Visible (ISO)
100
AcDbVertex
100
AcDb2dVertex
 10
161.7605424189571
 20
173.9923720486089
 30
0.0
  0
VERTEX
  5
162
330
14C
100
AcDbEntity
  8
Visible (ISO)
100
AcDbVertex
100
AcDb2dVertex
 10
162.6487088465694
 20
174.0605239994451
 30
0.0
  0
VERTEX
  5
163
330
14C
100
AcDbEntity
  8
Visible (ISO)
100
AcDbVertex
100
AcDb2dVertex
 10
163.5390305781368
 20
174.128678334467
 30
0.0
  0
VERTEX
  5
164
330
14C
100
AcDbEntity
  8
Visible (ISO)
100
AcDbVertex
100
AcDb2dVertex
 10
164.4250035548214
 20
174.1968302853032
 30
0.0
  0
VERTEX
  5
165
330
14C
100
AcDbEntity
  8
Visible (ISO)
100
AcDbVertex
100
AcDb2dVertex
 10
165.3001141810421
 20
174.2649846203252
 30
0.0
  0
VERTEX
  5
166
330
14C
100
AcDbEntity
  8
Visible (ISO)
100
AcDbVertex
100
AcDb2dVertex
 10
166.1579633021358
 20
174.3331365711614
 30
0.0
  0
SEQEND
  5
14F
330
14C
100
AcDbEntity
  8
Visible (ISO)
  0
LINE
  5
167
330
75
100
AcDbEntity
  8
Visible (ISO)
100
AcDbLine
 10
173.3441838526729
 20
165.3331369526311
 30
0.0
 11
172.4441838526729
 21
164.9331369526311
 31
0.0
  0
POLYLINE
  5
168
330
75
100
AcDbEntity
  8
Visible (ISO)
100
AcDb2dPolyline
 66
     1
 10
0.0
 20
0.0
 30
0.0
 70
   128
  0
VERTEX
  5
169
330
168
100
AcDbEntity
  8
Visible (ISO)
100
AcDbVertex
100
AcDb2dVertex
 10
165.8798432612423
 20
173.9331369526311
 30
0.0
  0
VERTEX
  5
16A
330
168
100
AcDbEntity
  8
Visible (ISO)
100
AcDbVertex
100
AcDb2dVertex
 10
165.1619172358516
 20
173.8706379063054
 30
0.0
  0
VERTEX
  5
16C
330
168
100
AcDbEntity
  8
Visible (ISO)
100
AcDbVertex
100
AcDb2dVertex
 10
164.4303155207637
 20
173.8081364757939
 30
0.0
  0
VERTEX
  5
16D
330
168
100
AcDbEntity
  8
Visible (ISO)
100
AcDbVertex
100
AcDb2dVertex
 10
163.6895489954952
 20
173.7456374294682
 30
0.0
  0
VERTEX
  5
16E
330
168
100
AcDbEntity
  8
Visible (ISO)
100
AcDbVertex
100
AcDb2dVertex
 10
162.9441857600216
 20
173.6831359989568
 30
0.0
  0
VERTEX
  5
16F
330
168
100
AcDbEntity
  8
Visible (ISO)
100
AcDbVertex
100
AcDb2dVertex
 10
162.1988225245479
 20
173.6206369526311
 30
0.0
  0
VERTEX
  5
170
330
168
100
AcDbEntity
  8
Visible (ISO)
100
AcDbVertex
100
AcDb2dVertex
 10
161.4580559992794
 20
173.5581379063054
 30
0.0
  0
VERTEX
  5
171
330
168
100
AcDbEntity
  8
Visible (ISO)
100
AcDbVertex
100
AcDb2dVertex
 10
160.7264542841915
 20
173.4956364757939
 30
0.0
  0
VERTEX
  5
172
330
168
100
AcDbEntity
  8
Visible (ISO)
100
AcDbVertex
100
AcDb2dVertex
 10
160.0085187220577
 20
173.4331374294683
 30
0.0
  0
VERTEX
  5
173
330
168
100
AcDbEntity
  8
Visible (ISO)
100
AcDbVertex
100
AcDb2dVertex
 10
159.3086934351924
 20
173.3706359989568
 30
0.0
  0
VERTEX
  5
174
330
168
100
AcDbEntity
  8
Visible (ISO)
100
AcDbVertex
100
AcDb2dVertex
 10
158.6312699580196
 20
173.3081369526311
 30
0.0
  0
VERTEX
  5
175
330
168
100
AcDbEntity
  8
Visible (ISO)
100
AcDbVertex
100
AcDb2dVertex
 10
157.9804444575313
 20
173.2456379063054
 30
0.0
  0
VERTEX
  5
176
330
168
100
AcDbEntity
  8
Visible (ISO)
100
AcDbVertex
100
AcDb2dVertex
 10
157.3602223658565
 20
173.1831364757939
 30
0.0
  0
VERTEX
  5
177
330
168
100
AcDbEntity
  8
Visible (ISO)
100
AcDbVertex
100
AcDb2dVertex
 10
156.774427917004
 20
173.1206374294683
 30
0.0
  0
VERTEX
  5
178
330
168
100
AcDbEntity
  8
Visible (ISO)
100
AcDbVertex
100
AcDb2dVertex
 10
156.2266659998897
 20
173.0581359989568
 30
0.0
  0
VERTEX
  5
179
330
168
100
AcDbEntity
  8
Visible (ISO)
100
AcDbVertex
100
AcDb2dVertex
 10
155.7203316950801
 20
172.9956369526311
 30
0.0
  0
VERTEX
  5
17A
330
168
100
AcDbEntity
  8
Visible (ISO)
100
AcDbVertex
100
AcDb2dVertex
 10
155.2585244441036
 20
172.9331379063054
 30
0.0
  0
VERTEX
  5
17B
330
168
100
AcDbEntity
  8
Visible (ISO)
100
AcDbVertex
100
AcDb2dVertex
 10
154.8441052699092
 20
172.8706364757939
 30
0.0
  0
VERTEX
  5
17C
330
168
100
AcDbEntity
  8
Visible (ISO)
100
AcDbVertex
100
AcDb2dVertex
 10
154.4796204829219
 20
172.8081374294682
 30
0.0
  0
VERTEX
  5
17D
330
168
100
AcDbEntity
  8
Visible (ISO)
100
AcDbVertex
100
AcDb2dVertex
 10
154.1673302912715
 20
172.7456359989568
 30
0.0
  0
VERTEX
  5
17E
330
168
100
AcDbEntity
  8
Visible (ISO)
100
AcDbVertex
100
AcDb2dVertex
 10
153.909151580334
 20
172.6831369526311
 30
0.0
  0
VERTEX
  5
17F
330
168
100
AcDbEntity
  8
Visible (ISO)
100
AcDbVertex
100
AcDb2dVertex
 10
153.7066674494746
 20
172.6206379063054
 30
0.0
  0
VERTEX
  5
180
330
168
100
AcDbEntity
  8
Visible (ISO)
100
AcDbVertex
100
AcDb2dVertex
 10
153.5611462855342
 20
172.5581364757939
 30
0.0
  0
VERTEX
  5
181
330
168
100
AcDbEntity
  8
Visible (ISO)
100
AcDbVertex
100
AcDb2dVertex
 10
153.4734654688838
 20
172.4956374294682
 30
0.0
  0
VERTEX
  5
182
330
168
100
AcDbEntity
  8
Visible (ISO)
100
AcDbVertex
100
AcDb2dVertex
 10
153.4441876673701
 20
172.4331359989568
 30
0.0
  0
SEQEND
  5
16B
330
168
100
AcDbEntity
  8
Visible (ISO)
  0
POLYLINE
  5
183
330
75
100
AcDbEntity
  8
Visible (ISO)
100
AcDb2dPolyline
 66
     1
 10
0.0
 20
0.0
 30
0.0
 70
   128
  0
VERTEX
  5
184
330
183
100
AcDbEntity
  8
Visible (ISO)
100
AcDbVertex
100
AcDb2dVertex
 10
172.2798180842403
 20
169.7848944790288
 30
0.0
  0
VERTEX
  5
185
330
183
100
AcDbEntity
  8
Visible (ISO)
100
AcDbVertex
100
AcDb2dVertex
 10
172.0425057673458
 20
169.7009019977971
 30
0.0
  0
VERTEX
  5
187
330
183
100
AcDbEntity
  8
Visible (ISO)
100
AcDbVertex
100
AcDb2dVertex
 10
171.7039227747921
 20
169.6169119007512
 30
0.0
  0
VERTEX
  5
188
330
183
100
AcDbEntity
  8
Visible (ISO)
100
AcDbVertex
100
AcDb2dVertex
 10
171.2678456568721
 20
169.5329194195195
 30
0.0
  0
VERTEX
  5
189
330
183
100
AcDbEntity
  8
Visible (ISO)
100
AcDbVertex
100
AcDb2dVertex
 10
170.7391381525997
 20
169.4489293224736
 30
0.0
  0
VERTEX
  5
18A
330
183
100
AcDbEntity
  8
Visible (ISO)
100
AcDbVertex
100
AcDb2dVertex
 10
170.1236653590206
 20
169.3649368412419
 30
0.0
  0
VERTEX
  5
18B
330
183
100
AcDbEntity
  8
Visible (ISO)
100
AcDbVertex
100
AcDb2dVertex
 10
169.428293731213
 20
169.280946744196
 30
0.0
  0
VERTEX
  5
18C
330
183
100
AcDbEntity
  8
Visible (ISO)
100
AcDbVertex
100
AcDb2dVertex
 10
168.6607480311397
 20
169.1969542629643
 30
0.0
  0
VERTEX
  5
18D
330
183
100
AcDbEntity
  8
Visible (ISO)
100
AcDbVertex
100
AcDb2dVertex
 10
167.829582717419
 20
169.1129641659185
 30
0.0
  0
VERTEX
  5
18E
330
183
100
AcDbEntity
  8
Visible (ISO)
100
AcDbVertex
100
AcDb2dVertex
 10
166.9440388941768
 20
169.0289716846868
 30
0.0
  0
VERTEX
  5
18F
330
183
100
AcDbEntity
  8
Visible (ISO)
100
AcDbVertex
100
AcDb2dVertex
 10
166.013987090588
 20
168.9449815876409
 30
0.0
  0
VERTEX
  5
190
330
183
100
AcDbEntity
  8
Visible (ISO)
100
AcDbVertex
100
AcDb2dVertex
 10
165.0497651362423
 20
168.8609891064092
 30
0.0
  0
VERTEX
  5
191
330
183
100
AcDbEntity
  8
Visible (ISO)
100
AcDbVertex
100
AcDb2dVertex
 10
164.0621018671993
 20
168.7769990093633
 30
0.0
  0
VERTEX
  5
192
330
183
100
AcDbEntity
  8
Visible (ISO)
100
AcDbVertex
100
AcDb2dVertex
 10
163.0620026850704
 20
168.6930065281316
 30
0.0
  0
VERTEX
  5
193
330
183
100
AcDbEntity
  8
Visible (ISO)
100
AcDbVertex
100
AcDb2dVertex
 10
162.060596969128
 20
168.6090164310857
 30
0.0
  0
VERTEX
  5
194
330
183
100
AcDbEntity
  8
Visible (ISO)
100
AcDbVertex
100
AcDb2dVertex
 10
161.0690236353878
 20
168.525023949854
 30
0.0
  0
VERTEX
  5
195
330
183
100
AcDbEntity
  8
Visible (ISO)
100
AcDbVertex
100
AcDb2dVertex
 10
160.0983166956905
 20
168.4410338528081
 30
0.0
  0
VERTEX
  5
196
330
183
100
AcDbEntity
  8
Visible (ISO)
100
AcDbVertex
100
AcDb2dVertex
 10
159.1592812800411
 20
168.3570413715764
 30
0.0
  0
VERTEX
  5
197
330
183
100
AcDbEntity
  8
Visible (ISO)
100
AcDbVertex
100
AcDb2dVertex
 10
158.2623696589473
 20
168.2730512745305
 30
0.0
  0
VERTEX
  5
198
330
183
100
AcDbEntity
  8
Visible (ISO)
100
AcDbVertex
100
AcDb2dVertex
 10
157.4175763392451
 20
168.1890587932988
 30
0.0
  0
VERTEX
  5
199
330
183
100
AcDbEntity
  8
Visible (ISO)
100
AcDbVertex
100
AcDb2dVertex
 10
156.6342854762081
 20
168.1050686962529
 30
0.0
  0
VERTEX
  5
19A
330
183
100
AcDbEntity
  8
Visible (ISO)
100
AcDbVertex
100
AcDb2dVertex
 10
155.9212231898311
 20
168.0210762150212
 30
0.0
  0
VERTEX
  5
19B
330
183
100
AcDbEntity
  8
Visible (ISO)
100
AcDbVertex
100
AcDb2dVertex
 10
155.2863240504268
 20
167.9370837337895
 30
0.0
  0
VERTEX
  5
19C
330
183
100
AcDbEntity
  8
Visible (ISO)
100
AcDbVertex
100
AcDb2dVertex
 10
154.7366547846797
 20
167.8530936367437
 30
0.0
  0
VERTEX
  5
19D
330
183
100
AcDbEntity
  8
Visible (ISO)
100
AcDbVertex
100
AcDb2dVertex
 10
154.2783284449581
 20
167.7691011555119
 30
0.0
  0
VERTEX
  5
19E
330
183
100
AcDbEntity
  8
Visible (ISO)
100
AcDbVertex
100
AcDb2dVertex
 10
153.9164567255977
 20
167.6851110584661
 30
0.0
  0
VERTEX
  5
19F
330
183
100
AcDbEntity
  8
Visible (ISO)
100
AcDbVertex
100
AcDb2dVertex
 10
153.6550641322139
 20
167.6011185772344
 30
0.0
  0
VERTEX
  5
1A0
330
183
100
AcDbEntity
  8
Visible (ISO)
100
AcDbVertex
100
AcDb2dVertex
 10
153.4970498347286
 20
167.5171284801885
 30
0.0
  0
VERTEX
  5
1A1
330
183
100
AcDbEntity
  8
Visible (ISO)
100
AcDbVertex
100
AcDb2dVertex
 10
153.4441876673701
 20
167.4331359989568
 30
0.0
  0
SEQEND
  5
186
330
183
100
AcDbEntity
  8
Visible (ISO)
  0
LINE
  5
1A2
330
75
100
AcDbEntity
  8
Visible (ISO)
100
AcDbLine
 10
166.1579605941724
 20
174.3331369526311
 30
0.0
 11
165.8798452992349
 21
174.7331369526311
 31
0.0
  0
POLYLINE
  5
1A3
330
75
100
AcDbEntity
  8
Visible (ISO)
100
AcDb2dPolyline
 66
     1
 10
0.0
 20
0.0
 30
0.0
 70
   128
  0
VERTEX
  5
1A4
330
1A3
100
AcDbEntity
  8
Visible (ISO)
100
AcDbVertex
100
AcDb2dVertex
 10
153.6085438990596
 20
168.3813791401311
 30
0.0
  0
VERTEX
  5
1A5
330
1A3
100
AcDbEntity
  8
Visible (ISO)
100
AcDbVertex
100
AcDb2dVertex
 10
153.8458657526973
 20
168.4653716213628
 30
0.0
  0
VERTEX
  5
1A7
330
1A3
100
AcDbEntity
  8
Visible (ISO)
100
AcDbVertex
100
AcDb2dVertex
 10
154.184448745251
 20
168.5493617184087
 30
0.0
  0
VERTEX
  5
1A8
330
1A3
100
AcDbEntity
  8
Visible (ISO)
100
AcDbVertex
100
AcDb2dVertex
 10
154.6205163264278
 20
168.6333541996404
 30
0.0
  0
VERTEX
  5
1A9
330
1A3
100
AcDbEntity
  8
Visible (ISO)
100
AcDbVertex
100
AcDb2dVertex
 10
155.1492333674434
 20
168.7173442966863
 30
0.0
  0
VERTEX
  5
1AA
330
1A3
100
AcDbEntity
  8
Visible (ISO)
100
AcDbVertex
100
AcDb2dVertex
 10
155.7647061610225
 20
168.801336777918
 30
0.0
  0
VERTEX
  5
1AB
330
1A3
100
AcDbEntity
  8
Visible (ISO)
100
AcDbVertex
100
AcDb2dVertex
 10
156.4600777888301
 20
168.8853268749639
 30
0.0
  0
VERTEX
  5
1AC
330
1A3
100
AcDbEntity
  8
Visible (ISO)
100
AcDbVertex
100
AcDb2dVertex
 10
157.2276234889034
 20
168.9693193561955
 30
0.0
  0
VERTEX
  5
1AD
330
1A3
100
AcDbEntity
  8
Visible (ISO)
100
AcDbVertex
100
AcDb2dVertex
 10
158.0587888026241
 20
169.0533094532414
 30
0.0
  0
VERTEX
  5
1AE
330
1A3
100
AcDbEntity
  8
Visible (ISO)
100
AcDbVertex
100
AcDb2dVertex
 10
158.9443230891231
 20
169.1373019344731
 30
0.0
  0
VERTEX
  5
1AF
330
1A3
100
AcDbEntity
  8
Visible (ISO)
100
AcDbVertex
100
AcDb2dVertex
 10
159.8743844294551
 20
169.221292031519
 30
0.0
  0
VERTEX
  5
1B0
330
1A3
100
AcDbEntity
  8
Visible (ISO)
100
AcDbVertex
100
AcDb2dVertex
 10
160.8386063838008
 20
169.3052845127507
 30
0.0
  0
VERTEX
  5
1B1
330
1A3
100
AcDbEntity
  8
Visible (ISO)
100
AcDbVertex
100
AcDb2dVertex
 10
161.8262601161007
 20
169.3892769939824
 30
0.0
  0
VERTEX
  5
1B2
330
1A3
100
AcDbEntity
  8
Visible (ISO)
100
AcDbVertex
100
AcDb2dVertex
 10
162.8263592982296
 20
169.4732670910283
 30
0.0
  0
VERTEX
  5
1B3
330
1A3
100
AcDbEntity
  8
Visible (ISO)
100
AcDbVertex
100
AcDb2dVertex
 10
163.8277745509151
 20
169.55725957226
 30
0.0
  0
VERTEX
  5
1B4
330
1A3
100
AcDbEntity
  8
Visible (ISO)
100
AcDbVertex
100
AcDb2dVertex
 10
164.8193478846553
 20
169.6412496693059
 30
0.0
  0
VERTEX
  5
1B5
330
1A3
100
AcDbEntity
  8
Visible (ISO)
100
AcDbVertex
100
AcDb2dVertex
 10
165.7900548243526
 20
169.7252421505376
 30
0.0
  0
VERTEX
  5
1B6
330
1A3
100
AcDbEntity
  8
Visible (ISO)
100
AcDbVertex
100
AcDb2dVertex
 10
166.729090240002
 20
169.8092322475835
 30
0.0
  0
VERTEX
  5
1B7
330
1A3
100
AcDbEntity
  8
Visible (ISO)
100
AcDbVertex
100
AcDb2dVertex
 10
167.6259923243526
 20
169.8932247288152
 30
0.0
  0
VERTEX
  5
1B8
330
1A3
100
AcDbEntity
  8
Visible (ISO)
100
AcDbVertex
100
AcDb2dVertex
 10
168.4707951807979
 20
169.9772148258611
 30
0.0
  0
VERTEX
  5
1B9
330
1A3
100
AcDbEntity
  8
Visible (ISO)
100
AcDbVertex
100
AcDb2dVertex
 10
169.254086043835
 20
170.0612073070928
 30
0.0
  0
VERTEX
  5
1BA
330
1A3
100
AcDbEntity
  8
Visible (ISO)
100
AcDbVertex
100
AcDb2dVertex
 10
169.967148330212
 20
170.1451974041387
 30
0.0
  0
VERTEX
  5
1BB
330
1A3
100
AcDbEntity
  8
Visible (ISO)
100
AcDbVertex
100
AcDb2dVertex
 10
170.6020474696163
 20
170.2291898853703
 30
0.0
  0
VERTEX
  5
1BC
330
1A3
100
AcDbEntity
  8
Visible (ISO)
100
AcDbVertex
100
AcDb2dVertex
 10
171.1517167353633
 20
170.3131799824163
 30
0.0
  0
VERTEX
  5
1BD
330
1A3
100
AcDbEntity
  8
Visible (ISO)
100
AcDbVertex
100
AcDb2dVertex
 10
171.610043075085
 20
170.3971724636479
 30
0.0
  0
VERTEX
  5
1BE
330
1A3
100
AcDbEntity
  8
Visible (ISO)
100
AcDbVertex
100
AcDb2dVertex
 10
171.9719147944454
 20
170.4811625606938
 30
0.0
  0
VERTEX
  5
1BF
330
1A3
100
AcDbEntity
  8
Visible (ISO)
100
AcDbVertex
100
AcDb2dVertex
 10
172.2333073878292
 20
170.5651550419255
 30
0.0
  0
VERTEX
  5
1C0
330
1A3
100
AcDbEntity
  8
Visible (ISO)
100
AcDbVertex
100
AcDb2dVertex
 10
172.3913216853145
 20
170.6491451389714
 30
0.0
  0
VERTEX
  5
1C1
330
1A3
100
AcDbEntity
  8
Visible (ISO)
100
AcDbVertex
100
AcDb2dVertex
 10
172.4441838526729
 20
170.7331376202031
 30
0.0
  0
SEQEND
  5
1A6
330
1A3
100
AcDbEntity
  8
Visible (ISO)
  0
POLYLINE
  5
1C2
330
75
100
AcDbEntity
  8
Visible (ISO)
100
AcDb2dPolyline
 66
     1
 10
0.0
 20
0.0
 30
0.0
 70
   128
  0
VERTEX
  5
1C3
330
1C2
100
AcDbEntity
  8
Visible (ISO)
100
AcDbVertex
100
AcDb2dVertex
 10
153.6085438990596
 20
173.3813791401311
 30
0.0
  0
VERTEX
  5
1C4
330
1C2
100
AcDbEntity
  8
Visible (ISO)
100
AcDbVertex
100
AcDb2dVertex
 10
153.7563538813594
 20
173.4377031452581
 30
0.0
  0
VERTEX
  5
1C6
330
1C2
100
AcDbEntity
  8
Visible (ISO)
100
AcDbVertex
100
AcDb2dVertex
 10
153.9501595759395
 20
173.494027150385
 30
0.0
  0
VERTEX
  5
1C7
330
1C2
100
AcDbEntity
  8
Visible (ISO)
100
AcDbVertex
100
AcDb2dVertex
 10
154.1890073084834
 20
173.5503487713262
 30
0.0
  0
VERTEX
  5
1C8
330
1C2
100
AcDbEntity
  8
Visible (ISO)
100
AcDbVertex
100
AcDb2dVertex
 10
154.4717049860957
 20
173.6066727764531
 30
0.0
  0
VERTEX
  5
1C9
330
1C2
100
AcDbEntity
  8
Visible (ISO)
100
AcDbVertex
100
AcDb2dVertex
 10
154.7968125605586
 20
173.6629967815801
 30
0.0
  0
VERTEX
  5
1CA
330
1C2
100
AcDbEntity
  8
Visible (ISO)
100
AcDbVertex
100
AcDb2dVertex
 10
155.1627278590206
 20
173.7193184025212
 30
0.0
  0
VERTEX
  5
1CB
330
1C2
100
AcDbEntity
  8
Visible (ISO)
100
AcDbVertex
100
AcDb2dVertex
 10
155.5676007533077
 20
173.7756424076482
 30
0.0
  0
VERTEX
  5
1CC
330
1C2
100
AcDbEntity
  8
Visible (ISO)
100
AcDbVertex
100
AcDb2dVertex
 10
156.0094189906124
 20
173.8319664127751
 30
0.0
  0
VERTEX
  5
1CD
330
1C2
100
AcDbEntity
  8
Visible (ISO)
100
AcDbVertex
100
AcDb2dVertex
 10
156.4859605097774
 20
173.8882880337163
 30
0.0
  0
VERTEX
  5
1CE
330
1C2
100
AcDbEntity
  8
Visible (ISO)
100
AcDbVertex
100
AcDb2dVertex
 10
156.9948315882686
 20
173.9446120388433
 30
0.0
  0
VERTEX
  5
1CF
330
1C2
100
AcDbEntity
  8
Visible (ISO)
100
AcDbVertex
100
AcDb2dVertex
 10
157.5335049891475
 20
174.0009360439702
 30
0.0
  0
VERTEX
  5
1D0
330
1C2
100
AcDbEntity
  8
Visible (ISO)
100
AcDbVertex
100
AcDb2dVertex
 10
158.0992627406123
 20
174.0572576649114
 30
0.0
  0
VERTEX
  5
1D1
330
1C2
100
AcDbEntity
  8
Visible (ISO)
100
AcDbVertex
100
AcDb2dVertex
 10
158.6892915034297
 20
174.1135816700383
 30
0.0
  0
VERTEX
  5
1D2
330
1C2
100
AcDbEntity
  8
Visible (ISO)
100
AcDbVertex
100
AcDb2dVertex
 10
159.3006158137325
 20
174.1699056751653
 30
0.0
  0
VERTEX
  5
1D3
330
1C2
100
AcDbEntity
  8
Visible (ISO)
100
AcDbVertex
100
AcDb2dVertex
 10
159.9301934504512
 20
174.2262272961064
 30
0.0
  0
VERTEX
  5
1D4
330
1C2
100
AcDbEntity
  8
Visible (ISO)
100
AcDbVertex
100
AcDb2dVertex
 10
160.5748582148556
 20
174.2825513012334
 30
0.0
  0
VERTEX
  5
1D5
330
1C2
100
AcDbEntity
  8
Visible (ISO)
100
AcDbVertex
100
AcDb2dVertex
 10
161.2313866877559
 20
174.3388753063603
 30
0.0
  0
VERTEX
  5
1D6
330
1C2
100
AcDbEntity
  8
Visible (ISO)
100
AcDbVertex
100
AcDb2dVertex
 10
161.896498229504
 20
174.3951969273015
 30
0.0
  0
VERTEX
  5
1D7
330
1C2
100
AcDbEntity
  8
Visible (ISO)
100
AcDbVertex
100
AcDb2dVertex
 10
162.5668454432491
 20
174.4515209324285
 30
0.0
  0
VERTEX
  5
1D8
330
1C2
100
AcDbEntity
  8
Visible (ISO)
100
AcDbVertex
100
AcDb2dVertex
 10
163.2390904688839
 20
174.5078449375554
 30
0.0
  0
VERTEX
  5
1D9
330
1C2
100
AcDbEntity
  8
Visible (ISO)
100
AcDbVertex
100
AcDb2dVertex
 10
163.9098572993282
 20
174.5641665584966
 30
0.0
  0
VERTEX
  5
1DA
330
1C2
100
AcDbEntity
  8
Visible (ISO)
100
AcDbVertex
100
AcDb2dVertex
 10
164.5757890009884
 20
174.6204905636235
 30
0.0
  0
VERTEX
  5
1DB
330
1C2
100
AcDbEntity
  8
Visible (ISO)
100
AcDbVertex
100
AcDb2dVertex
 10
165.2335477137569
 20
174.6768145687505
 30
0.0
  0
VERTEX
  5
1DC
330
1C2
100
AcDbEntity
  8
Visible (ISO)
100
AcDbVertex
100
AcDb2dVertex
 10
165.8798432612423
 20
174.7331361896916
 30
0.0
  0
SEQEND
  5
1C5
330
1C2
100
AcDbEntity
  8
Visible (ISO)
  0
LINE
  5
1DD
330
75
100
AcDbEntity
  8
Visible (ISO)
100
AcDbLine
 10
172.4441838526729
 20
165.7331369526311
 30
0.0
 11
173.3441838526729
 21
165.3331369526311
 31
0.0
  0
LINE
  5
1DE
330
75
100
AcDbEntity
  8
Visible (ISO)
100
AcDbLine
 10
172.4441838526729
 20
164.9331369526311
 30
0.0
 11
172.4441838526729
 21
165.7331369526311
 31
0.0
  0
LINE
  5
1DF
330
75
100
AcDbEntity
  8
Visible (ISO)
100
AcDbLine
 10
173.1933999323848
 20
170.1974635250493
 30
0.0
 11
172.2798180842403
 21
169.7848944790288
 31
0.0
  0
LINE
  5
1E0
330
75
100
AcDbEntity
  8
Visible (ISO)
100
AcDbLine
 10
153.4441876673701
 20
172.3592095501347
 30
0.0
 11
152.6949715876583
 21
172.6974635250493
 31
0.0
  0
LINE
  5
1E1
330
75
100
AcDbEntity
  8
Visible (ISO)
100
AcDbLine
 10
153.4441876673701
 20
167.3592095501348
 30
0.0
 11
152.6949715876583
 21
167.6974635250493
 31
0.0
  0
LINE
  5
1E2
330
75
100
AcDbEntity
  8
Visible (ISO)
100
AcDbLine
 10
172.4441838526729
 20
165.8070640690251
 30
0.0
 11
173.1933999323848
 21
165.4688100941106
 31
0.0
  0
LINE
  5
1E3
330
75
100
AcDbEntity
  8
Visible (ISO)
100
AcDbLine
 10
172.4441838526729
 20
170.8070640690251
 30
0.0
 11
173.1933999323848
 21
170.4688100941106
 31
0.0
  0
LINE
  5
1E4
330
75
100
AcDbEntity
  8
Visible (ISO)
100
AcDbLine
 10
152.6949715876583
 20
167.9688100941106
 30
0.0
 11
153.6085438990596
 21
168.3813791401311
 31
0.0
  0
LINE
  5
1E5
330
75
100
AcDbEntity
  8
Visible (ISO)
100
AcDbLine
 10
152.6949715876583
 20
172.9688100941106
 30
0.0
 11
153.6085438990596
 21
173.3813791401311
 31
0.0
  0
POLYLINE
  5
1E6
330
75
100
AcDbEntity
  8
Visible (ISO)
100
AcDb2dPolyline
 66
     1
 10
0.0
 20
0.0
 30
0.0
 70
   128
  0
VERTEX
  5
1E7
330
1E6
100
AcDbEntity
  8
Visible (ISO)
100
AcDbVertex
100
AcDb2dVertex
 10
153.4441876673701
 20
175.9331374294682
 30
0.0
  0
VERTEX
  5
1E8
330
1E6
100
AcDbEntity
  8
Visible (ISO)
100
AcDbVertex
100
AcDb2dVertex
 10
153.4963441157344
 20
175.9550171024724
 30
0.0
  0
VERTEX
  5
1EA
330
1E6
100
AcDbEntity
  8
Visible (ISO)
100
AcDbVertex
100
AcDb2dVertex
 10
153.6526894831661
 20
176.0191016323491
 30
0.0
  0
VERTEX
  5
1EB
330
1E6
100
AcDbEntity
  8
Visible (ISO)
100
AcDbVertex
100
AcDb2dVertex
 10
153.9130521082881
 20
176.1230640537663
 30
0.0
  0
VERTEX
  5
1EC
330
1E6
100
AcDbEntity
  8
Visible (ISO)
100
AcDbVertex
100
AcDb2dVertex
 10
154.2771744990352
 20
176.2644915707036
 30
0.0
  0
VERTEX
  5
1ED
330
1E6
100
AcDbEntity
  8
Visible (ISO)
100
AcDbVertex
100
AcDb2dVertex
 10
154.7397637629512
 20
176.4371471531316
 30
0.0
  0
VERTEX
  5
1EE
330
1E6
100
AcDbEntity
  8
Visible (ISO)
100
AcDbVertex
100
AcDb2dVertex
 10
155.2863049769405
 20
176.630595219843
 30
0.0
  0
VERTEX
  5
1EF
330
1E6
100
AcDbEntity
  8
Visible (ISO)
100
AcDbVertex
100
AcDb2dVertex
 10
155.901281859875
 20
176.8343763477727
 30
0.0
  0
VERTEX
  5
1F0
330
1E6
100
AcDbEntity
  8
Visible (ISO)
100
AcDbVertex
100
AcDb2dVertex
 10
156.5755486750606
 20
177.0399193890019
 30
0.0
  0
VERTEX
  5
1F1
330
1E6
100
AcDbEntity
  8
Visible (ISO)
100
AcDbVertex
100
AcDb2dVertex
 10
157.3321080470088
 20
177.2476058132573
 30
0.0
  0
VERTEX
  5
1F2
330
1E6
100
AcDbEntity
  8
Visible (ISO)
100
AcDbVertex
100
AcDb2dVertex
 10
158.1641316676143
 20
177.4479107983037
 30
0.0
  0
VERTEX
  5
1F3
330
1E6
100
AcDbEntity
  8
Visible (ISO)
100
AcDbVertex
100
AcDb2dVertex
 10
159.0587640070918
 20
177.6294307835027
 30
0.0
  0
VERTEX
  5
1F4
330
1E6
100
AcDbEntity
  8
Visible (ISO)
100
AcDbVertex
100
AcDb2dVertex
 10
160.0027871394161
 20
177.7804331905767
 30
0.0
  0
VERTEX
  5
1F5
330
1E6
100
AcDbEntity
  8
Visible (ISO)
100
AcDbVertex
100
AcDb2dVertex
 10
160.9786248469356
 20
177.8927259571477
 30
0.0
  0
VERTEX
  5
1F6
330
1E6
100
AcDbEntity
  8
Visible (ISO)
100
AcDbVertex
100
AcDb2dVertex
 10
161.9658971095089
 20
177.9626779682561
 30
0.0
  0
VERTEX
  5
1F7
330
1E6
100
AcDbEntity
  8
Visible (ISO)
100
AcDbVertex
100
AcDb2dVertex
 10
162.9441857600216
 20
177.9867773182317
 30
0.0
  0
VERTEX
  5
1F8
330
1E6
100
AcDbEntity
  8
Visible (ISO)
100
AcDbVertex
100
AcDb2dVertex
 10
163.9224648737911
 20
177.9626779682561
 30
0.0
  0
VERTEX
  5
1F9
330
1E6
100
AcDbEntity
  8
Visible (ISO)
100
AcDbVertex
100
AcDb2dVertex
 10
164.9097371363643
 20
177.8927259571477
 30
0.0
  0
VERTEX
  5
1FA
330
1E6
100
AcDbEntity
  8
Visible (ISO)
100
AcDbVertex
100
AcDb2dVertex
 10
165.8855748438839
 20
177.7804331905767
 30
0.0
  0
VERTEX
  5
1FB
330
1E6
100
AcDbEntity
  8
Visible (ISO)
100
AcDbVertex
100
AcDb2dVertex
 10
166.8296075129513
 20
177.6294307835027
 30
0.0
  0
VERTEX
  5
1FC
330
1E6
100
AcDbEntity
  8
Visible (ISO)
100
AcDbVertex
100
AcDb2dVertex
 10
167.7242398524288
 20
177.4479107983037
 30
0.0
  0
VERTEX
  5
1FD
330
1E6
100
AcDbEntity
  8
Visible (ISO)
100
AcDbVertex
100
AcDb2dVertex
 10
168.5562634730342
 20
177.2476058132573
 30
0.0
  0
VERTEX
  5
1FE
330
1E6
100
AcDbEntity
  8
Visible (ISO)
100
AcDbVertex
100
AcDb2dVertex
 10
169.3128228449825
 20
177.0399193890019
 30
0.0
  0
VERTEX
  5
1FF
330
1E6
100
AcDbEntity
  8
Visible (ISO)
100
AcDbVertex
100
AcDb2dVertex
 10
169.987089660168
 20
176.8343763477727
 30
0.0
  0
VERTEX
  5
200
330
1E6
100
AcDbEntity
  8
Visible (ISO)
100
AcDbVertex
100
AcDb2dVertex
 10
170.6020665431026
 20
176.630595219843
 30
0.0
  0
VERTEX
  5
201
330
1E6
100
AcDbEntity
  8
Visible (ISO)
100
AcDbVertex
100
AcDb2dVertex
 10
171.1485982203487
 20
176.4371471531316
 30
0.0
  0
VERTEX
  5
202
330
1E6
100
AcDbEntity
  8
Visible (ISO)
100
AcDbVertex
100
AcDb2dVertex
 10
171.6111970210079
 20
176.2644915707036
 30
0.0
  0
VERTEX
  5
203
330
1E6
100
AcDbEntity
  8
Visible (ISO)
100
AcDbVertex
100
AcDb2dVertex
 10
171.975319411755
 20
176.1230640537663
 30
0.0
  0
VERTEX
  5
204
330
1E6
100
AcDbEntity
  8
Visible (ISO)
100
AcDbVertex
100
AcDb2dVertex
 10
172.2356725001339
 20
176.0191016323491
 30
0.0
  0
VERTEX
  5
205
330
1E6
100
AcDbEntity
  8
Visible (ISO)
100
AcDbVertex
100
AcDb2dVertex
 10
172.3920274043087
 20
175.9550171024724
 30
0.0
  0
VERTEX
  5
206
330
1E6
100
AcDbEntity
  8
Visible (ISO)
100
AcDbVertex
100
AcDb2dVertex
 10
172.4441838526729
 20
175.9331374294682
 30
0.0
  0
SEQEND
  5
1E9
330
1E6
100
AcDbEntity
  8
Visible (ISO)
  0
LINE
  5
207
330
75
100
AcDbEntity
  8
Visible (ISO)
100
AcDbLine
 10
172.4441838526729
 20
164.9331369526311
 30
0.0
 11
153.4441838526729
 21
164.9331369526311
 31
0.0
  0
LINE
  5
208
330
75
100
AcDbEntity
  8
Visible (ISO)
100
AcDbLine
 10
172.4441838526729
 20
175.9331369526311
 30
0.0
 11
172.4441838526729
 21
170.7331369526311
 31
0.0
  0
LINE
  5
209
330
75
100
AcDbEntity
  8
Visible (ISO)
100
AcDbLine
 10
172.4441838526729
 20
169.8592092859276
 30
0.0
 11
172.4441838526729
 21
165.7331369526311
 31
0.0
  0
LINE
  5
20A
330
75
100
AcDbEntity
  8
Visible (ISO)
100
AcDbLine
 10
153.4441838526729
 20
175.9331369526311
 30
0.0
 11
153.4441838526729
 21
173.3070646193346
 31
0.0
  0
LINE
  5
20B
330
75
100
AcDbEntity
  8
Visible (ISO)
100
AcDbLine
 10
153.4441838526729
 20
172.4331369526311
 30
0.0
 11
153.4441838526729
 21
168.3070646193346
 31
0.0
  0
LINE
  5
20C
330
75
100
AcDbEntity
  8
Visible (ISO)
100
AcDbLine
 10
153.4441838526729
 20
167.4331369526311
 30
0.0
 11
153.4441838526729
 21
164.9331369526311
 31
0.0
  0
LINE
  5
20D
330
75
100
AcDbEntity
  8
Visible (ISO)
100
AcDbLine
 10
49.94418385267294
 20
221.9331369526311
 30
0.0
 11
49.94418385267294
 21
175.9331369526311
 31
0.0
  0
LINE
  5
20E
330
75
100
AcDbEntity
  8
Visible (ISO)
100
AcDbLine
 10
277.944183852673
 20
221.9331369526311
 30
0.0
 11
277.944183852673
 21
175.9331369526311
 31
0.0
  0
LINE
  5
20F
330
75
100
AcDbEntity
  8
Visible (ISO)
100
AcDbLine
 10
49.94418385267294
 20
221.9331369526311
 30
0.0
 11
277.944183852673
 21
221.9331369526311
 31
0.0
  0
LINE
  5
210
330
75
100
AcDbEntity
  8
Visible (ISO)
100
AcDbLine
 10
49.94418385267294
 20
175.9331369526311
 30
0.0
 11
153.4441838526729
 21
175.9331369526311
 31
0.0
  0
LINE
  5
211
330
75
100
AcDbEntity
  8
Visible (ISO)
100
AcDbLine
 10
172.4441838526729
 20
175.9331369526311
 30
0.0
 11
277.944183852673
 21
175.9331369526311
 31
0.0
  0
LINE
  5
212
330
75
100
AcDbEntity
  8
Visible Narrow (ISO)
100
AcDbLine
 10
171.4241838526729
 20
164.9331369526311
 30
0.0
 11
171.4241838526729
 21
169.5609955033479
 31
0.0
  0
LINE
  5
213
330
75
100
AcDbEntity
  8
Visible Narrow (ISO)
100
AcDbLine
 10
171.4241838526729
 20
170.360995503348
 30
0.0
 11
171.4241838526729
 21
174.9331369526311
 31
0.0
  0
LINE
  5
214
330
75
100
AcDbEntity
  8
Visible Narrow (ISO)
100
AcDbLine
 10
154.4641838526729
 20
174.9331369526311
 30
0.0
 11
154.4641838526729
 21
173.6052784019142
 31
0.0
  0
LINE
  5
215
330
75
100
AcDbEntity
  8
Visible Narrow (ISO)
100
AcDbLine
 10
154.4641838526729
 20
172.8052784019142
 30
0.0
 11
154.4641838526729
 21
168.6052784019142
 31
0.0
  0
LINE
  5
216
330
75
100
AcDbEntity
  8
Visible Narrow (ISO)
100
AcDbLine
 10
154.4641838526729
 20
167.8052784019142
 30
0.0
 11
154.4641838526729
 21
164.9331369526311
 31
0.0
  0
LINE
  5
217
330
75
100
AcDbEntity
  8
Visible (ISO)
100
AcDbLine
 10
153.4441838526729
 20
174.9331369526311
 30
0.0
 11
172.4441838526729
 21
174.9331369526311
 31
0.0
  0
ARC
  5
218
330
75
100
AcDbEntity
  8
Visible (ISO)
100
AcDbCircle
 10
88.94418385267293
 20
198.9331369526273
 30
0.0
 40
30.00000000000002
100
AcDbArc
 50
230.0554948101737
 51
309.9445051898259
  0
ARC
  5
219
330
75
100
AcDbEntity
  8
Visible (ISO)
100
AcDbCircle
 10
88.94418385267293
 20
198.9331369526273
 30
0.0
 40
30.00000000000003
100
AcDbArc
 50
50.05549481019638
 51
129.9445051898034
  0
ARC
  5
21A
330
75
100
AcDbEntity
  8
Visible (ISO)
100
AcDbCircle
 10
238.9441838526729
 20
198.9331369526272
 30
0.0
 40
30.00000000000003
100
AcDbArc
 50
230.0554948101734
 51
309.944505189826
  0
ARC
  5
21B
330
75
100
AcDbEntity
  8
Visible (ISO)
100
AcDbCircle
 10
238.9441838526729
 20
198.9331369526272
 30
0.0
 40
30.00000000000005
100
AcDbArc
 50
50.05549481019648
 51
129.9445051898033
  0
ARC
  5
21C
330
75
100
AcDbEntity
  8
Visible (ISO)
100
AcDbCircle
 10
274.3739638673497
 20
209.7294567825525
 30
0.0
 40
32.19489017534026
100
AcDbArc
 50
276.3668530082519
 51
295.0577639181359
  0
ARC
  5
21D
330
75
100
AcDbEntity
  8
Visible (ISO)
100
AcDbCircle
 10
274.3739638673497
 20
188.1368171227096
 30
0.0
 40
32.19489017534027
100
AcDbArc
 50
80.93903945649534
 51
83.63314699174813
  0
POLYLINE
  5
21E
330
75
100
AcDbEntity
  8
Visible (ISO)
100
AcDb2dPolyline
 66
     1
 10
0.0
 20
0.0
 30
0.0
 70
   128
  0
VERTEX
  5
21F
330
21E
100
AcDbEntity
  8
Visible (ISO)
100
AcDbVertex
100
AcDb2dVertex
 10
288.4441836142543
 20
221.1367397434636
 30
0.0
  0
VERTEX
  5
220
330
21E
100
AcDbEntity
  8
Visible (ISO)
100
AcDbVertex
100
AcDb2dVertex
 10
288.4525813126567
 20
221.1696844227239
 30
0.0
  0
VERTEX
  5
222
330
21E
100
AcDbEntity
  8
Visible (ISO)
100
AcDbVertex
100
AcDb2dVertex
 10
288.4778965973857
 20
221.2022929317876
 30
0.0
  0
VERTEX
  5
223
330
21E
100
AcDbEntity
  8
Visible (ISO)
100
AcDbVertex
100
AcDb2dVertex
 10
288.5203136467937
 20
221.233501923792
 30
0.0
  0
VERTEX
  5
224
330
21E
100
AcDbEntity
  8
Visible (ISO)
100
AcDbVertex
100
AcDb2dVertex
 10
288.579462912083
 20
221.2623601086065
 30
0.0
  0
VERTEX
  5
225
330
21E
100
AcDbEntity
  8
Visible (ISO)
100
AcDbVertex
100
AcDb2dVertex
 10
288.652762320042
 20
221.2882714397832
 30
0.0
  0
VERTEX
  5
226
330
21E
100
AcDbEntity
  8
Visible (ISO)
100
AcDbVertex
100
AcDb2dVertex
 10
288.7370772624019
 20
221.3107066280767
 30
0.0
  0
VERTEX
  5
227
330
21E
100
AcDbEntity
  8
Visible (ISO)
100
AcDbVertex
100
AcDb2dVertex
 10
288.8332624697688
 20
221.3300471432134
 30
0.0
  0
VERTEX
  5
228
330
21E
100
AcDbEntity
  8
Visible (ISO)
100
AcDbVertex
100
AcDb2dVertex
 10
288.9423526787761
 20
221.3466196186467
 30
0.0
  0
VERTEX
  5
229
330
21E
100
AcDbEntity
  8
Visible (ISO)
100
AcDbVertex
100
AcDb2dVertex
 10
289.0614785218242
 20
221.3598303921147
 30
0.0
  0
VERTEX
  5
22A
330
21E
100
AcDbEntity
  8
Visible (ISO)
100
AcDbVertex
100
AcDb2dVertex
 10
289.1875417494777
 20
221.369216931574
 30
0.0
  0
VERTEX
  5
22B
330
21E
100
AcDbEntity
  8
Visible (ISO)
100
AcDbVertex
100
AcDb2dVertex
 10
289.3165262007716
 20
221.3747792370244
 30
0.0
  0
VERTEX
  5
22C
330
21E
100
AcDbEntity
  8
Visible (ISO)
100
AcDbVertex
100
AcDb2dVertex
 10
289.4441838526729
 20
221.3766126758977
 30
0.0
  0
VERTEX
  5
22D
330
21E
100
AcDbEntity
  8
Visible (ISO)
100
AcDbVertex
100
AcDb2dVertex
 10
289.5718415045741
 20
221.3747792370244
 30
0.0
  0
VERTEX
  5
22E
330
21E
100
AcDbEntity
  8
Visible (ISO)
100
AcDbVertex
100
AcDb2dVertex
 10
289.7008259558681
 20
221.369216931574
 30
0.0
  0
VERTEX
  5
22F
330
21E
100
AcDbEntity
  8
Visible (ISO)
100
AcDbVertex
100
AcDb2dVertex
 10
289.826889779568
 20
221.3598303921147
 30
0.0
  0
VERTEX
  5
230
330
21E
100
AcDbEntity
  8
Visible (ISO)
100
AcDbVertex
100
AcDb2dVertex
 10
289.9460144305233
 20
221.3466196186467
 30
0.0
  0
VERTEX
  5
231
330
21E
100
AcDbEntity
  8
Visible (ISO)
100
AcDbVertex
100
AcDb2dVertex
 10
290.0551052355769
 20
221.3300471432134
 30
0.0
  0
VERTEX
  5
232
330
21E
100
AcDbEntity
  8
Visible (ISO)
100
AcDbVertex
100
AcDb2dVertex
 10
290.1512904429439
 20
221.3107066280767
 30
0.0
  0
VERTEX
  5
233
330
21E
100
AcDbEntity
  8
Visible (ISO)
100
AcDbVertex
100
AcDb2dVertex
 10
290.2356047892574
 20
221.2882714397832
 30
0.0
  0
VERTEX
  5
234
330
21E
100
AcDbEntity
  8
Visible (ISO)
100
AcDbVertex
100
AcDb2dVertex
 10
290.3089053893093
 20
221.2623601086065
 30
0.0
  0
VERTEX
  5
235
330
21E
100
AcDbEntity
  8
Visible (ISO)
100
AcDbVertex
100
AcDb2dVertex
 10
290.3680546545985
 20
221.233501923792
 30
0.0
  0
VERTEX
  5
236
330
21E
100
AcDbEntity
  8
Visible (ISO)
100
AcDbVertex
100
AcDb2dVertex
 10
290.4104717040065
 20
221.2022929317876
 30
0.0
  0
VERTEX
  5
237
330
21E
100
AcDbEntity
  8
Visible (ISO)
100
AcDbVertex
100
AcDb2dVertex
 10
290.4357869887355
 20
221.1696844227239
 30
0.0
  0
VERTEX
  5
238
330
21E
100
AcDbEntity
  8
Visible (ISO)
100
AcDbVertex
100
AcDb2dVertex
 10
290.4441840910915
 20
221.1367397434636
 30
0.0
  0
SEQEND
  5
221
330
21E
100
AcDbEntity
  8
Visible (ISO)
  0
POLYLINE
  5
239
330
75
100
AcDbEntity
  8
Visible (ISO)
100
AcDb2dPolyline
 66
     1
 10
0.0
 20
0.0
 30
0.0
 70
   128
  0
VERTEX
  5
23A
330
239
100
AcDbEntity
  8
Visible (ISO)
100
AcDbVertex
100
AcDb2dVertex
 10
290.4441840910915
 20
221.1367397434636
 30
0.0
  0
VERTEX
  5
23B
330
239
100
AcDbEntity
  8
Visible (ISO)
100
AcDbVertex
100
AcDb2dVertex
 10
290.4357869887355
 20
221.1030821926519
 30
0.0
  0
VERTEX
  5
23D
330
239
100
AcDbEntity
  8
Visible (ISO)
100
AcDbVertex
100
AcDb2dVertex
 10
290.4104717040065
 20
221.0683922893926
 30
0.0
  0
VERTEX
  5
23E
330
239
100
AcDbEntity
  8
Visible (ISO)
100
AcDbVertex
100
AcDb2dVertex
 10
290.3680546545985
 20
221.033831132166
 30
0.0
  0
VERTEX
  5
23F
330
239
100
AcDbEntity
  8
Visible (ISO)
100
AcDbVertex
100
AcDb2dVertex
 10
290.3089053893093
 20
221.0005359775945
 30
0.0
  0
VERTEX
  5
240
330
239
100
AcDbEntity
  8
Visible (ISO)
100
AcDbVertex
100
AcDb2dVertex
 10
290.2356047892574
 20
220.9695296413823
 30
0.0
  0
VERTEX
  5
241
330
239
100
AcDbEntity
  8
Visible (ISO)
100
AcDbVertex
100
AcDb2dVertex
 10
290.1512904429439
 20
220.9417824871465
 30
0.0
  0
VERTEX
  5
242
330
239
100
AcDbEntity
  8
Visible (ISO)
100
AcDbVertex
100
AcDb2dVertex
 10
290.0551052355769
 20
220.9171300060674
 30
0.0
  0
VERTEX
  5
243
330
239
100
AcDbEntity
  8
Visible (ISO)
100
AcDbVertex
100
AcDb2dVertex
 10
289.9460144305233
 20
220.8954601414129
 30
0.0
  0
VERTEX
  5
244
330
239
100
AcDbEntity
  8
Visible (ISO)
100
AcDbVertex
100
AcDb2dVertex
 10
289.826889779568
 20
220.8778100140019
 30
0.0
  0
VERTEX
  5
245
330
239
100
AcDbEntity
  8
Visible (ISO)
100
AcDbVertex
100
AcDb2dVertex
 10
289.7008259558681
 20
220.865066540949
 30
0.0
  0
VERTEX
  5
246
330
239
100
AcDbEntity
  8
Visible (ISO)
100
AcDbVertex
100
AcDb2dVertex
 10
289.5718415045741
 20
220.857422841303
 30
0.0
  0
VERTEX
  5
247
330
239
100
AcDbEntity
  8
Visible (ISO)
100
AcDbVertex
100
AcDb2dVertex
 10
289.4441838526729
 20
220.8548741466924
 30
0.0
  0
VERTEX
  5
248
330
239
100
AcDbEntity
  8
Visible (ISO)
100
AcDbVertex
100
AcDb2dVertex
 10
289.3165262007716
 20
220.857422841303
 30
0.0
  0
VERTEX
  5
249
330
239
100
AcDbEntity
  8
Visible (ISO)
100
AcDbVertex
100
AcDb2dVertex
 10
289.1875417494777
 20
220.865066540949
 30
0.0
  0
VERTEX
  5
24A
330
239
100
AcDbEntity
  8
Visible (ISO)
100
AcDbVertex
100
AcDb2dVertex
 10
289.0614785218242
 20
220.8778100140019
 30
0.0
  0
VERTEX
  5
24B
330
239
100
AcDbEntity
  8
Visible (ISO)
100
AcDbVertex
100
AcDb2dVertex
 10
288.9423526787761
 20
220.8954601414129
 30
0.0
  0
VERTEX
  5
24C
330
239
100
AcDbEntity
  8
Visible (ISO)
100
AcDbVertex
100
AcDb2dVertex
 10
288.8332624697688
 20
220.9171300060674
 30
0.0
  0
VERTEX
  5
24D
330
239
100
AcDbEntity
  8
Visible (ISO)
100
AcDbVertex
100
AcDb2dVertex
 10
288.7370772624019
 20
220.9417824871465
 30
0.0
  0
VERTEX
  5
24E
330
239
100
AcDbEntity
  8
Visible (ISO)
100
AcDbVertex
100
AcDb2dVertex
 10
288.652762320042
 20
220.9695296413823
 30
0.0
  0
VERTEX
  5
24F
330
239
100
AcDbEntity
  8
Visible (ISO)
100
AcDbVertex
100
AcDb2dVertex
 10
288.579462912083
 20
221.0005359775945
 30
0.0
  0
VERTEX
  5
250
330
239
100
AcDbEntity
  8
Visible (ISO)
100
AcDbVertex
100
AcDb2dVertex
 10
288.5203136467937
 20
221.033831132166
 30
0.0
  0
VERTEX
  5
251
330
239
100
AcDbEntity
  8
Visible (ISO)
100
AcDbVertex
100
AcDb2dVertex
 10
288.4778965973857
 20
221.0683922893926
 30
0.0
  0
VERTEX
  5
252
330
239
100
AcDbEntity
  8
Visible (ISO)
100
AcDbVertex
100
AcDb2dVertex
 10
288.4525813126567
 20
221.1030821926519
 30
0.0
  0
VERTEX
  5
253
330
239
100
AcDbEntity
  8
Visible (ISO)
100
AcDbVertex
100
AcDb2dVertex
 10
288.4441836142543
 20
221.1367397434636
 30
0.0
  0
SEQEND
  5
23C
330
239
100
AcDbEntity
  8
Visible (ISO)
  0
LINE
  5
254
330
75
100
AcDbEntity
  8
Visible (ISO)
100
AcDbLine
 10
308.4441838526729
 20
221.9331369526312
 30
0.0
 11
308.4441838526729
 21
175.933136952631
 31
0.0
  0
LINE
  5
255
330
75
100
AcDbEntity
  8
Visible (ISO)
100
AcDbLine
 10
279.4441838526729
 20
221.9331369526311
 30
0.0
 11
279.4441838526729
 21
198.9331369526311
 31
0.0
  0
LINE
  5
256
330
75
100
AcDbEntity
  8
Visible (ISO)
100
AcDbLine
 10
279.4441838526729
 20
221.9331369526312
 30
0.0
 11
290.9441838526729
 21
221.9331369526312
 31
0.0
  0
LINE
  5
257
330
75
100
AcDbEntity
  8
Visible (ISO)
100
AcDbLine
 10
301.9441838526729
 20
221.9331369526312
 30
0.0
 11
308.4441838526729
 21
221.9331369526311
 31
0.0
  0
LINE
  5
258
330
75
100
AcDbEntity
  8
Visible (ISO)
100
AcDbLine
 10
290.1692599902379
 20
175.933136952631
 30
0.0
 11
308.4441838526729
 21
175.933136952631
 31
0.0
  0
POLYLINE
  5
259
330
75
100
AcDbEntity
  8
Visible (ISO)
100
AcDb2dPolyline
 66
     1
 10
0.0
 20
0.0
 30
0.0
 70
   128
  0
VERTEX
  5
25A
330
259
100
AcDbEntity
  8
Visible (ISO)
100
AcDbVertex
100
AcDb2dVertex
 10
301.9441838526729
 20
221.933136475794
 30
0.0
  0
VERTEX
  5
25B
330
259
100
AcDbEntity
  8
Visible (ISO)
100
AcDbVertex
100
AcDb2dVertex
 10
301.8976969981197
 20
221.9218807346746
 30
0.0
  0
VERTEX
  5
25D
330
259
100
AcDbEntity
  8
Visible (ISO)
100
AcDbVertex
100
AcDb2dVertex
 10
301.7578192019466
 20
221.8890981800481
 30
0.0
  0
VERTEX
  5
25E
330
259
100
AcDbEntity
  8
Visible (ISO)
100
AcDbVertex
100
AcDb2dVertex
 10
301.5239281916621
 20
221.8362765438482
 30
0.0
  0
VERTEX
  5
25F
330
259
100
AcDbEntity
  8
Visible (ISO)
100
AcDbVertex
100
AcDb2dVertex
 10
301.1984439158443
 20
221.766367448084
 30
0.0
  0
VERTEX
  5
260
330
259
100
AcDbEntity
  8
Visible (ISO)
100
AcDbVertex
100
AcDb2dVertex
 10
300.7957310938838
 20
221.6859417087957
 30
0.0
  0
VERTEX
  5
261
330
259
100
AcDbEntity
  8
Visible (ISO)
100
AcDbVertex
100
AcDb2dVertex
 10
300.3331012988094
 20
221.6019182331487
 30
0.0
  0
VERTEX
  5
262
330
259
100
AcDbEntity
  8
Visible (ISO)
100
AcDbVertex
100
AcDb2dVertex
 10
299.8055691981319
 20
221.5175562031194
 30
0.0
  0
VERTEX
  5
263
330
259
100
AcDbEntity
  8
Visible (ISO)
100
AcDbVertex
100
AcDb2dVertex
 10
299.2069192194942
 20
221.4362602360174
 30
0.0
  0
VERTEX
  5
264
330
259
100
AcDbEntity
  8
Visible (ISO)
100
AcDbVertex
100
AcDb2dVertex
 10
298.5525543951991
 20
221.3651495106145
 30
0.0
  0
VERTEX
  5
265
330
259
100
AcDbEntity
  8
Visible (ISO)
100
AcDbVertex
100
AcDb2dVertex
 10
297.8591234946254
 20
221.3111214764043
 30
0.0
  0
VERTEX
  5
266
330
259
100
AcDbEntity
  8
Visible (ISO)
100
AcDbVertex
100
AcDb2dVertex
 10
297.1485550665859
 20
221.2774520046636
 30
0.0
  0
VERTEX
  5
267
330
259
100
AcDbEntity
  8
Visible (ISO)
100
AcDbVertex
100
AcDb2dVertex
 10
296.4441843295101
 20
221.2658481724187
 30
0.0
  0
VERTEX
  5
268
330
259
100
AcDbEntity
  8
Visible (ISO)
100
AcDbVertex
100
AcDb2dVertex
 10
295.7398124003414
 20
221.2774520046636
 30
0.0
  0
VERTEX
  5
269
330
259
100
AcDbEntity
  8
Visible (ISO)
100
AcDbVertex
100
AcDb2dVertex
 10
295.0292451643947
 20
221.3111214764043
 30
0.0
  0
VERTEX
  5
26A
330
259
100
AcDbEntity
  8
Visible (ISO)
100
AcDbVertex
100
AcDb2dVertex
 10
294.3358130717281
 20
221.3651495106145
 30
0.0
  0
VERTEX
  5
26B
330
259
100
AcDbEntity
  8
Visible (ISO)
100
AcDbVertex
100
AcDb2dVertex
 10
293.681448247433
 20
221.4362602360174
 30
0.0
  0
VERTEX
  5
26C
330
259
100
AcDbEntity
  8
Visible (ISO)
100
AcDbVertex
100
AcDb2dVertex
 10
293.0827982687953
 20
221.5175562031194
 30
0.0
  0
VERTEX
  5
26D
330
259
100
AcDbEntity
  8
Visible (ISO)
100
AcDbVertex
100
AcDb2dVertex
 10
292.5552661681178
 20
221.6019182331487
 30
0.0
  0
VERTEX
  5
26E
330
259
100
AcDbEntity
  8
Visible (ISO)
100
AcDbVertex
100
AcDb2dVertex
 10
292.0926363730434
 20
221.6859417087957
 30
0.0
  0
VERTEX
  5
26F
330
259
100
AcDbEntity
  8
Visible (ISO)
100
AcDbVertex
100
AcDb2dVertex
 10
291.6899235510829
 20
221.766367448084
 30
0.0
  0
VERTEX
  5
270
330
259
100
AcDbEntity
  8
Visible (ISO)
100
AcDbVertex
100
AcDb2dVertex
 10
291.3644380831722
 20
221.8362765438482
 30
0.0
  0
VERTEX
  5
271
330
259
100
AcDbEntity
  8
Visible (ISO)
100
AcDbVertex
100
AcDb2dVertex
 10
291.1305494570735
 20
221.8890981800481
 30
0.0
  0
VERTEX
  5
272
330
259
100
AcDbEntity
  8
Visible (ISO)
100
AcDbVertex
100
AcDb2dVertex
 10
290.9906716609004
 20
221.9218807346746
 30
0.0
  0
VERTEX
  5
273
330
259
100
AcDbEntity
  8
Visible (ISO)
100
AcDbVertex
100
AcDb2dVertex
 10
290.9441836142543
 20
221.933136475794
 30
0.0
  0
SEQEND
  5
25C
330
259
100
AcDbEntity
  8
Visible (ISO)
  0
LINE
  5
274
330
75
100
AcDbEntity
  8
Visible (ISO)
100
AcDbLine
 10
290.1692599902379
 20
175.933136952631
 30
0.0
 11
279.4441838526729
 21
198.9331369526311
 31
0.0
  0
LINE
  5
275
330
75
100
AcDbEntity
  8
Visible (ISO)
100
AcDbLine
 10
290.9441838526729
 20
269.3331369526315
 30
0.0
 11
301.9441838526729
 21
269.3331369526315
 31
0.0
  0
LINE
  5
276
330
75
100
AcDbEntity
  8
Visible (ISO)
100
AcDbLine
 10
290.9441838526729
 20
221.9331369526312
 30
0.0
 11
290.9441838526729
 21
269.3331369526314
 31
0.0
  0
LINE
  5
277
330
75
100
AcDbEntity
  8
Visible (ISO)
100
AcDbLine
 10
301.9441838526729
 20
221.9331369526312
 30
0.0
 11
301.9441838526729
 21
269.3331369526315
 31
0.0
  0
POLYLINE
  5
278
330
75
100
AcDbEntity
  8
Visible (ISO)
100
AcDb2dPolyline
 66
     1
 10
0.0
 20
0.0
 30
0.0
 70
   128
  0
VERTEX
  5
279
330
278
100
AcDbEntity
  8
Visible (ISO)
100
AcDbVertex
100
AcDb2dVertex
 10
467.6294792015329
 20
166.4474635250493
 30
0.0
  0
VERTEX
  5
27A
330
278
100
AcDbEntity
  8
Visible (ISO)
100
AcDbVertex
100
AcDb2dVertex
 10
467.5069678146613
 20
166.5244465000554
 30
0.0
  0
VERTEX
  5
27C
330
278
100
AcDbEntity
  8
Visible (ISO)
100
AcDbVertex
100
AcDb2dVertex
 10
467.4814415294895
 20
166.6014270908757
 30
0.0
  0
VERTEX
  5
27D
330
278
100
AcDbEntity
  8
Visible (ISO)
100
AcDbVertex
100
AcDb2dVertex
 10
467.5531399566895
 20
166.6784100658818
 30
0.0
  0
VERTEX
  5
27E
330
278
100
AcDbEntity
  8
Visible (ISO)
100
AcDbVertex
100
AcDb2dVertex
 10
467.7213931400541
 20
166.7553906567022
 30
0.0
  0
VERTEX
  5
27F
330
278
100
AcDbEntity
  8
Visible (ISO)
100
AcDbVertex
100
AcDb2dVertex
 10
467.9846269209146
 20
166.8323736317082
 30
0.0
  0
VERTEX
  5
280
330
278
100
AcDbEntity
  8
Visible (ISO)
100
AcDbVertex
100
AcDb2dVertex
 10
468.3403802234886
 20
166.9093542225285
 30
0.0
  0
VERTEX
  5
281
330
278
100
AcDbEntity
  8
Visible (ISO)
100
AcDbVertex
100
AcDb2dVertex
 10
468.7853259165044
 20
166.9863371975347
 30
0.0
  0
VERTEX
  5
282
330
278
100
AcDbEntity
  8
Visible (ISO)
100
AcDbVertex
100
AcDb2dVertex
 10
469.3153035957567
 20
167.063317788355
 30
0.0
  0
VERTEX
  5
283
330
278
100
AcDbEntity
  8
Visible (ISO)
100
AcDbVertex
100
AcDb2dVertex
 10
469.9253571350326
 20
167.1403007633611
 30
0.0
  0
VERTEX
  5
284
330
278
100
AcDbEntity
  8
Visible (ISO)
100
AcDbVertex
100
AcDb2dVertex
 10
470.609782369827
 20
167.2172813541814
 30
0.0
  0
VERTEX
  5
285
330
278
100
AcDbEntity
  8
Visible (ISO)
100
AcDbVertex
100
AcDb2dVertex
 10
471.3621795494304
 20
167.2942643291875
 30
0.0
  0
VERTEX
  5
286
330
278
100
AcDbEntity
  8
Visible (ISO)
100
AcDbVertex
100
AcDb2dVertex
 10
472.1755117494806
 20
167.3712449200078
 30
0.0
  0
VERTEX
  5
287
330
278
100
AcDbEntity
  8
Visible (ISO)
100
AcDbVertex
100
AcDb2dVertex
 10
473.0421749074203
 20
167.4482278950139
 30
0.0
  0
VERTEX
  5
288
330
278
100
AcDbEntity
  8
Visible (ISO)
100
AcDbVertex
100
AcDb2dVertex
 10
473.9540642816764
 20
167.5252084858342
 30
0.0
  0
VERTEX
  5
289
330
278
100
AcDbEntity
  8
Visible (ISO)
100
AcDbVertex
100
AcDb2dVertex
 10
474.9026525337438
 20
167.6021914608403
 30
0.0
  0
VERTEX
  5
28A
330
278
100
AcDbEntity
  8
Visible (ISO)
100
AcDbVertex
100
AcDb2dVertex
 10
475.8790698964337
 20
167.6791744358464
 30
0.0
  0
VERTEX
  5
28B
330
278
100
AcDbEntity
  8
Visible (ISO)
100
AcDbVertex
100
AcDb2dVertex
 10
476.8741856087188
 20
167.7561550266667
 30
0.0
  0
VERTEX
  5
28C
330
278
100
AcDbEntity
  8
Visible (ISO)
100
AcDbVertex
100
AcDb2dVertex
 10
477.8786945659854
 20
167.8331380016729
 30
0.0
  0
VERTEX
  5
28D
330
278
100
AcDbEntity
  8
Visible (ISO)
100
AcDbVertex
100
AcDb2dVertex
 10
478.8832035232523
 20
167.9101185924932
 30
0.0
  0
VERTEX
  5
28E
330
278
100
AcDbEntity
  8
Visible (ISO)
100
AcDbVertex
100
AcDb2dVertex
 10
479.8783192355374
 20
167.9871015674993
 30
0.0
  0
VERTEX
  5
28F
330
278
100
AcDbEntity
  8
Visible (ISO)
100
AcDbVertex
100
AcDb2dVertex
 10
480.8547365982274
 20
168.0640821583196
 30
0.0
  0
VERTEX
  5
290
330
278
100
AcDbEntity
  8
Visible (ISO)
100
AcDbVertex
100
AcDb2dVertex
 10
481.8033248502951
 20
168.1410651333257
 30
0.0
  0
VERTEX
  5
291
330
278
100
AcDbEntity
  8
Visible (ISO)
100
AcDbVertex
100
AcDb2dVertex
 10
482.7152142245513
 20
168.218045724146
 30
0.0
  0
VERTEX
  5
292
330
278
100
AcDbEntity
  8
Visible (ISO)
100
AcDbVertex
100
AcDb2dVertex
 10
483.5818773824914
 20
168.2950286991521
 30
0.0
  0
VERTEX
  5
293
330
278
100
AcDbEntity
  8
Visible (ISO)
100
AcDbVertex
100
AcDb2dVertex
 10
484.395209582542
 20
168.3720092899724
 30
0.0
  0
VERTEX
  5
294
330
278
100
AcDbEntity
  8
Visible (ISO)
100
AcDbVertex
100
AcDb2dVertex
 10
485.1476067621457
 20
168.4489922649785
 30
0.0
  0
VERTEX
  5
295
330
278
100
AcDbEntity
  8
Visible (ISO)
100
AcDbVertex
100
AcDb2dVertex
 10
485.8320319969406
 20
168.5259728557988
 30
0.0
  0
VERTEX
  5
296
330
278
100
AcDbEntity
  8
Visible (ISO)
100
AcDbVertex
100
AcDb2dVertex
 10
486.4420855362169
 20
168.6029558308049
 30
0.0
  0
VERTEX
  5
297
330
278
100
AcDbEntity
  8
Visible (ISO)
100
AcDbVertex
100
AcDb2dVertex
 10
486.9720632154698
 20
168.6799364216252
 30
0.0
  0
VERTEX
  5
298
330
278
100
AcDbEntity
  8
Visible (ISO)
100
AcDbVertex
100
AcDb2dVertex
 10
487.4170089084862
 20
168.7569193966313
 30
0.0
  0
VERTEX
  5
299
330
278
100
AcDbEntity
  8
Visible (ISO)
100
AcDbVertex
100
AcDb2dVertex
 10
487.7727622110605
 20
168.8338999874517
 30
0.0
  0
VERTEX
  5
29A
330
278
100
AcDbEntity
  8
Visible (ISO)
100
AcDbVertex
100
AcDb2dVertex
 10
488.0359959919218
 20
168.9108829624577
 30
0.0
  0
VERTEX
  5
29B
330
278
100
AcDbEntity
  8
Visible (ISO)
100
AcDbVertex
100
AcDb2dVertex
 10
488.2042491752869
 20
168.9878635532781
 30
0.0
  0
VERTEX
  5
29C
330
278
100
AcDbEntity
  8
Visible (ISO)
100
AcDbVertex
100
AcDb2dVertex
 10
488.2759476024875
 20
169.0648465282842
 30
0.0
  0
VERTEX
  5
29D
330
278
100
AcDbEntity
  8
Visible (ISO)
100
AcDbVertex
100
AcDb2dVertex
 10
488.2504213173163
 20
169.1418271191045
 30
0.0
  0
VERTEX
  5
29E
330
278
100
AcDbEntity
  8
Visible (ISO)
100
AcDbVertex
100
AcDb2dVertex
 10
488.1279099304452
 20
169.2188100941106
 30
0.0
  0
SEQEND
  5
27B
330
278
100
AcDbEntity
  8
Visible (ISO)
  0
POLYLINE
  5
29F
330
75
100
AcDbEntity
  8
Visible (ISO)
100
AcDb2dPolyline
 66
     1
 10
0.0
 20
0.0
 30
0.0
 70
   128
  0
VERTEX
  5
2A0
330
29F
100
AcDbEntity
  8
Visible (ISO)
100
AcDbVertex
100
AcDb2dVertex
 10
467.6294792015329
 20
171.4474635250493
 30
0.0
  0
VERTEX
  5
2A1
330
29F
100
AcDbEntity
  8
Visible (ISO)
100
AcDbVertex
100
AcDb2dVertex
 10
467.5069678146613
 20
171.5244465000554
 30
0.0
  0
VERTEX
  5
2A3
330
29F
100
AcDbEntity
  8
Visible (ISO)
100
AcDbVertex
100
AcDb2dVertex
 10
467.4814415294895
 20
171.6014270908757
 30
0.0
  0
VERTEX
  5
2A4
330
29F
100
AcDbEntity
  8
Visible (ISO)
100
AcDbVertex
100
AcDb2dVertex
 10
467.5531399566895
 20
171.6784100658818
 30
0.0
  0
VERTEX
  5
2A5
330
29F
100
AcDbEntity
  8
Visible (ISO)
100
AcDbVertex
100
AcDb2dVertex
 10
467.7213931400541
 20
171.7553906567021
 30
0.0
  0
VERTEX
  5
2A6
330
29F
100
AcDbEntity
  8
Visible (ISO)
100
AcDbVertex
100
AcDb2dVertex
 10
467.9846269209146
 20
171.8323736317082
 30
0.0
  0
VERTEX
  5
2A7
330
29F
100
AcDbEntity
  8
Visible (ISO)
100
AcDbVertex
100
AcDb2dVertex
 10
468.3403802234886
 20
171.9093542225285
 30
0.0
  0
VERTEX
  5
2A8
330
29F
100
AcDbEntity
  8
Visible (ISO)
100
AcDbVertex
100
AcDb2dVertex
 10
468.7853259165044
 20
171.9863371975347
 30
0.0
  0
VERTEX
  5
2A9
330
29F
100
AcDbEntity
  8
Visible (ISO)
100
AcDbVertex
100
AcDb2dVertex
 10
469.3153035957567
 20
172.063317788355
 30
0.0
  0
VERTEX
  5
2AA
330
29F
100
AcDbEntity
  8
Visible (ISO)
100
AcDbVertex
100
AcDb2dVertex
 10
469.9253571350326
 20
172.1403007633611
 30
0.0
  0
VERTEX
  5
2AB
330
29F
100
AcDbEntity
  8
Visible (ISO)
100
AcDbVertex
100
AcDb2dVertex
 10
470.609782369827
 20
172.2172813541814
 30
0.0
  0
VERTEX
  5
2AC
330
29F
100
AcDbEntity
  8
Visible (ISO)
100
AcDbVertex
100
AcDb2dVertex
 10
471.3621795494304
 20
172.2942643291875
 30
0.0
  0
VERTEX
  5
2AD
330
29F
100
AcDbEntity
  8
Visible (ISO)
100
AcDbVertex
100
AcDb2dVertex
 10
472.1755117494806
 20
172.3712449200078
 30
0.0
  0
VERTEX
  5
2AE
330
29F
100
AcDbEntity
  8
Visible (ISO)
100
AcDbVertex
100
AcDb2dVertex
 10
473.0421749074203
 20
172.4482278950139
 30
0.0
  0
VERTEX
  5
2AF
330
29F
100
AcDbEntity
  8
Visible (ISO)
100
AcDbVertex
100
AcDb2dVertex
 10
473.9540642816764
 20
172.5252084858342
 30
0.0
  0
VERTEX
  5
2B0
330
29F
100
AcDbEntity
  8
Visible (ISO)
100
AcDbVertex
100
AcDb2dVertex
 10
474.9026525337438
 20
172.6021914608403
 30
0.0
  0
VERTEX
  5
2B1
330
29F
100
AcDbEntity
  8
Visible (ISO)
100
AcDbVertex
100
AcDb2dVertex
 10
475.8790698964337
 20
172.6791744358464
 30
0.0
  0
VERTEX
  5
2B2
330
29F
100
AcDbEntity
  8
Visible (ISO)
100
AcDbVertex
100
AcDb2dVertex
 10
476.8741856087188
 20
172.7561550266667
 30
0.0
  0
VERTEX
  5
2B3
330
29F
100
AcDbEntity
  8
Visible (ISO)
100
AcDbVertex
100
AcDb2dVertex
 10
477.8786945659856
 20
172.8331380016728
 30
0.0
  0
VERTEX
  5
2B4
330
29F
100
AcDbEntity
  8
Visible (ISO)
100
AcDbVertex
100
AcDb2dVertex
 10
478.8832035232523
 20
172.9101185924932
 30
0.0
  0
VERTEX
  5
2B5
330
29F
100
AcDbEntity
  8
Visible (ISO)
100
AcDbVertex
100
AcDb2dVertex
 10
479.8783192355374
 20
172.9871015674993
 30
0.0
  0
VERTEX
  5
2B6
330
29F
100
AcDbEntity
  8
Visible (ISO)
100
AcDbVertex
100
AcDb2dVertex
 10
480.8547365982274
 20
173.0640821583196
 30
0.0
  0
VERTEX
  5
2B7
330
29F
100
AcDbEntity
  8
Visible (ISO)
100
AcDbVertex
100
AcDb2dVertex
 10
481.8033248502951
 20
173.1410651333257
 30
0.0
  0
VERTEX
  5
2B8
330
29F
100
AcDbEntity
  8
Visible (ISO)
100
AcDbVertex
100
AcDb2dVertex
 10
482.7152142245513
 20
173.218045724146
 30
0.0
  0
VERTEX
  5
2B9
330
29F
100
AcDbEntity
  8
Visible (ISO)
100
AcDbVertex
100
AcDb2dVertex
 10
483.5818773824914
 20
173.2950286991521
 30
0.0
  0
VERTEX
  5
2BA
330
29F
100
AcDbEntity
  8
Visible (ISO)
100
AcDbVertex
100
AcDb2dVertex
 10
484.395209582542
 20
173.3720092899724
 30
0.0
  0
VERTEX
  5
2BB
330
29F
100
AcDbEntity
  8
Visible (ISO)
100
AcDbVertex
100
AcDb2dVertex
 10
485.1476067621457
 20
173.4489922649785
 30
0.0
  0
VERTEX
  5
2BC
330
29F
100
AcDbEntity
  8
Visible (ISO)
100
AcDbVertex
100
AcDb2dVertex
 10
485.8320319969406
 20
173.5259728557988
 30
0.0
  0
VERTEX
  5
2BD
330
29F
100
AcDbEntity
  8
Visible (ISO)
100
AcDbVertex
100
AcDb2dVertex
 10
486.4420855362169
 20
173.6029558308049
 30
0.0
  0
VERTEX
  5
2BE
330
29F
100
AcDbEntity
  8
Visible (ISO)
100
AcDbVertex
100
AcDb2dVertex
 10
486.9720632154698
 20
173.6799364216252
 30
0.0
  0
VERTEX
  5
2BF
330
29F
100
AcDbEntity
  8
Visible (ISO)
100
AcDbVertex
100
AcDb2dVertex
 10
487.4170089084862
 20
173.7569193966313
 30
0.0
  0
VERTEX
  5
2C0
330
29F
100
AcDbEntity
  8
Visible (ISO)
100
AcDbVertex
100
AcDb2dVertex
 10
487.7727622110605
 20
173.8338999874516
 30
0.0
  0
VERTEX
  5
2C1
330
29F
100
AcDbEntity
  8
Visible (ISO)
100
AcDbVertex
100
AcDb2dVertex
 10
488.0359959919218
 20
173.9108829624577
 30
0.0
  0
VERTEX
  5
2C2
330
29F
100
AcDbEntity
  8
Visible (ISO)
100
AcDbVertex
100
AcDb2dVertex
 10
488.2042491752869
 20
173.9878635532781
 30
0.0
  0
VERTEX
  5
2C3
330
29F
100
AcDbEntity
  8
Visible (ISO)
100
AcDbVertex
100
AcDb2dVertex
 10
488.2759476024875
 20
174.0648465282842
 30
0.0
  0
VERTEX
  5
2C4
330
29F
100
AcDbEntity
  8
Visible (ISO)
100
AcDbVertex
100
AcDb2dVertex
 10
488.2504213173163
 20
174.1418271191045
 30
0.0
  0
VERTEX
  5
2C5
330
29F
100
AcDbEntity
  8
Visible (ISO)
100
AcDbVertex
100
AcDb2dVertex
 10
488.1279099304452
 20
174.2188100941106
 30
0.0
  0
SEQEND
  5
2A2
330
29F
100
AcDbEntity
  8
Visible (ISO)
  0
POLYLINE
  5
2C6
330
75
100
AcDbEntity
  8
Visible (ISO)
100
AcDb2dPolyline
 66
     1
 10
0.0
 20
0.0
 30
0.0
 70
   128
  0
VERTEX
  5
2C7
330
2C6
100
AcDbEntity
  8
Visible (ISO)
100
AcDbVertex
100
AcDb2dVertex
 10
487.2143310625319
 20
173.5348944790288
 30
0.0
  0
VERTEX
  5
2C8
330
2C6
100
AcDbEntity
  8
Visible (ISO)
100
AcDbVertex
100
AcDb2dVertex
 10
486.977013381219
 20
173.4509019977971
 30
0.0
  0
VERTEX
  5
2CA
330
2C6
100
AcDbEntity
  8
Visible (ISO)
100
AcDbVertex
100
AcDb2dVertex
 10
486.6384333688973
 20
173.3669119007512
 30
0.0
  0
VERTEX
  5
2CB
330
2C6
100
AcDbEntity
  8
Visible (ISO)
100
AcDbVertex
100
AcDb2dVertex
 10
486.2023598272559
 20
173.2829194195195
 30
0.0
  0
VERTEX
  5
2CC
330
2C6
100
AcDbEntity
  8
Visible (ISO)
100
AcDbVertex
100
AcDb2dVertex
 10
485.6736457664721
 20
173.1989293224736
 30
0.0
  0
VERTEX
  5
2CD
330
2C6
100
AcDbEntity
  8
Visible (ISO)
100
AcDbVertex
100
AcDb2dVertex
 10
485.0581759531251
 20
173.1149368412419
 30
0.0
  0
VERTEX
  5
2CE
330
2C6
100
AcDbEntity
  8
Visible (ISO)
100
AcDbVertex
100
AcDb2dVertex
 10
484.3628007490386
 20
173.030946744196
 30
0.0
  0
VERTEX
  5
2CF
330
2C6
100
AcDbEntity
  8
Visible (ISO)
100
AcDbVertex
100
AcDb2dVertex
 10
483.5952586252438
 20
172.9469542629644
 30
0.0
  0
VERTEX
  5
2D0
330
2C6
100
AcDbEntity
  8
Visible (ISO)
100
AcDbVertex
100
AcDb2dVertex
 10
482.7640927154766
 20
172.8629641659184
 30
0.0
  0
VERTEX
  5
2D1
330
2C6
100
AcDbEntity
  8
Visible (ISO)
100
AcDbVertex
100
AcDb2dVertex
 10
481.8785536606058
 20
172.7789716846868
 30
0.0
  0
VERTEX
  5
2D2
330
2C6
100
AcDbEntity
  8
Visible (ISO)
100
AcDbVertex
100
AcDb2dVertex
 10
480.9484970886452
 20
172.6949815876409
 30
0.0
  0
VERTEX
  5
2D3
330
2C6
100
AcDbEntity
  8
Visible (ISO)
100
AcDbVertex
100
AcDb2dVertex
 10
479.9842743892413
 20
172.6109891064092
 30
0.0
  0
VERTEX
  5
2D4
330
2C6
100
AcDbEntity
  8
Visible (ISO)
100
AcDbVertex
100
AcDb2dVertex
 10
478.9966171551686
 20
172.5269990093633
 30
0.0
  0
VERTEX
  5
2D5
330
2C6
100
AcDbEntity
  8
Visible (ISO)
100
AcDbVertex
100
AcDb2dVertex
 10
477.9965177308958
 20
172.4430065281316
 30
0.0
  0
VERTEX
  5
2D6
330
2C6
100
AcDbEntity
  8
Visible (ISO)
100
AcDbVertex
100
AcDb2dVertex
 10
476.9951068926792
 20
172.3590164310857
 30
0.0
  0
VERTEX
  5
2D7
330
2C6
100
AcDbEntity
  8
Visible (ISO)
100
AcDbVertex
100
AcDb2dVertex
 10
476.0035302061778
 20
172.275023949854
 30
0.0
  0
VERTEX
  5
2D8
330
2C6
100
AcDbEntity
  8
Visible (ISO)
100
AcDbVertex
100
AcDb2dVertex
 10
475.0328237135155
 20
172.1910338528081
 30
0.0
  0
VERTEX
  5
2D9
330
2C6
100
AcDbEntity
  8
Visible (ISO)
100
AcDbVertex
100
AcDb2dVertex
 10
474.0937909800751
 20
172.1070413715764
 30
0.0
  0
VERTEX
  5
2DA
330
2C6
100
AcDbEntity
  8
Visible (ISO)
100
AcDbVertex
100
AcDb2dVertex
 10
473.1968832332835
 20
172.0230512745305
 30
0.0
  0
VERTEX
  5
2DB
330
2C6
100
AcDbEntity
  8
Visible (ISO)
100
AcDbVertex
100
AcDb2dVertex
 10
472.3520827610242
 20
171.9390587932988
 30
0.0
  0
VERTEX
  5
2DC
330
2C6
100
AcDbEntity
  8
Visible (ISO)
100
AcDbVertex
100
AcDb2dVertex
 10
471.5687924940336
 20
171.8550686962529
 30
0.0
  0
VERTEX
  5
2DD
330
2C6
100
AcDbEntity
  8
Visible (ISO)
100
AcDbVertex
100
AcDb2dVertex
 10
470.855729015564
 20
171.7710762150212
 30
0.0
  0
VERTEX
  5
2DE
330
2C6
100
AcDbEntity
  8
Visible (ISO)
100
AcDbVertex
100
AcDb2dVertex
 10
470.2208304722064
 20
171.6870837337895
 30
0.0
  0
VERTEX
  5
2DF
330
2C6
100
AcDbEntity
  8
Visible (ISO)
100
AcDbVertex
100
AcDb2dVertex
 10
469.6711612064595
 20
171.6030936367436
 30
0.0
  0
VERTEX
  5
2E0
330
2C6
100
AcDbEntity
  8
Visible (ISO)
100
AcDbVertex
100
AcDb2dVertex
 10
469.2128402311562
 20
171.519101155512
 30
0.0
  0
VERTEX
  5
2E1
330
2C6
100
AcDbEntity
  8
Visible (ISO)
100
AcDbVertex
100
AcDb2dVertex
 10
468.8509673197032
 20
171.435111058466
 30
0.0
  0
VERTEX
  5
2E2
330
2C6
100
AcDbEntity
  8
Visible (ISO)
100
AcDbVertex
100
AcDb2dVertex
 10
468.589571150041
 20
171.3511185772344
 30
0.0
  0
VERTEX
  5
2E3
330
2C6
100
AcDbEntity
  8
Visible (ISO)
100
AcDbVertex
100
AcDb2dVertex
 10
468.4315610248811
 20
171.2671284801885
 30
0.0
  0
VERTEX
  5
2E4
330
2C6
100
AcDbEntity
  8
Visible (ISO)
100
AcDbVertex
100
AcDb2dVertex
 10
468.3786946851979
 20
171.1831359989568
 30
0.0
  0
SEQEND
  5
2C9
330
2C6
100
AcDbEntity
  8
Visible (ISO)
  0
POLYLINE
  5
2E5
330
75
100
AcDbEntity
  8
Visible (ISO)
100
AcDb2dPolyline
 66
     1
 10
0.0
 20
0.0
 30
0.0
 70
   128
  0
VERTEX
  5
2E6
330
2E5
100
AcDbEntity
  8
Visible (ISO)
100
AcDbVertex
100
AcDb2dVertex
 10
487.2143310625319
 20
168.5348944790288
 30
0.0
  0
VERTEX
  5
2E7
330
2E5
100
AcDbEntity
  8
Visible (ISO)
100
AcDbVertex
100
AcDb2dVertex
 10
486.977013381219
 20
168.4509019977971
 30
0.0
  0
VERTEX
  5
2E9
330
2E5
100
AcDbEntity
  8
Visible (ISO)
100
AcDbVertex
100
AcDb2dVertex
 10
486.6384333688973
 20
168.3669119007512
 30
0.0
  0
VERTEX
  5
2EA
330
2E5
100
AcDbEntity
  8
Visible (ISO)
100
AcDbVertex
100
AcDb2dVertex
 10
486.2023598272559
 20
168.2829194195195
 30
0.0
  0
VERTEX
  5
2EB
330
2E5
100
AcDbEntity
  8
Visible (ISO)
100
AcDbVertex
100
AcDb2dVertex
 10
485.6736457664721
 20
168.1989293224736
 30
0.0
  0
VERTEX
  5
2EC
330
2E5
100
AcDbEntity
  8
Visible (ISO)
100
AcDbVertex
100
AcDb2dVertex
 10
485.0581759531251
 20
168.1149368412419
 30
0.0
  0
VERTEX
  5
2ED
330
2E5
100
AcDbEntity
  8
Visible (ISO)
100
AcDbVertex
100
AcDb2dVertex
 10
484.3628007490386
 20
168.030946744196
 30
0.0
  0
VERTEX
  5
2EE
330
2E5
100
AcDbEntity
  8
Visible (ISO)
100
AcDbVertex
100
AcDb2dVertex
 10
483.5952586252438
 20
167.9469542629643
 30
0.0
  0
VERTEX
  5
2EF
330
2E5
100
AcDbEntity
  8
Visible (ISO)
100
AcDbVertex
100
AcDb2dVertex
 10
482.7640927154766
 20
167.8629641659185
 30
0.0
  0
VERTEX
  5
2F0
330
2E5
100
AcDbEntity
  8
Visible (ISO)
100
AcDbVertex
100
AcDb2dVertex
 10
481.8785536606058
 20
167.7789716846868
 30
0.0
  0
VERTEX
  5
2F1
330
2E5
100
AcDbEntity
  8
Visible (ISO)
100
AcDbVertex
100
AcDb2dVertex
 10
480.9484970886452
 20
167.6949815876409
 30
0.0
  0
VERTEX
  5
2F2
330
2E5
100
AcDbEntity
  8
Visible (ISO)
100
AcDbVertex
100
AcDb2dVertex
 10
479.9842743892413
 20
167.6109891064092
 30
0.0
  0
VERTEX
  5
2F3
330
2E5
100
AcDbEntity
  8
Visible (ISO)
100
AcDbVertex
100
AcDb2dVertex
 10
478.9966171551686
 20
167.5269990093633
 30
0.0
  0
VERTEX
  5
2F4
330
2E5
100
AcDbEntity
  8
Visible (ISO)
100
AcDbVertex
100
AcDb2dVertex
 10
477.9965177308958
 20
167.4430065281316
 30
0.0
  0
VERTEX
  5
2F5
330
2E5
100
AcDbEntity
  8
Visible (ISO)
100
AcDbVertex
100
AcDb2dVertex
 10
476.9951068926792
 20
167.3590164310857
 30
0.0
  0
VERTEX
  5
2F6
330
2E5
100
AcDbEntity
  8
Visible (ISO)
100
AcDbVertex
100
AcDb2dVertex
 10
476.0035302061778
 20
167.275023949854
 30
0.0
  0
VERTEX
  5
2F7
330
2E5
100
AcDbEntity
  8
Visible (ISO)
100
AcDbVertex
100
AcDb2dVertex
 10
475.0328237135155
 20
167.1910338528081
 30
0.0
  0
VERTEX
  5
2F8
330
2E5
100
AcDbEntity
  8
Visible (ISO)
100
AcDbVertex
100
AcDb2dVertex
 10
474.0937909800751
 20
167.1070413715764
 30
0.0
  0
VERTEX
  5
2F9
330
2E5
100
AcDbEntity
  8
Visible (ISO)
100
AcDbVertex
100
AcDb2dVertex
 10
473.1968832332835
 20
167.0230512745305
 30
0.0
  0
VERTEX
  5
2FA
330
2E5
100
AcDbEntity
  8
Visible (ISO)
100
AcDbVertex
100
AcDb2dVertex
 10
472.3520827610242
 20
166.9390587932988
 30
0.0
  0
VERTEX
  5
2FB
330
2E5
100
AcDbEntity
  8
Visible (ISO)
100
AcDbVertex
100
AcDb2dVertex
 10
471.5687924940336
 20
166.8550686962529
 30
0.0
  0
VERTEX
  5
2FC
330
2E5
100
AcDbEntity
  8
Visible (ISO)
100
AcDbVertex
100
AcDb2dVertex
 10
470.855729015564
 20
166.7710762150212
 30
0.0
  0
VERTEX
  5
2FD
330
2E5
100
AcDbEntity
  8
Visible (ISO)
100
AcDbVertex
100
AcDb2dVertex
 10
470.2208304722064
 20
166.6870837337896
 30
0.0
  0
VERTEX
  5
2FE
330
2E5
100
AcDbEntity
  8
Visible (ISO)
100
AcDbVertex
100
AcDb2dVertex
 10
469.6711612064595
 20
166.6030936367436
 30
0.0
  0
VERTEX
  5
2FF
330
2E5
100
AcDbEntity
  8
Visible (ISO)
100
AcDbVertex
100
AcDb2dVertex
 10
469.2128402311562
 20
166.519101155512
 30
0.0
  0
VERTEX
  5
300
330
2E5
100
AcDbEntity
  8
Visible (ISO)
100
AcDbVertex
100
AcDb2dVertex
 10
468.8509673197032
 20
166.4351110584661
 30
0.0
  0
VERTEX
  5
301
330
2E5
100
AcDbEntity
  8
Visible (ISO)
100
AcDbVertex
100
AcDb2dVertex
 10
468.589571150041
 20
166.3511185772344
 30
0.0
  0
VERTEX
  5
302
330
2E5
100
AcDbEntity
  8
Visible (ISO)
100
AcDbVertex
100
AcDb2dVertex
 10
468.4315610248811
 20
166.2671284801885
 30
0.0
  0
VERTEX
  5
303
330
2E5
100
AcDbEntity
  8
Visible (ISO)
100
AcDbVertex
100
AcDb2dVertex
 10
468.3786946851979
 20
166.1831359989568
 30
0.0
  0
SEQEND
  5
2E8
330
2E5
100
AcDbEntity
  8
Visible (ISO)
  0
POLYLINE
  5
304
330
75
100
AcDbEntity
  8
Visible (ISO)
100
AcDb2dPolyline
 66
     1
 10
0.0
 20
0.0
 30
0.0
 70
   128
  0
VERTEX
  5
305
330
304
100
AcDbEntity
  8
Visible (ISO)
100
AcDbVertex
100
AcDb2dVertex
 10
468.5430580694442
 20
167.1313791401311
 30
0.0
  0
VERTEX
  5
306
330
304
100
AcDbEntity
  8
Visible (ISO)
100
AcDbVertex
100
AcDb2dVertex
 10
468.7803757507564
 20
167.2153716213628
 30
0.0
  0
VERTEX
  5
308
330
304
100
AcDbEntity
  8
Visible (ISO)
100
AcDbVertex
100
AcDb2dVertex
 10
469.1189557630776
 20
167.2993617184087
 30
0.0
  0
VERTEX
  5
309
330
304
100
AcDbEntity
  8
Visible (ISO)
100
AcDbVertex
100
AcDb2dVertex
 10
469.5550293047187
 20
167.3833541996404
 30
0.0
  0
VERTEX
  5
30A
330
304
100
AcDbEntity
  8
Visible (ISO)
100
AcDbVertex
100
AcDb2dVertex
 10
470.0837433655017
 20
167.4673442966863
 30
0.0
  0
VERTEX
  5
30B
330
304
100
AcDbEntity
  8
Visible (ISO)
100
AcDbVertex
100
AcDb2dVertex
 10
470.6992131788484
 20
167.551336777918
 30
0.0
  0
VERTEX
  5
30C
330
304
100
AcDbEntity
  8
Visible (ISO)
100
AcDbVertex
100
AcDb2dVertex
 10
471.3945883829345
 20
167.6353268749639
 30
0.0
  0
VERTEX
  5
30D
330
304
100
AcDbEntity
  8
Visible (ISO)
100
AcDbVertex
100
AcDb2dVertex
 10
472.1621305067288
 20
167.7193193561955
 30
0.0
  0
VERTEX
  5
30E
330
304
100
AcDbEntity
  8
Visible (ISO)
100
AcDbVertex
100
AcDb2dVertex
 10
472.9932964164958
 20
167.8033094532414
 30
0.0
  0
VERTEX
  5
30F
330
304
100
AcDbEntity
  8
Visible (ISO)
100
AcDbVertex
100
AcDb2dVertex
 10
473.8788354713663
 20
167.8873019344731
 30
0.0
  0
VERTEX
  5
310
330
304
100
AcDbEntity
  8
Visible (ISO)
100
AcDbVertex
100
AcDb2dVertex
 10
474.8088920433266
 20
167.971292031519
 30
0.0
  0
VERTEX
  5
311
330
304
100
AcDbEntity
  8
Visible (ISO)
100
AcDbVertex
100
AcDb2dVertex
 10
475.7731147427302
 20
168.0552845127507
 30
0.0
  0
VERTEX
  5
312
330
304
100
AcDbEntity
  8
Visible (ISO)
100
AcDbVertex
100
AcDb2dVertex
 10
476.7607719768029
 20
168.1392769939824
 30
0.0
  0
VERTEX
  5
313
330
304
100
AcDbEntity
  8
Visible (ISO)
100
AcDbVertex
100
AcDb2dVertex
 10
477.7608714010757
 20
168.2232670910283
 30
0.0
  0
VERTEX
  5
314
330
304
100
AcDbEntity
  8
Visible (ISO)
100
AcDbVertex
100
AcDb2dVertex
 10
478.7622822392922
 20
168.30725957226
 30
0.0
  0
VERTEX
  5
315
330
304
100
AcDbEntity
  8
Visible (ISO)
100
AcDbVertex
100
AcDb2dVertex
 10
479.7538589257937
 20
168.3912496693059
 30
0.0
  0
VERTEX
  5
316
330
304
100
AcDbEntity
  8
Visible (ISO)
100
AcDbVertex
100
AcDb2dVertex
 10
480.7245654184563
 20
168.4752421505376
 30
0.0
  0
VERTEX
  5
317
330
304
100
AcDbEntity
  8
Visible (ISO)
100
AcDbVertex
100
AcDb2dVertex
 10
481.6635981518968
 20
168.5592322475835
 30
0.0
  0
VERTEX
  5
318
330
304
100
AcDbEntity
  8
Visible (ISO)
100
AcDbVertex
100
AcDb2dVertex
 10
482.5605058986887
 20
168.6432247288152
 30
0.0
  0
VERTEX
  5
319
330
304
100
AcDbEntity
  8
Visible (ISO)
100
AcDbVertex
100
AcDb2dVertex
 10
483.4053063709484
 20
168.7272148258611
 30
0.0
  0
VERTEX
  5
31A
330
304
100
AcDbEntity
  8
Visible (ISO)
100
AcDbVertex
100
AcDb2dVertex
 10
484.1885966379392
 20
168.8112073070928
 30
0.0
  0
VERTEX
  5
31B
330
304
100
AcDbEntity
  8
Visible (ISO)
100
AcDbVertex
100
AcDb2dVertex
 10
484.9016601164094
 20
168.8951974041387
 30
0.0
  0
VERTEX
  5
31C
330
304
100
AcDbEntity
  8
Visible (ISO)
100
AcDbVertex
100
AcDb2dVertex
 10
485.5365586597674
 20
168.9791898853703
 30
0.0
  0
VERTEX
  5
31D
330
304
100
AcDbEntity
  8
Visible (ISO)
100
AcDbVertex
100
AcDb2dVertex
 10
486.0862279255147
 20
169.0631799824162
 30
0.0
  0
VERTEX
  5
31E
330
304
100
AcDbEntity
  8
Visible (ISO)
100
AcDbVertex
100
AcDb2dVertex
 10
486.5445489008187
 20
169.1471724636479
 30
0.0
  0
VERTEX
  5
31F
330
304
100
AcDbEntity
  8
Visible (ISO)
100
AcDbVertex
100
AcDb2dVertex
 10
486.9064218122722
 20
169.2311625606938
 30
0.0
  0
VERTEX
  5
320
330
304
100
AcDbEntity
  8
Visible (ISO)
100
AcDbVertex
100
AcDb2dVertex
 10
487.1678179819349
 20
169.3151550419255
 30
0.0
  0
VERTEX
  5
321
330
304
100
AcDbEntity
  8
Visible (ISO)
100
AcDbVertex
100
AcDb2dVertex
 10
487.3258281070954
 20
169.3991451389714
 30
0.0
  0
VERTEX
  5
322
330
304
100
AcDbEntity
  8
Visible (ISO)
100
AcDbVertex
100
AcDb2dVertex
 10
487.3786944467793
 20
169.4831376202031
 30
0.0
  0
SEQEND
  5
307
330
304
100
AcDbEntity
  8
Visible (ISO)
  0
POLYLINE
  5
323
330
75
100
AcDbEntity
  8
Visible (ISO)
100
AcDb2dPolyline
 66
     1
 10
0.0
 20
0.0
 30
0.0
 70
   128
  0
VERTEX
  5
324
330
323
100
AcDbEntity
  8
Visible (ISO)
100
AcDbVertex
100
AcDb2dVertex
 10
468.5430580694442
 20
172.1313791401311
 30
0.0
  0
VERTEX
  5
325
330
323
100
AcDbEntity
  8
Visible (ISO)
100
AcDbVertex
100
AcDb2dVertex
 10
468.7803757507564
 20
172.2153716213628
 30
0.0
  0
VERTEX
  5
327
330
323
100
AcDbEntity
  8
Visible (ISO)
100
AcDbVertex
100
AcDb2dVertex
 10
469.1189557630776
 20
172.2993617184087
 30
0.0
  0
VERTEX
  5
328
330
323
100
AcDbEntity
  8
Visible (ISO)
100
AcDbVertex
100
AcDb2dVertex
 10
469.5550293047187
 20
172.3833541996404
 30
0.0
  0
VERTEX
  5
329
330
323
100
AcDbEntity
  8
Visible (ISO)
100
AcDbVertex
100
AcDb2dVertex
 10
470.0837433655017
 20
172.4673442966863
 30
0.0
  0
VERTEX
  5
32A
330
323
100
AcDbEntity
  8
Visible (ISO)
100
AcDbVertex
100
AcDb2dVertex
 10
470.6992131788484
 20
172.551336777918
 30
0.0
  0
VERTEX
  5
32B
330
323
100
AcDbEntity
  8
Visible (ISO)
100
AcDbVertex
100
AcDb2dVertex
 10
471.3945883829345
 20
172.6353268749639
 30
0.0
  0
VERTEX
  5
32C
330
323
100
AcDbEntity
  8
Visible (ISO)
100
AcDbVertex
100
AcDb2dVertex
 10
472.1621305067288
 20
172.7193193561955
 30
0.0
  0
VERTEX
  5
32D
330
323
100
AcDbEntity
  8
Visible (ISO)
100
AcDbVertex
100
AcDb2dVertex
 10
472.9932964164958
 20
172.8033094532414
 30
0.0
  0
VERTEX
  5
32E
330
323
100
AcDbEntity
  8
Visible (ISO)
100
AcDbVertex
100
AcDb2dVertex
 10
473.8788354713663
 20
172.8873019344731
 30
0.0
  0
VERTEX
  5
32F
330
323
100
AcDbEntity
  8
Visible (ISO)
100
AcDbVertex
100
AcDb2dVertex
 10
474.8088920433266
 20
172.971292031519
 30
0.0
  0
VERTEX
  5
330
330
323
100
AcDbEntity
  8
Visible (ISO)
100
AcDbVertex
100
AcDb2dVertex
 10
475.7731147427302
 20
173.0552845127507
 30
0.0
  0
VERTEX
  5
331
330
323
100
AcDbEntity
  8
Visible (ISO)
100
AcDbVertex
100
AcDb2dVertex
 10
476.7607719768029
 20
173.1392769939824
 30
0.0
  0
VERTEX
  5
332
330
323
100
AcDbEntity
  8
Visible (ISO)
100
AcDbVertex
100
AcDb2dVertex
 10
477.7608714010757
 20
173.2232670910283
 30
0.0
  0
VERTEX
  5
333
330
323
100
AcDbEntity
  8
Visible (ISO)
100
AcDbVertex
100
AcDb2dVertex
 10
478.7622822392922
 20
173.30725957226
 30
0.0
  0
VERTEX
  5
334
330
323
100
AcDbEntity
  8
Visible (ISO)
100
AcDbVertex
100
AcDb2dVertex
 10
479.7538589257937
 20
173.3912496693059
 30
0.0
  0
VERTEX
  5
335
330
323
100
AcDbEntity
  8
Visible (ISO)
100
AcDbVertex
100
AcDb2dVertex
 10
480.7245654184563
 20
173.4752421505376
 30
0.0
  0
VERTEX
  5
336
330
323
100
AcDbEntity
  8
Visible (ISO)
100
AcDbVertex
100
AcDb2dVertex
 10
481.6635981518968
 20
173.5592322475835
 30
0.0
  0
VERTEX
  5
337
330
323
100
AcDbEntity
  8
Visible (ISO)
100
AcDbVertex
100
AcDb2dVertex
 10
482.5605058986887
 20
173.6432247288152
 30
0.0
  0
VERTEX
  5
338
330
323
100
AcDbEntity
  8
Visible (ISO)
100
AcDbVertex
100
AcDb2dVertex
 10
483.4053063709484
 20
173.7272148258611
 30
0.0
  0
VERTEX
  5
339
330
323
100
AcDbEntity
  8
Visible (ISO)
100
AcDbVertex
100
AcDb2dVertex
 10
484.1885966379392
 20
173.8112073070928
 30
0.0
  0
VERTEX
  5
33A
330
323
100
AcDbEntity
  8
Visible (ISO)
100
AcDbVertex
100
AcDb2dVertex
 10
484.9016601164094
 20
173.8951974041387
 30
0.0
  0
VERTEX
  5
33B
330
323
100
AcDbEntity
  8
Visible (ISO)
100
AcDbVertex
100
AcDb2dVertex
 10
485.5365586597674
 20
173.9791898853703
 30
0.0
  0
VERTEX
  5
33C
330
323
100
AcDbEntity
  8
Visible (ISO)
100
AcDbVertex
100
AcDb2dVertex
 10
486.0862279255147
 20
174.0631799824162
 30
0.0
  0
VERTEX
  5
33D
330
323
100
AcDbEntity
  8
Visible (ISO)
100
AcDbVertex
100
AcDb2dVertex
 10
486.5445489008187
 20
174.1471724636479
 30
0.0
  0
VERTEX
  5
33E
330
323
100
AcDbEntity
  8
Visible (ISO)
100
AcDbVertex
100
AcDb2dVertex
 10
486.9064218122722
 20
174.2311625606938
 30
0.0
  0
VERTEX
  5
33F
330
323
100
AcDbEntity
  8
Visible (ISO)
100
AcDbVertex
100
AcDb2dVertex
 10
487.1678179819349
 20
174.3151550419255
 30
0.0
  0
VERTEX
  5
340
330
323
100
AcDbEntity
  8
Visible (ISO)
100
AcDbVertex
100
AcDb2dVertex
 10
487.3258281070954
 20
174.3991451389714
 30
0.0
  0
VERTEX
  5
341
330
323
100
AcDbEntity
  8
Visible (ISO)
100
AcDbVertex
100
AcDb2dVertex
 10
487.3786944467793
 20
174.4831376202031
 30
0.0
  0
SEQEND
  5
326
330
323
100
AcDbEntity
  8
Visible (ISO)
  0
LINE
  5
342
330
75
100
AcDbEntity
  8
Visible (ISO)
100
AcDbLine
 10
488.1279099304442
 20
168.9474635250493
 30
0.0
 11
487.2143310625319
 21
168.5348944790288
 31
0.0
  0
LINE
  5
343
330
75
100
AcDbEntity
  8
Visible (ISO)
100
AcDbLine
 10
488.1279099304442
 20
173.9474635250493
 30
0.0
 11
487.2143310625319
 21
173.5348944790288
 31
0.0
  0
LINE
  5
344
330
75
100
AcDbEntity
  8
Visible (ISO)
100
AcDbLine
 10
468.3786946851983
 20
171.1092095501347
 30
0.0
 11
467.6294792015329
 21
171.4474635250493
 31
0.0
  0
LINE
  5
345
330
75
100
AcDbEntity
  8
Visible (ISO)
100
AcDbLine
 10
468.3786946851983
 20
166.1092095501347
 30
0.0
 11
467.6294792015329
 21
166.4474635250493
 31
0.0
  0
LINE
  5
346
330
75
100
AcDbEntity
  8
Visible (ISO)
100
AcDbLine
 10
487.3786944467798
 20
169.5570640690251
 30
0.0
 11
488.1279099304452
 21
169.2188100941106
 31
0.0
  0
LINE
  5
347
330
75
100
AcDbEntity
  8
Visible (ISO)
100
AcDbLine
 10
487.3786944467798
 20
174.5570640690251
 30
0.0
 11
488.1279099304452
 21
174.2188100941106
 31
0.0
  0
LINE
  5
348
330
75
100
AcDbEntity
  8
Visible (ISO)
100
AcDbLine
 10
467.6294792015318
 20
166.7188100941106
 30
0.0
 11
468.5430580694442
 21
167.1313791401311
 31
0.0
  0
LINE
  5
349
330
75
100
AcDbEntity
  8
Visible (ISO)
100
AcDbLine
 10
467.6294792015318
 20
171.7188100941106
 30
0.0
 11
468.5430580694442
 21
172.1313791401311
 31
0.0
  0
LINE
  5
34A
330
75
100
AcDbEntity
  8
Visible (ISO)
100
AcDbLine
 10
487.3786945659886
 20
164.9331369526311
 30
0.0
 11
468.3786945659885
 21
164.9331369526311
 31
0.0
  0
LINE
  5
34B
330
75
100
AcDbEntity
  8
Visible (ISO)
100
AcDbLine
 10
487.3786945659885
 20
177.9867768869777
 30
0.0
 11
487.3786945659885
 21
174.4831369526311
 31
0.0
  0
LINE
  5
34C
330
75
100
AcDbEntity
  8
Visible (ISO)
100
AcDbLine
 10
487.3786945659885
 20
173.6092092859276
 30
0.0
 11
487.3786945659885
 21
169.4831369526311
 31
0.0
  0
LINE
  5
34D
330
75
100
AcDbEntity
  8
Visible (ISO)
100
AcDbLine
 10
487.3786945659885
 20
168.6092092859276
 30
0.0
 11
487.3786945659885
 21
164.9331369526311
 31
0.0
  0
LINE
  5
34E
330
75
100
AcDbEntity
  8
Visible (ISO)
100
AcDbLine
 10
468.3786945659885
 20
177.9867768869777
 30
0.0
 11
468.3786945659885
 21
172.0570646193346
 31
0.0
  0
LINE
  5
34F
330
75
100
AcDbEntity
  8
Visible (ISO)
100
AcDbLine
 10
468.3786945659885
 20
171.1831369526311
 30
0.0
 11
468.3786945659885
 21
167.0570646193346
 31
0.0
  0
LINE
  5
350
330
75
100
AcDbEntity
  8
Visible (ISO)
100
AcDbLine
 10
468.3786945659885
 20
166.1831369526311
 30
0.0
 11
468.3786945659885
 21
164.9331369526311
 31
0.0
  0
CIRCLE
  5
351
330
75
100
AcDbEntity
  8
Visible (ISO)
100
AcDbCircle
 10
477.878694565955
 20
198.9331369526311
 30
0.0
 40
23.0
  0
LINE
  5
352
330
75
100
AcDbEntity
  8
Visible (ISO)
100
AcDbLine
 10
441.8786945659621
 20
193.8123459981007
 30
0.0
 11
441.8786945659621
 21
204.0539279071615
 31
0.0
  0
LINE
  5
353
330
75
100
AcDbEntity
  8
Visible (ISO)
100
AcDbLine
 10
461.2120362326353
 20
183.0831369526311
 30
0.0
 11
441.8786945659666
 21
183.0831369526311
 31
0.0
  0
LINE
  5
354
330
75
100
AcDbEntity
  8
Visible (ISO)
100
AcDbLine
 10
461.2120362326353
 20
214.7831369526311
 30
0.0
 11
441.8786945659666
 21
214.7831369526311
 31
0.0
  0
LINE
  5
355
330
75
100
AcDbEntity
  8
Visible (ISO)
100
AcDbLine
 10
428.1786945659622
 20
204.5009013154611
 30
0.0
 11
441.8786945659621
 21
204.5009013154611
 31
0.0
  0
LINE
  5
356
330
75
100
AcDbEntity
  8
Visible (ISO)
100
AcDbLine
 10
441.8786945659621
 20
193.3653725898011
 30
0.0
 11
428.1786945659622
 21
193.3653725898011
 31
0.0
  0
LINE
  5
357
330
75
100
AcDbEntity
  8
Visible (ISO)
100
AcDbLine
 10
441.8786945659621
 20
204.5009013154611
 30
0.0
 11
441.8786945659621
 21
204.0539279071615
 31
0.0
  0
LINE
  5
358
330
75
100
AcDbEntity
  8
Visible (ISO)
100
AcDbLine
 10
441.8786945659621
 20
193.8123459981008
 30
0.0
 11
441.8786945659621
 21
193.3653725898011
 31
0.0
  0
LINE
  5
359
330
75
100
AcDbEntity
  8
Visible (ISO)
100
AcDbLine
 10
441.8786945659666
 20
182.9331369526312
 30
0.0
 11
441.8786945659621
 21
193.3653725898011
 31
0.0
  0
LINE
  5
35A
330
75
100
AcDbEntity
  8
Visible (ISO)
100
AcDbLine
 10
441.8786945659621
 20
204.5009013154611
 30
0.0
 11
441.8786945659666
 21
214.933136952631
 31
0.0
  0
LINE
  5
35B
330
75
100
AcDbEntity
  8
Visible (ISO)
100
AcDbLine
 10
441.8786945659666
 20
182.9331369526312
 30
0.0
 11
428.1786945659667
 21
182.9331369526312
 31
0.0
  0
LINE
  5
35C
330
75
100
AcDbEntity
  8
Visible (ISO)
100
AcDbLine
 10
441.8786945659666
 20
214.933136952631
 30
0.0
 11
428.1786945659667
 21
214.933136952631
 31
0.0
  0
LINE
  5
35D
330
75
100
AcDbEntity
  8
Visible (ISO)
100
AcDbLine
 10
428.1786945659578
 20
228.9331369526274
 30
0.0
 11
428.1786945659755
 21
168.9331369526272
 31
0.0
  0
LINE
  5
35E
330
75
100
AcDbEntity
  8
Visible (ISO)
100
AcDbLine
 10
407.9786945659577
 20
228.9331369526214
 30
0.0
 11
407.9786945659755
 21
168.9331369526212
 31
0.0
  0
LINE
  5
35F
330
75
100
AcDbEntity
  8
Visible (ISO)
100
AcDbLine
 10
407.9786945659577
 20
228.9331369526214
 30
0.0
 11
428.1786945659576
 21
228.9331369526274
 31
0.0
  0
LINE
  5
360
330
75
100
AcDbEntity
  8
Visible (ISO)
100
AcDbLine
 10
407.9786945659755
 20
168.9331369526212
 30
0.0
 11
428.1786945659755
 21
168.9331369526272
 31
0.0
  0
LINE
  5
361
330
75
100
AcDbEntity
  8
Visible (ISO)
100
AcDbLine
 10
472.3786945660282
 20
269.3331369526315
 30
0.0
 11
483.3786945660282
 21
269.3331369526315
 31
0.0
  0
LINE
  5
362
330
75
100
AcDbEntity
  8
Visible (ISO)
100
AcDbLine
 10
472.3786945660282
 20
221.2658483867584
 30
0.0
 11
472.3786945660282
 21
269.3331369526314
 31
0.0
  0
LINE
  5
363
330
75
100
AcDbEntity
  8
Visible (ISO)
100
AcDbLine
 10
483.3786945660282
 20
221.2658483867584
 30
0.0
 11
483.3786945660282
 21
269.3331369526314
 31
0.0
  0
POLYLINE
  5
364
330
75
100
AcDbEntity
  8
Visible (ISO)
100
AcDb2dPolyline
 66
     1
 10
0.0
 20
0.0
 30
0.0
 70
   128
  0
VERTEX
  5
365
330
364
100
AcDbEntity
  8
Visible (ISO)
100
AcDbVertex
100
AcDb2dVertex
 10
385.4761879617478
 20
178.9331955251625
 30
0.0
  0
VERTEX
  5
366
330
364
100
AcDbEntity
  8
Visible (ISO)
100
AcDbVertex
100
AcDb2dVertex
 10
385.4810188064482
 20
178.9335266216608
 30
0.0
  0
VERTEX
  5
368
330
364
100
AcDbEntity
  8
Visible (ISO)
100
AcDbVertex
100
AcDb2dVertex
 10
385.4858496511485
 20
178.9342266644203
 30
0.0
  0
VERTEX
  5
369
330
364
100
AcDbEntity
  8
Visible (ISO)
100
AcDbVertex
100
AcDb2dVertex
 10
385.4906804958488
 20
178.935294455942
 30
0.0
  0
VERTEX
  5
36A
330
364
100
AcDbEntity
  8
Visible (ISO)
100
AcDbVertex
100
AcDb2dVertex
 10
385.4955113405492
 20
178.9367311828607
 30
0.0
  0
VERTEX
  5
36B
330
364
100
AcDbEntity
  8
Visible (ISO)
100
AcDbVertex
100
AcDb2dVertex
 10
385.5003421852496
 20
178.9385362438124
 30
0.0
  0
VERTEX
  5
36C
330
364
100
AcDbEntity
  8
Visible (ISO)
100
AcDbVertex
100
AcDb2dVertex
 10
385.5051730299499
 20
178.9407096332974
 30
0.0
  0
VERTEX
  5
36D
330
364
100
AcDbEntity
  8
Visible (ISO)
100
AcDbVertex
100
AcDb2dVertex
 10
385.5100038746503
 20
178.943251345861
 30
0.0
  0
VERTEX
  5
36E
330
364
100
AcDbEntity
  8
Visible (ISO)
100
AcDbVertex
100
AcDb2dVertex
 10
385.5148347193506
 20
178.9461607802295
 30
0.0
  0
VERTEX
  5
36F
330
364
100
AcDbEntity
  8
Visible (ISO)
100
AcDbVertex
100
AcDb2dVertex
 10
385.519665564051
 20
178.9494385268577
 30
0.0
  0
VERTEX
  5
370
330
364
100
AcDbEntity
  8
Visible (ISO)
100
AcDbVertex
100
AcDb2dVertex
 10
385.5244964460042
 20
178.9530845804262
 30
0.0
  0
VERTEX
  5
371
330
364
100
AcDbEntity
  8
Visible (ISO)
100
AcDbVertex
100
AcDb2dVertex
 10
385.5293272907045
 20
178.9570977433459
 30
0.0
  0
VERTEX
  5
372
330
364
100
AcDbEntity
  8
Visible (ISO)
100
AcDbVertex
100
AcDb2dVertex
 10
385.534158135405
 20
178.9614792024771
 30
0.0
  0
VERTEX
  5
373
330
364
100
AcDbEntity
  8
Visible (ISO)
100
AcDbVertex
100
AcDb2dVertex
 10
385.5389889801053
 20
178.9662277602307
 30
0.0
  0
VERTEX
  5
374
330
364
100
AcDbEntity
  8
Visible (ISO)
100
AcDbVertex
100
AcDb2dVertex
 10
385.5438198248056
 20
178.9713434111972
 30
0.0
  0
VERTEX
  5
375
330
364
100
AcDbEntity
  8
Visible (ISO)
100
AcDbVertex
100
AcDb2dVertex
 10
385.548650669506
 20
178.9768267460117
 30
0.0
  0
VERTEX
  5
376
330
364
100
AcDbEntity
  8
Visible (ISO)
100
AcDbVertex
100
AcDb2dVertex
 10
385.5534815142064
 20
178.9826765671754
 30
0.0
  0
VERTEX
  5
377
330
364
100
AcDbEntity
  8
Visible (ISO)
100
AcDbVertex
100
AcDb2dVertex
 10
385.5583123589068
 20
178.9888928694591
 30
0.0
  0
VERTEX
  5
378
330
364
100
AcDbEntity
  8
Visible (ISO)
100
AcDbVertex
100
AcDb2dVertex
 10
385.5631432036071
 20
178.9954762433175
 30
0.0
  0
VERTEX
  5
379
330
364
100
AcDbEntity
  8
Visible (ISO)
100
AcDbVertex
100
AcDb2dVertex
 10
385.5679740483074
 20
179.0024254912519
 30
0.0
  0
VERTEX
  5
37A
330
364
100
AcDbEntity
  8
Visible (ISO)
100
AcDbVertex
100
AcDb2dVertex
 10
385.5728048930078
 20
179.009740608033
 30
0.0
  0
VERTEX
  5
37B
330
364
100
AcDbEntity
  8
Visible (ISO)
100
AcDbVertex
100
AcDb2dVertex
 10
385.5776357377081
 20
179.0174215884317
 30
0.0
  0
VERTEX
  5
37C
330
364
100
AcDbEntity
  8
Visible (ISO)
100
AcDbVertex
100
AcDb2dVertex
 10
385.5824665824085
 20
179.025468426858
 30
0.0
  0
VERTEX
  5
37D
330
364
100
AcDbEntity
  8
Visible (ISO)
100
AcDbVertex
100
AcDb2dVertex
 10
385.5872974271089
 20
179.0338799256328
 30
0.0
  0
VERTEX
  5
37E
330
364
100
AcDbEntity
  8
Visible (ISO)
100
AcDbVertex
100
AcDb2dVertex
 10
385.5921282718092
 20
179.0426560797071
 30
0.0
  0
SEQEND
  5
367
330
364
100
AcDbEntity
  8
Visible (ISO)
  0
POLYLINE
  5
37F
330
75
100
AcDbEntity
  8
Visible (ISO)
100
AcDb2dPolyline
 66
     1
 10
0.0
 20
0.0
 30
0.0
 70
   128
  0
VERTEX
  5
380
330
37F
100
AcDbEntity
  8
Visible (ISO)
100
AcDbVertex
100
AcDb2dVertex
 10
387.8563959622948
 20
198.8236764782081
 30
0.0
  0
VERTEX
  5
381
330
37F
100
AcDbEntity
  8
Visible (ISO)
100
AcDbVertex
100
AcDb2dVertex
 10
387.9368586564627
 20
198.9221220118634
 30
0.0
  0
VERTEX
  5
383
330
37F
100
AcDbEntity
  8
Visible (ISO)
100
AcDbVertex
100
AcDb2dVertex
 10
388.0173213506304
 20
198.9185303604356
 30
0.0
  0
VERTEX
  5
384
330
37F
100
AcDbEntity
  8
Visible (ISO)
100
AcDbVertex
100
AcDb2dVertex
 10
388.0977840447982
 20
198.8129384313529
 30
0.0
  0
VERTEX
  5
385
330
37F
100
AcDbEntity
  8
Visible (ISO)
100
AcDbVertex
100
AcDb2dVertex
 10
388.178246738966
 20
198.6064236955442
 30
0.0
  0
VERTEX
  5
386
330
37F
100
AcDbEntity
  8
Visible (ISO)
100
AcDbVertex
100
AcDb2dVertex
 10
388.2587094331336
 20
198.3010973768804
 30
0.0
  0
VERTEX
  5
387
330
37F
100
AcDbEntity
  8
Visible (ISO)
100
AcDbVertex
100
AcDb2dVertex
 10
388.3391721273014
 20
197.9000767852804
 30
0.0
  0
VERTEX
  5
388
330
37F
100
AcDbEntity
  8
Visible (ISO)
100
AcDbVertex
100
AcDb2dVertex
 10
388.419634821469
 20
197.4074594402956
 30
0.0
  0
VERTEX
  5
389
330
37F
100
AcDbEntity
  8
Visible (ISO)
100
AcDbVertex
100
AcDb2dVertex
 10
388.5000975156367
 20
196.8282769470258
 30
0.0
  0
VERTEX
  5
38A
330
37F
100
AcDbEntity
  8
Visible (ISO)
100
AcDbVertex
100
AcDb2dVertex
 10
388.5805602098043
 20
196.1684452936033
 30
0.0
  0
VERTEX
  5
38B
330
37F
100
AcDbEntity
  8
Visible (ISO)
100
AcDbVertex
100
AcDb2dVertex
 10
388.661022903972
 20
195.4347056372057
 30
0.0
  0
VERTEX
  5
38C
330
37F
100
AcDbEntity
  8
Visible (ISO)
100
AcDbVertex
100
AcDb2dVertex
 10
388.7414855981397
 20
194.6345525897193
 30
0.0
  0
VERTEX
  5
38D
330
37F
100
AcDbEntity
  8
Visible (ISO)
100
AcDbVertex
100
AcDb2dVertex
 10
388.8219485903306
 20
193.7761598226441
 30
0.0
  0
VERTEX
  5
38E
330
37F
100
AcDbEntity
  8
Visible (ISO)
100
AcDbVertex
100
AcDb2dVertex
 10
388.9024112844983
 20
192.8682958790947
 30
0.0
  0
VERTEX
  5
38F
330
37F
100
AcDbEntity
  8
Visible (ISO)
100
AcDbVertex
100
AcDb2dVertex
 10
388.982873978666
 20
191.9202343277038
 30
0.0
  0
VERTEX
  5
390
330
37F
100
AcDbEntity
  8
Visible (ISO)
100
AcDbVertex
100
AcDb2dVertex
 10
389.0633366728337
 20
190.9416597788341
 30
0.0
  0
VERTEX
  5
391
330
37F
100
AcDbEntity
  8
Visible (ISO)
100
AcDbVertex
100
AcDb2dVertex
 10
389.1437993670015
 20
189.9425685450431
 30
0.0
  0
VERTEX
  5
392
330
37F
100
AcDbEntity
  8
Visible (ISO)
100
AcDbVertex
100
AcDb2dVertex
 10
389.2242620611693
 20
188.9331662397572
 30
0.0
  0
VERTEX
  5
393
330
37F
100
AcDbEntity
  8
Visible (ISO)
100
AcDbVertex
100
AcDb2dVertex
 10
389.304724755337
 20
187.9237638941617
 30
0.0
  0
VERTEX
  5
394
330
37F
100
AcDbEntity
  8
Visible (ISO)
100
AcDbVertex
100
AcDb2dVertex
 10
389.3851874495049
 20
186.9246727018609
 30
0.0
  0
VERTEX
  5
395
330
37F
100
AcDbEntity
  8
Visible (ISO)
100
AcDbVertex
100
AcDb2dVertex
 10
389.4656501436728
 20
185.9460981224966
 30
0.0
  0
VERTEX
  5
396
330
37F
100
AcDbEntity
  8
Visible (ISO)
100
AcDbVertex
100
AcDb2dVertex
 10
389.5461128378407
 20
184.9980367897792
 30
0.0
  0
VERTEX
  5
397
330
37F
100
AcDbEntity
  8
Visible (ISO)
100
AcDbVertex
100
AcDb2dVertex
 10
389.6265755320087
 20
184.0901725337769
 30
0.0
  0
VERTEX
  5
398
330
37F
100
AcDbEntity
  8
Visible (ISO)
100
AcDbVertex
100
AcDb2dVertex
 10
389.7070382261767
 20
183.2317799082259
 30
0.0
  0
VERTEX
  5
399
330
37F
100
AcDbEntity
  8
Visible (ISO)
100
AcDbVertex
100
AcDb2dVertex
 10
389.7875012183679
 20
182.4316270045216
 30
0.0
  0
VERTEX
  5
39A
330
37F
100
AcDbEntity
  8
Visible (ISO)
100
AcDbVertex
100
AcDb2dVertex
 10
389.867963912536
 20
181.697887067465
 30
0.0
  0
VERTEX
  5
39B
330
37F
100
AcDbEntity
  8
Visible (ISO)
100
AcDbVertex
100
AcDb2dVertex
 10
389.9484266067041
 20
181.0380555042643
 30
0.0
  0
VERTEX
  5
39C
330
37F
100
AcDbEntity
  8
Visible (ISO)
100
AcDbVertex
100
AcDb2dVertex
 10
390.0288893008723
 20
180.4588731707568
 30
0.0
  0
VERTEX
  5
39D
330
37F
100
AcDbEntity
  8
Visible (ISO)
100
AcDbVertex
100
AcDb2dVertex
 10
390.1093519950405
 20
179.9662556332262
 30
0.0
  0
VERTEX
  5
39E
330
37F
100
AcDbEntity
  8
Visible (ISO)
100
AcDbVertex
100
AcDb2dVertex
 10
390.1898146892087
 20
179.56523556484
 30
0.0
  0
VERTEX
  5
39F
330
37F
100
AcDbEntity
  8
Visible (ISO)
100
AcDbVertex
100
AcDb2dVertex
 10
390.270277383377
 20
179.2599087205201
 30
0.0
  0
VERTEX
  5
3A0
330
37F
100
AcDbEntity
  8
Visible (ISO)
100
AcDbVertex
100
AcDb2dVertex
 10
390.3507400775453
 20
179.0533942453753
 30
0.0
  0
VERTEX
  5
3A1
330
37F
100
AcDbEntity
  8
Visible (ISO)
100
AcDbVertex
100
AcDb2dVertex
 10
390.4312027717137
 20
178.947802127196
 30
0.0
  0
VERTEX
  5
3A2
330
37F
100
AcDbEntity
  8
Visible (ISO)
100
AcDbVertex
100
AcDb2dVertex
 10
390.511665465882
 20
178.9442102057694
 30
0.0
  0
VERTEX
  5
3A3
330
37F
100
AcDbEntity
  8
Visible (ISO)
100
AcDbVertex
100
AcDb2dVertex
 10
390.5921281600505
 20
179.0426560797057
 30
0.0
  0
SEQEND
  5
382
330
37F
100
AcDbEntity
  8
Visible (ISO)
  0
POLYLINE
  5
3A4
330
75
100
AcDbEntity
  8
Visible (ISO)
100
AcDb2dPolyline
 66
     1
 10
0.0
 20
0.0
 30
0.0
 70
   128
  0
VERTEX
  5
3A5
330
3A4
100
AcDbEntity
  8
Visible (ISO)
100
AcDbVertex
100
AcDb2dVertex
 10
392.8563959622948
 20
198.8236764782066
 30
0.0
  0
VERTEX
  5
3A6
330
3A4
100
AcDbEntity
  8
Visible (ISO)
100
AcDbVertex
100
AcDb2dVertex
 10
392.9368586564626
 20
198.922122011862
 30
0.0
  0
VERTEX
  5
3A8
330
3A4
100
AcDbEntity
  8
Visible (ISO)
100
AcDbVertex
100
AcDb2dVertex
 10
393.0173213506304
 20
198.9185303604341
 30
0.0
  0
VERTEX
  5
3A9
330
3A4
100
AcDbEntity
  8
Visible (ISO)
100
AcDbVertex
100
AcDb2dVertex
 10
393.0977840447982
 20
198.8129384313514
 30
0.0
  0
VERTEX
  5
3AA
330
3A4
100
AcDbEntity
  8
Visible (ISO)
100
AcDbVertex
100
AcDb2dVertex
 10
393.178246738966
 20
198.6064236955428
 30
0.0
  0
VERTEX
  5
3AB
330
3A4
100
AcDbEntity
  8
Visible (ISO)
100
AcDbVertex
100
AcDb2dVertex
 10
393.2587094331336
 20
198.301097376879
 30
0.0
  0
VERTEX
  5
3AC
330
3A4
100
AcDbEntity
  8
Visible (ISO)
100
AcDbVertex
100
AcDb2dVertex
 10
393.3391721273014
 20
197.9000767852789
 30
0.0
  0
VERTEX
  5
3AD
330
3A4
100
AcDbEntity
  8
Visible (ISO)
100
AcDbVertex
100
AcDb2dVertex
 10
393.419634821469
 20
197.4074594402941
 30
0.0
  0
VERTEX
  5
3AE
330
3A4
100
AcDbEntity
  8
Visible (ISO)
100
AcDbVertex
100
AcDb2dVertex
 10
393.5000975156367
 20
196.8282769470244
 30
0.0
  0
VERTEX
  5
3AF
330
3A4
100
AcDbEntity
  8
Visible (ISO)
100
AcDbVertex
100
AcDb2dVertex
 10
393.5805602098043
 20
196.1684452936019
 30
0.0
  0
VERTEX
  5
3B0
330
3A4
100
AcDbEntity
  8
Visible (ISO)
100
AcDbVertex
100
AcDb2dVertex
 10
393.661022903972
 20
195.4347056372043
 30
0.0
  0
VERTEX
  5
3B1
330
3A4
100
AcDbEntity
  8
Visible (ISO)
100
AcDbVertex
100
AcDb2dVertex
 10
393.7414855981397
 20
194.6345525897178
 30
0.0
  0
VERTEX
  5
3B2
330
3A4
100
AcDbEntity
  8
Visible (ISO)
100
AcDbVertex
100
AcDb2dVertex
 10
393.8219482923074
 20
193.7761598226426
 30
0.0
  0
VERTEX
  5
3B3
330
3A4
100
AcDbEntity
  8
Visible (ISO)
100
AcDbVertex
100
AcDb2dVertex
 10
393.902410986475
 20
192.8682958790932
 30
0.0
  0
VERTEX
  5
3B4
330
3A4
100
AcDbEntity
  8
Visible (ISO)
100
AcDbVertex
100
AcDb2dVertex
 10
393.9828736806427
 20
191.9202343277023
 30
0.0
  0
VERTEX
  5
3B5
330
3A4
100
AcDbEntity
  8
Visible (ISO)
100
AcDbVertex
100
AcDb2dVertex
 10
394.0633363748105
 20
190.9416597788327
 30
0.0
  0
VERTEX
  5
3B6
330
3A4
100
AcDbEntity
  8
Visible (ISO)
100
AcDbVertex
100
AcDb2dVertex
 10
394.1437990689782
 20
189.9425685450416
 30
0.0
  0
VERTEX
  5
3B7
330
3A4
100
AcDbEntity
  8
Visible (ISO)
100
AcDbVertex
100
AcDb2dVertex
 10
394.224261763146
 20
188.9331662397557
 30
0.0
  0
VERTEX
  5
3B8
330
3A4
100
AcDbEntity
  8
Visible (ISO)
100
AcDbVertex
100
AcDb2dVertex
 10
394.3047250533603
 20
187.9237638941602
 30
0.0
  0
VERTEX
  5
3B9
330
3A4
100
AcDbEntity
  8
Visible (ISO)
100
AcDbVertex
100
AcDb2dVertex
 10
394.3851877475281
 20
186.9246727018594
 30
0.0
  0
VERTEX
  5
3BA
330
3A4
100
AcDbEntity
  8
Visible (ISO)
100
AcDbVertex
100
AcDb2dVertex
 10
394.465650441696
 20
185.9460981224951
 30
0.0
  0
VERTEX
  5
3BB
330
3A4
100
AcDbEntity
  8
Visible (ISO)
100
AcDbVertex
100
AcDb2dVertex
 10
394.5461131358639
 20
184.9980367897778
 30
0.0
  0
VERTEX
  5
3BC
330
3A4
100
AcDbEntity
  8
Visible (ISO)
100
AcDbVertex
100
AcDb2dVertex
 10
394.6265758300319
 20
184.0901725337754
 30
0.0
  0
VERTEX
  5
3BD
330
3A4
100
AcDbEntity
  8
Visible (ISO)
100
AcDbVertex
100
AcDb2dVertex
 10
394.7070385241999
 20
183.2317799082245
 30
0.0
  0
VERTEX
  5
3BE
330
3A4
100
AcDbEntity
  8
Visible (ISO)
100
AcDbVertex
100
AcDb2dVertex
 10
394.7875012183679
 20
182.4316270045201
 30
0.0
  0
VERTEX
  5
3BF
330
3A4
100
AcDbEntity
  8
Visible (ISO)
100
AcDbVertex
100
AcDb2dVertex
 10
394.867963912536
 20
181.6978870674635
 30
0.0
  0
VERTEX
  5
3C0
330
3A4
100
AcDbEntity
  8
Visible (ISO)
100
AcDbVertex
100
AcDb2dVertex
 10
394.9484266067041
 20
181.0380555042628
 30
0.0
  0
VERTEX
  5
3C1
330
3A4
100
AcDbEntity
  8
Visible (ISO)
100
AcDbVertex
100
AcDb2dVertex
 10
395.0288893008723
 20
180.4588731707553
 30
0.0
  0
VERTEX
  5
3C2
330
3A4
100
AcDbEntity
  8
Visible (ISO)
100
AcDbVertex
100
AcDb2dVertex
 10
395.1093519950405
 20
179.9662556332247
 30
0.0
  0
VERTEX
  5
3C3
330
3A4
100
AcDbEntity
  8
Visible (ISO)
100
AcDbVertex
100
AcDb2dVertex
 10
395.1898146892087
 20
179.5652355648385
 30
0.0
  0
VERTEX
  5
3C4
330
3A4
100
AcDbEntity
  8
Visible (ISO)
100
AcDbVertex
100
AcDb2dVertex
 10
395.270277383377
 20
179.2599087205186
 30
0.0
  0
VERTEX
  5
3C5
330
3A4
100
AcDbEntity
  8
Visible (ISO)
100
AcDbVertex
100
AcDb2dVertex
 10
395.3507400775453
 20
179.0533942453738
 30
0.0
  0
VERTEX
  5
3C6
330
3A4
100
AcDbEntity
  8
Visible (ISO)
100
AcDbVertex
100
AcDb2dVertex
 10
395.4312027717137
 20
178.9478021271945
 30
0.0
  0
VERTEX
  5
3C7
330
3A4
100
AcDbEntity
  8
Visible (ISO)
100
AcDbVertex
100
AcDb2dVertex
 10
395.5116654658821
 20
178.944210205768
 30
0.0
  0
VERTEX
  5
3C8
330
3A4
100
AcDbEntity
  8
Visible (ISO)
100
AcDbVertex
100
AcDb2dVertex
 10
395.5921281600505
 20
179.0426560797042
 30
0.0
  0
SEQEND
  5
3A7
330
3A4
100
AcDbEntity
  8
Visible (ISO)
  0
POLYLINE
  5
3C9
330
75
100
AcDbEntity
  8
Visible (ISO)
100
AcDb2dPolyline
 66
     1
 10
0.0
 20
0.0
 30
0.0
 70
   128
  0
VERTEX
  5
3CA
330
3C9
100
AcDbEntity
  8
Visible (ISO)
100
AcDbVertex
100
AcDb2dVertex
 10
397.8563953662484
 20
198.8236764782051
 30
0.0
  0
VERTEX
  5
3CB
330
3C9
100
AcDbEntity
  8
Visible (ISO)
100
AcDbVertex
100
AcDb2dVertex
 10
397.9368580604162
 20
198.9221220118605
 30
0.0
  0
VERTEX
  5
3CD
330
3C9
100
AcDbEntity
  8
Visible (ISO)
100
AcDbVertex
100
AcDb2dVertex
 10
398.017320754584
 20
198.9185303604326
 30
0.0
  0
VERTEX
  5
3CE
330
3C9
100
AcDbEntity
  8
Visible (ISO)
100
AcDbVertex
100
AcDb2dVertex
 10
398.0977834487516
 20
198.8129384313499
 30
0.0
  0
VERTEX
  5
3CF
330
3C9
100
AcDbEntity
  8
Visible (ISO)
100
AcDbVertex
100
AcDb2dVertex
 10
398.1782461429194
 20
198.6064236955413
 30
0.0
  0
VERTEX
  5
3D0
330
3C9
100
AcDbEntity
  8
Visible (ISO)
100
AcDbVertex
100
AcDb2dVertex
 10
398.2587100291801
 20
198.3010973768775
 30
0.0
  0
VERTEX
  5
3D1
330
3C9
100
AcDbEntity
  8
Visible (ISO)
100
AcDbVertex
100
AcDb2dVertex
 10
398.3391727233478
 20
197.9000767852774
 30
0.0
  0
VERTEX
  5
3D2
330
3C9
100
AcDbEntity
  8
Visible (ISO)
100
AcDbVertex
100
AcDb2dVertex
 10
398.4196354175154
 20
197.4074594402926
 30
0.0
  0
VERTEX
  5
3D3
330
3C9
100
AcDbEntity
  8
Visible (ISO)
100
AcDbVertex
100
AcDb2dVertex
 10
398.5000981116832
 20
196.8282769470229
 30
0.0
  0
VERTEX
  5
3D4
330
3C9
100
AcDbEntity
  8
Visible (ISO)
100
AcDbVertex
100
AcDb2dVertex
 10
398.5805608058508
 20
196.1684452936004
 30
0.0
  0
VERTEX
  5
3D5
330
3C9
100
AcDbEntity
  8
Visible (ISO)
100
AcDbVertex
100
AcDb2dVertex
 10
398.6610235000185
 20
195.4347056372028
 30
0.0
  0
VERTEX
  5
3D6
330
3C9
100
AcDbEntity
  8
Visible (ISO)
100
AcDbVertex
100
AcDb2dVertex
 10
398.7414861941861
 20
194.6345525897163
 30
0.0
  0
VERTEX
  5
3D7
330
3C9
100
AcDbEntity
  8
Visible (ISO)
100
AcDbVertex
100
AcDb2dVertex
 10
398.8219488883538
 20
193.7761598226411
 30
0.0
  0
VERTEX
  5
3D8
330
3C9
100
AcDbEntity
  8
Visible (ISO)
100
AcDbVertex
100
AcDb2dVertex
 10
398.9024115825215
 20
192.8682958790917
 30
0.0
  0
VERTEX
  5
3D9
330
3C9
100
AcDbEntity
  8
Visible (ISO)
100
AcDbVertex
100
AcDb2dVertex
 10
398.9828742766892
 20
191.9202343277008
 30
0.0
  0
VERTEX
  5
3DA
330
3C9
100
AcDbEntity
  8
Visible (ISO)
100
AcDbVertex
100
AcDb2dVertex
 10
399.0633369708569
 20
190.9416597788312
 30
0.0
  0
VERTEX
  5
3DB
330
3C9
100
AcDbEntity
  8
Visible (ISO)
100
AcDbVertex
100
AcDb2dVertex
 10
399.1437996650246
 20
189.9425685450401
 30
0.0
  0
VERTEX
  5
3DC
330
3C9
100
AcDbEntity
  8
Visible (ISO)
100
AcDbVertex
100
AcDb2dVertex
 10
399.2242623591925
 20
188.9331662397542
 30
0.0
  0
VERTEX
  5
3DD
330
3C9
100
AcDbEntity
  8
Visible (ISO)
100
AcDbVertex
100
AcDb2dVertex
 10
399.3047250533603
 20
187.9237638941588
 30
0.0
  0
VERTEX
  5
3DE
330
3C9
100
AcDbEntity
  8
Visible (ISO)
100
AcDbVertex
100
AcDb2dVertex
 10
399.3851877475281
 20
186.9246727018579
 30
0.0
  0
VERTEX
  5
3DF
330
3C9
100
AcDbEntity
  8
Visible (ISO)
100
AcDbVertex
100
AcDb2dVertex
 10
399.465650441696
 20
185.9460981224937
 30
0.0
  0
VERTEX
  5
3E0
330
3C9
100
AcDbEntity
  8
Visible (ISO)
100
AcDbVertex
100
AcDb2dVertex
 10
399.5461131358639
 20
184.9980367897763
 30
0.0
  0
VERTEX
  5
3E1
330
3C9
100
AcDbEntity
  8
Visible (ISO)
100
AcDbVertex
100
AcDb2dVertex
 10
399.6265758300319
 20
184.0901725337739
 30
0.0
  0
VERTEX
  5
3E2
330
3C9
100
AcDbEntity
  8
Visible (ISO)
100
AcDbVertex
100
AcDb2dVertex
 10
399.7070385241999
 20
183.231779908223
 30
0.0
  0
VERTEX
  5
3E3
330
3C9
100
AcDbEntity
  8
Visible (ISO)
100
AcDbVertex
100
AcDb2dVertex
 10
399.7875012183679
 20
182.4316270045186
 30
0.0
  0
VERTEX
  5
3E4
330
3C9
100
AcDbEntity
  8
Visible (ISO)
100
AcDbVertex
100
AcDb2dVertex
 10
399.867963912536
 20
181.6978870674621
 30
0.0
  0
VERTEX
  5
3E5
330
3C9
100
AcDbEntity
  8
Visible (ISO)
100
AcDbVertex
100
AcDb2dVertex
 10
399.9484266067041
 20
181.0380555042613
 30
0.0
  0
VERTEX
  5
3E6
330
3C9
100
AcDbEntity
  8
Visible (ISO)
100
AcDbVertex
100
AcDb2dVertex
 10
400.0288893008722
 20
180.4588731707538
 30
0.0
  0
VERTEX
  5
3E7
330
3C9
100
AcDbEntity
  8
Visible (ISO)
100
AcDbVertex
100
AcDb2dVertex
 10
400.1093519950404
 20
179.9662556332232
 30
0.0
  0
VERTEX
  5
3E8
330
3C9
100
AcDbEntity
  8
Visible (ISO)
100
AcDbVertex
100
AcDb2dVertex
 10
400.1898146892086
 20
179.565235564837
 30
0.0
  0
VERTEX
  5
3E9
330
3C9
100
AcDbEntity
  8
Visible (ISO)
100
AcDbVertex
100
AcDb2dVertex
 10
400.2702773833769
 20
179.2599087205171
 30
0.0
  0
VERTEX
  5
3EA
330
3C9
100
AcDbEntity
  8
Visible (ISO)
100
AcDbVertex
100
AcDb2dVertex
 10
400.3507400775452
 20
179.0533942453723
 30
0.0
  0
VERTEX
  5
3EB
330
3C9
100
AcDbEntity
  8
Visible (ISO)
100
AcDbVertex
100
AcDb2dVertex
 10
400.4312027717136
 20
178.947802127193
 30
0.0
  0
VERTEX
  5
3EC
330
3C9
100
AcDbEntity
  8
Visible (ISO)
100
AcDbVertex
100
AcDb2dVertex
 10
400.511665465882
 20
178.9442102057665
 30
0.0
  0
VERTEX
  5
3ED
330
3C9
100
AcDbEntity
  8
Visible (ISO)
100
AcDbVertex
100
AcDb2dVertex
 10
400.5921281600505
 20
179.0426560797027
 30
0.0
  0
SEQEND
  5
3CC
330
3C9
100
AcDbEntity
  8
Visible (ISO)
  0
LINE
  5
3EE
330
75
100
AcDbEntity
  8
Visible (ISO)
100
AcDbLine
 10
385.0762024186228
 20
179.6831662388954
 30
0.0
 11
385.4761879706885
 21
178.9331955251625
 31
0.0
  0
POLYLINE
  5
3EF
330
75
100
AcDbEntity
  8
Visible (ISO)
100
AcDb2dPolyline
 66
     1
 10
0.0
 20
0.0
 30
0.0
 70
   128
  0
VERTEX
  5
3F0
330
3EF
100
AcDbEntity
  8
Visible (ISO)
100
AcDbVertex
100
AcDb2dVertex
 10
399.9469949031376
 20
179.8012077796932
 30
0.0
  0
VERTEX
  5
3F1
330
3EF
100
AcDbEntity
  8
Visible (ISO)
100
AcDbVertex
100
AcDb2dVertex
 10
399.8591161990663
 20
180.0191742706378
 30
0.0
  0
VERTEX
  5
3F3
330
3EF
100
AcDbEntity
  8
Visible (ISO)
100
AcDbVertex
100
AcDb2dVertex
 10
399.7712374949951
 20
180.3457390774032
 30
0.0
  0
VERTEX
  5
3F4
330
3EF
100
AcDbEntity
  8
Visible (ISO)
100
AcDbVertex
100
AcDb2dVertex
 10
399.6833587909239
 20
180.7769222977568
 30
0.0
  0
VERTEX
  5
3F5
330
3EF
100
AcDbEntity
  8
Visible (ISO)
100
AcDbVertex
100
AcDb2dVertex
 10
399.5954788947598
 20
181.3074726165423
 30
0.0
  0
VERTEX
  5
3F6
330
3EF
100
AcDbEntity
  8
Visible (ISO)
100
AcDbVertex
100
AcDb2dVertex
 10
399.5076001906887
 20
181.930924786987
 30
0.0
  0
VERTEX
  5
3F7
330
3EF
100
AcDbEntity
  8
Visible (ISO)
100
AcDbVertex
100
AcDb2dVertex
 10
399.4197214866177
 20
182.6396845571127
 30
0.0
  0
VERTEX
  5
3F8
330
3EF
100
AcDbEntity
  8
Visible (ISO)
100
AcDbVertex
100
AcDb2dVertex
 10
399.3318427825467
 20
183.4251165900737
 30
0.0
  0
VERTEX
  5
3F9
330
3EF
100
AcDbEntity
  8
Visible (ISO)
100
AcDbVertex
100
AcDb2dVertex
 10
399.2439628863829
 20
184.277652685358
 30
0.0
  0
VERTEX
  5
3FA
330
3EF
100
AcDbEntity
  8
Visible (ISO)
100
AcDbVertex
100
AcDb2dVertex
 10
399.1560841823119
 20
185.1869059784659
 30
0.0
  0
VERTEX
  5
3FB
330
3EF
100
AcDbEntity
  8
Visible (ISO)
100
AcDbVertex
100
AcDb2dVertex
 10
399.0682054782411
 20
186.1417994947087
 30
0.0
  0
VERTEX
  5
3FC
330
3EF
100
AcDbEntity
  8
Visible (ISO)
100
AcDbVertex
100
AcDb2dVertex
 10
398.9803267741702
 20
187.1306994901176
 30
0.0
  0
VERTEX
  5
3FD
330
3EF
100
AcDbEntity
  8
Visible (ISO)
100
AcDbVertex
100
AcDb2dVertex
 10
398.8924468780066
 20
188.1415588237048
 30
0.0
  0
VERTEX
  5
3FE
330
3EF
100
AcDbEntity
  8
Visible (ISO)
100
AcDbVertex
100
AcDb2dVertex
 10
398.8045681739358
 20
189.1620622269857
 30
0.0
  0
VERTEX
  5
3FF
330
3EF
100
AcDbEntity
  8
Visible (ISO)
100
AcDbVertex
100
AcDb2dVertex
 10
398.7166894698651
 20
190.1797769768515
 30
0.0
  0
VERTEX
  5
400
330
3EF
100
AcDbEntity
  8
Visible (ISO)
100
AcDbVertex
100
AcDb2dVertex
 10
398.6288107657944
 20
191.1823044298371
 30
0.0
  0
VERTEX
  5
401
330
3EF
100
AcDbEntity
  8
Visible (ISO)
100
AcDbVertex
100
AcDb2dVertex
 10
398.5409308696308
 20
192.1574311526314
 30
0.0
  0
VERTEX
  5
402
330
3EF
100
AcDbEntity
  8
Visible (ISO)
100
AcDbVertex
100
AcDb2dVertex
 10
398.4530521655602
 20
193.0932770310368
 30
0.0
  0
VERTEX
  5
403
330
3EF
100
AcDbEntity
  8
Visible (ISO)
100
AcDbVertex
100
AcDb2dVertex
 10
398.3651734614895
 20
193.9784407414462
 30
0.0
  0
VERTEX
  5
404
330
3EF
100
AcDbEntity
  8
Visible (ISO)
100
AcDbVertex
100
AcDb2dVertex
 10
398.277293565326
 20
194.8021390773049
 30
0.0
  0
VERTEX
  5
405
330
3EF
100
AcDbEntity
  8
Visible (ISO)
100
AcDbVertex
100
AcDb2dVertex
 10
398.1894148612554
 20
195.5543364682429
 30
0.0
  0
VERTEX
  5
406
330
3EF
100
AcDbEntity
  8
Visible (ISO)
100
AcDbVertex
100
AcDb2dVertex
 10
398.1015361571848
 20
196.2258691795236
 30
0.0
  0
VERTEX
  5
407
330
3EF
100
AcDbEntity
  8
Visible (ISO)
100
AcDbVertex
100
AcDb2dVertex
 10
398.0136574531142
 20
196.8085558291508
 30
0.0
  0
VERTEX
  5
408
330
3EF
100
AcDbEntity
  8
Visible (ISO)
100
AcDbVertex
100
AcDb2dVertex
 10
397.9257775569506
 20
197.2952977974616
 30
0.0
  0
VERTEX
  5
409
330
3EF
100
AcDbEntity
  8
Visible (ISO)
100
AcDbVertex
100
AcDb2dVertex
 10
397.83789885288
 20
197.6801659579822
 30
0.0
  0
VERTEX
  5
40A
330
3EF
100
AcDbEntity
  8
Visible (ISO)
100
AcDbVertex
100
AcDb2dVertex
 10
397.7500201488093
 20
197.9584701388573
 30
0.0
  0
VERTEX
  5
40B
330
3EF
100
AcDbEntity
  8
Visible (ISO)
100
AcDbVertex
100
AcDb2dVertex
 10
397.6621414447386
 20
198.1268208569744
 30
0.0
  0
VERTEX
  5
40C
330
3EF
100
AcDbEntity
  8
Visible (ISO)
100
AcDbVertex
100
AcDb2dVertex
 10
397.574261548575
 20
198.1831660297634
 30
0.0
  0
SEQEND
  5
3F2
330
3EF
100
AcDbEntity
  8
Visible (ISO)
  0
POLYLINE
  5
40D
330
75
100
AcDbEntity
  8
Visible (ISO)
100
AcDb2dPolyline
 66
     1
 10
0.0
 20
0.0
 30
0.0
 70
   128
  0
VERTEX
  5
40E
330
40D
100
AcDbEntity
  8
Visible (ISO)
100
AcDbVertex
100
AcDb2dVertex
 10
394.9469954991841
 20
179.8012077796946
 30
0.0
  0
VERTEX
  5
40F
330
40D
100
AcDbEntity
  8
Visible (ISO)
100
AcDbVertex
100
AcDb2dVertex
 10
394.8591161990663
 20
180.0191742706393
 30
0.0
  0
VERTEX
  5
411
330
40D
100
AcDbEntity
  8
Visible (ISO)
100
AcDbVertex
100
AcDb2dVertex
 10
394.7712374949952
 20
180.3457390774047
 30
0.0
  0
VERTEX
  5
412
330
40D
100
AcDbEntity
  8
Visible (ISO)
100
AcDbVertex
100
AcDb2dVertex
 10
394.6833581948775
 20
180.7769222977583
 30
0.0
  0
VERTEX
  5
413
330
40D
100
AcDbEntity
  8
Visible (ISO)
100
AcDbVertex
100
AcDb2dVertex
 10
394.5954794908063
 20
181.3074726165438
 30
0.0
  0
VERTEX
  5
414
330
40D
100
AcDbEntity
  8
Visible (ISO)
100
AcDbVertex
100
AcDb2dVertex
 10
394.5076001906887
 20
181.9309247869885
 30
0.0
  0
VERTEX
  5
415
330
40D
100
AcDbEntity
  8
Visible (ISO)
100
AcDbVertex
100
AcDb2dVertex
 10
394.4197214866177
 20
182.6396845571142
 30
0.0
  0
VERTEX
  5
416
330
40D
100
AcDbEntity
  8
Visible (ISO)
100
AcDbVertex
100
AcDb2dVertex
 10
394.3318421865003
 20
183.4251165900752
 30
0.0
  0
VERTEX
  5
417
330
40D
100
AcDbEntity
  8
Visible (ISO)
100
AcDbVertex
100
AcDb2dVertex
 10
394.2439634824293
 20
184.2776526853595
 30
0.0
  0
VERTEX
  5
418
330
40D
100
AcDbEntity
  8
Visible (ISO)
100
AcDbVertex
100
AcDb2dVertex
 10
394.1560841823119
 20
185.1869059784674
 30
0.0
  0
VERTEX
  5
419
330
40D
100
AcDbEntity
  8
Visible (ISO)
100
AcDbVertex
100
AcDb2dVertex
 10
394.0682054782411
 20
186.1417994947102
 30
0.0
  0
VERTEX
  5
41A
330
40D
100
AcDbEntity
  8
Visible (ISO)
100
AcDbVertex
100
AcDb2dVertex
 10
393.9803261781237
 20
187.1306994901191
 30
0.0
  0
VERTEX
  5
41B
330
40D
100
AcDbEntity
  8
Visible (ISO)
100
AcDbVertex
100
AcDb2dVertex
 10
393.8924474740531
 20
188.1415588237063
 30
0.0
  0
VERTEX
  5
41C
330
40D
100
AcDbEntity
  8
Visible (ISO)
100
AcDbVertex
100
AcDb2dVertex
 10
393.8045681739358
 20
189.1620622269871
 30
0.0
  0
VERTEX
  5
41D
330
40D
100
AcDbEntity
  8
Visible (ISO)
100
AcDbVertex
100
AcDb2dVertex
 10
393.7166894698651
 20
190.179776976853
 30
0.0
  0
VERTEX
  5
41E
330
40D
100
AcDbEntity
  8
Visible (ISO)
100
AcDbVertex
100
AcDb2dVertex
 10
393.628810169748
 20
191.1823044298386
 30
0.0
  0
VERTEX
  5
41F
330
40D
100
AcDbEntity
  8
Visible (ISO)
100
AcDbVertex
100
AcDb2dVertex
 10
393.5409308696308
 20
192.1574311526329
 30
0.0
  0
VERTEX
  5
420
330
40D
100
AcDbEntity
  8
Visible (ISO)
100
AcDbVertex
100
AcDb2dVertex
 10
393.4530521655602
 20
193.0932770310383
 30
0.0
  0
VERTEX
  5
421
330
40D
100
AcDbEntity
  8
Visible (ISO)
100
AcDbVertex
100
AcDb2dVertex
 10
393.3651728654431
 20
193.9784407414477
 30
0.0
  0
VERTEX
  5
422
330
40D
100
AcDbEntity
  8
Visible (ISO)
100
AcDbVertex
100
AcDb2dVertex
 10
393.2772941613724
 20
194.8021390773064
 30
0.0
  0
VERTEX
  5
423
330
40D
100
AcDbEntity
  8
Visible (ISO)
100
AcDbVertex
100
AcDb2dVertex
 10
393.1894148612554
 20
195.5543364682444
 30
0.0
  0
VERTEX
  5
424
330
40D
100
AcDbEntity
  8
Visible (ISO)
100
AcDbVertex
100
AcDb2dVertex
 10
393.1015361571848
 20
196.225869179525
 30
0.0
  0
VERTEX
  5
425
330
40D
100
AcDbEntity
  8
Visible (ISO)
100
AcDbVertex
100
AcDb2dVertex
 10
393.0136568570677
 20
196.8085558291523
 30
0.0
  0
VERTEX
  5
426
330
40D
100
AcDbEntity
  8
Visible (ISO)
100
AcDbVertex
100
AcDb2dVertex
 10
392.9257781529971
 20
197.2952977974631
 30
0.0
  0
VERTEX
  5
427
330
40D
100
AcDbEntity
  8
Visible (ISO)
100
AcDbVertex
100
AcDb2dVertex
 10
392.83789885288
 20
197.6801659579837
 30
0.0
  0
VERTEX
  5
428
330
40D
100
AcDbEntity
  8
Visible (ISO)
100
AcDbVertex
100
AcDb2dVertex
 10
392.7500201488093
 20
197.9584701388588
 30
0.0
  0
VERTEX
  5
429
330
40D
100
AcDbEntity
  8
Visible (ISO)
100
AcDbVertex
100
AcDb2dVertex
 10
392.6621408486921
 20
198.126820856976
 30
0.0
  0
VERTEX
  5
42A
330
40D
100
AcDbEntity
  8
Visible (ISO)
100
AcDbVertex
100
AcDb2dVertex
 10
392.5742621446214
 20
198.1831660297649
 30
0.0
  0
SEQEND
  5
410
330
40D
100
AcDbEntity
  8
Visible (ISO)
  0
POLYLINE
  5
42B
330
75
100
AcDbEntity
  8
Visible (ISO)
100
AcDb2dPolyline
 66
     1
 10
0.0
 20
0.0
 30
0.0
 70
   128
  0
VERTEX
  5
42C
330
42B
100
AcDbEntity
  8
Visible (ISO)
100
AcDbVertex
100
AcDb2dVertex
 10
389.9469952011608
 20
179.8012077796961
 30
0.0
  0
VERTEX
  5
42D
330
42B
100
AcDbEntity
  8
Visible (ISO)
100
AcDbVertex
100
AcDb2dVertex
 10
389.8591161990663
 20
180.0191742706408
 30
0.0
  0
VERTEX
  5
42F
330
42B
100
AcDbEntity
  8
Visible (ISO)
100
AcDbVertex
100
AcDb2dVertex
 10
389.7712371969719
 20
180.3457390774062
 30
0.0
  0
VERTEX
  5
430
330
42B
100
AcDbEntity
  8
Visible (ISO)
100
AcDbVertex
100
AcDb2dVertex
 10
389.6833581948775
 20
180.7769222977597
 30
0.0
  0
VERTEX
  5
431
330
42B
100
AcDbEntity
  8
Visible (ISO)
100
AcDbVertex
100
AcDb2dVertex
 10
389.5954791927831
 20
181.3074726165453
 30
0.0
  0
VERTEX
  5
432
330
42B
100
AcDbEntity
  8
Visible (ISO)
100
AcDbVertex
100
AcDb2dVertex
 10
389.5076001906887
 20
181.93092478699
 30
0.0
  0
VERTEX
  5
433
330
42B
100
AcDbEntity
  8
Visible (ISO)
100
AcDbVertex
100
AcDb2dVertex
 10
389.4197211885945
 20
182.6396845571156
 30
0.0
  0
VERTEX
  5
434
330
42B
100
AcDbEntity
  8
Visible (ISO)
100
AcDbVertex
100
AcDb2dVertex
 10
389.3318421865002
 20
183.4251165900767
 30
0.0
  0
VERTEX
  5
435
330
42B
100
AcDbEntity
  8
Visible (ISO)
100
AcDbVertex
100
AcDb2dVertex
 10
389.2439631844061
 20
184.277652685361
 30
0.0
  0
VERTEX
  5
436
330
42B
100
AcDbEntity
  8
Visible (ISO)
100
AcDbVertex
100
AcDb2dVertex
 10
389.1560841823119
 20
185.1869059784688
 30
0.0
  0
VERTEX
  5
437
330
42B
100
AcDbEntity
  8
Visible (ISO)
100
AcDbVertex
100
AcDb2dVertex
 10
389.0682051802178
 20
186.1417994947117
 30
0.0
  0
VERTEX
  5
438
330
42B
100
AcDbEntity
  8
Visible (ISO)
100
AcDbVertex
100
AcDb2dVertex
 10
388.9803261781239
 20
187.1306994901206
 30
0.0
  0
VERTEX
  5
439
330
42B
100
AcDbEntity
  8
Visible (ISO)
100
AcDbVertex
100
AcDb2dVertex
 10
388.8924471760298
 20
188.1415588237078
 30
0.0
  0
VERTEX
  5
43A
330
42B
100
AcDbEntity
  8
Visible (ISO)
100
AcDbVertex
100
AcDb2dVertex
 10
388.8045681739358
 20
189.1620622269886
 30
0.0
  0
VERTEX
  5
43B
330
42B
100
AcDbEntity
  8
Visible (ISO)
100
AcDbVertex
100
AcDb2dVertex
 10
388.7166891718419
 20
190.1797769768544
 30
0.0
  0
VERTEX
  5
43C
330
42B
100
AcDbEntity
  8
Visible (ISO)
100
AcDbVertex
100
AcDb2dVertex
 10
388.628810169748
 20
191.1823044298401
 30
0.0
  0
VERTEX
  5
43D
330
42B
100
AcDbEntity
  8
Visible (ISO)
100
AcDbVertex
100
AcDb2dVertex
 10
388.540931167654
 20
192.1574311526344
 30
0.0
  0
VERTEX
  5
43E
330
42B
100
AcDbEntity
  8
Visible (ISO)
100
AcDbVertex
100
AcDb2dVertex
 10
388.4530521655602
 20
193.0932770310398
 30
0.0
  0
VERTEX
  5
43F
330
42B
100
AcDbEntity
  8
Visible (ISO)
100
AcDbVertex
100
AcDb2dVertex
 10
388.3651731634664
 20
193.9784407414492
 30
0.0
  0
VERTEX
  5
440
330
42B
100
AcDbEntity
  8
Visible (ISO)
100
AcDbVertex
100
AcDb2dVertex
 10
388.2772941613725
 20
194.8021390773078
 30
0.0
  0
VERTEX
  5
441
330
42B
100
AcDbEntity
  8
Visible (ISO)
100
AcDbVertex
100
AcDb2dVertex
 10
388.1894151592787
 20
195.5543364682459
 30
0.0
  0
VERTEX
  5
442
330
42B
100
AcDbEntity
  8
Visible (ISO)
100
AcDbVertex
100
AcDb2dVertex
 10
388.1015361571849
 20
196.2258691795265
 30
0.0
  0
VERTEX
  5
443
330
42B
100
AcDbEntity
  8
Visible (ISO)
100
AcDbVertex
100
AcDb2dVertex
 10
388.013657155091
 20
196.8085558291538
 30
0.0
  0
VERTEX
  5
444
330
42B
100
AcDbEntity
  8
Visible (ISO)
100
AcDbVertex
100
AcDb2dVertex
 10
387.925778152997
 20
197.2952977974646
 30
0.0
  0
VERTEX
  5
445
330
42B
100
AcDbEntity
  8
Visible (ISO)
100
AcDbVertex
100
AcDb2dVertex
 10
387.8378991509032
 20
197.6801659579852
 30
0.0
  0
VERTEX
  5
446
330
42B
100
AcDbEntity
  8
Visible (ISO)
100
AcDbVertex
100
AcDb2dVertex
 10
387.7500201488093
 20
197.9584701388603
 30
0.0
  0
VERTEX
  5
447
330
42B
100
AcDbEntity
  8
Visible (ISO)
100
AcDbVertex
100
AcDb2dVertex
 10
387.6621411467154
 20
198.1268208569774
 30
0.0
  0
VERTEX
  5
448
330
42B
100
AcDbEntity
  8
Visible (ISO)
100
AcDbVertex
100
AcDb2dVertex
 10
387.5742619956099
 20
198.1831660297663
 30
0.0
  0
SEQEND
  5
42E
330
42B
100
AcDbEntity
  8
Visible (ISO)
  0
POLYLINE
  5
449
330
75
100
AcDbEntity
  8
Visible (ISO)
100
AcDb2dPolyline
 66
     1
 10
0.0
 20
0.0
 30
0.0
 70
   128
  0
VERTEX
  5
44A
330
449
100
AcDbEntity
  8
Visible (ISO)
100
AcDbVertex
100
AcDb2dVertex
 10
388.5015289211827
 20
198.0651245931162
 30
0.0
  0
VERTEX
  5
44B
330
449
100
AcDbEntity
  8
Visible (ISO)
100
AcDbVertex
100
AcDb2dVertex
 10
388.5894079232767
 20
197.8471581245051
 30
0.0
  0
VERTEX
  5
44D
330
449
100
AcDbEntity
  8
Visible (ISO)
100
AcDbVertex
100
AcDb2dVertex
 10
388.6772869253705
 20
197.5205935869215
 30
0.0
  0
VERTEX
  5
44E
330
449
100
AcDbEntity
  8
Visible (ISO)
100
AcDbVertex
100
AcDb2dVertex
 10
388.7651659274644
 20
197.0894101088409
 30
0.0
  0
VERTEX
  5
44F
330
449
100
AcDbEntity
  8
Visible (ISO)
100
AcDbVertex
100
AcDb2dVertex
 10
388.8530449295582
 20
196.5588599357958
 30
0.0
  0
VERTEX
  5
450
330
449
100
AcDbEntity
  8
Visible (ISO)
100
AcDbVertex
100
AcDb2dVertex
 10
388.9409239316521
 20
195.9354072998684
 30
0.0
  0
VERTEX
  5
451
330
449
100
AcDbEntity
  8
Visible (ISO)
100
AcDbVertex
100
AcDb2dVertex
 10
389.028802933746
 20
195.2266476417074
 30
0.0
  0
VERTEX
  5
452
330
449
100
AcDbEntity
  8
Visible (ISO)
100
AcDbVertex
100
AcDb2dVertex
 10
389.1166819358398
 20
194.4412155232024
 30
0.0
  0
VERTEX
  5
453
330
449
100
AcDbEntity
  8
Visible (ISO)
100
AcDbVertex
100
AcDb2dVertex
 10
389.2045609379336
 20
193.5886797641465
 30
0.0
  0
VERTEX
  5
454
330
449
100
AcDbEntity
  8
Visible (ISO)
100
AcDbVertex
100
AcDb2dVertex
 10
389.2924399400275
 20
192.6794263794556
 30
0.0
  0
VERTEX
  5
455
330
449
100
AcDbEntity
  8
Visible (ISO)
100
AcDbVertex
100
AcDb2dVertex
 10
389.3803189421214
 20
191.7245332034985
 30
0.0
  0
VERTEX
  5
456
330
449
100
AcDbEntity
  8
Visible (ISO)
100
AcDbVertex
100
AcDb2dVertex
 10
389.4681979442152
 20
190.7356329391585
 30
0.0
  0
VERTEX
  5
457
330
449
100
AcDbEntity
  8
Visible (ISO)
100
AcDbVertex
100
AcDb2dVertex
 10
389.5560769463092
 20
189.7247736165106
 30
0.0
  0
VERTEX
  5
458
330
449
100
AcDbEntity
  8
Visible (ISO)
100
AcDbVertex
100
AcDb2dVertex
 10
389.6439559484031
 20
188.7042702616607
 30
0.0
  0
VERTEX
  5
459
330
449
100
AcDbEntity
  8
Visible (ISO)
100
AcDbVertex
100
AcDb2dVertex
 10
389.7318349504971
 20
187.6865555141049
 30
0.0
  0
VERTEX
  5
45A
330
449
100
AcDbEntity
  8
Visible (ISO)
100
AcDbVertex
100
AcDb2dVertex
 10
389.8197139525911
 20
186.6840279561805
 30
0.0
  0
VERTEX
  5
45B
330
449
100
AcDbEntity
  8
Visible (ISO)
100
AcDbVertex
100
AcDb2dVertex
 10
389.9075929546853
 20
185.708901382745
 30
0.0
  0
VERTEX
  5
45C
330
449
100
AcDbEntity
  8
Visible (ISO)
100
AcDbVertex
100
AcDb2dVertex
 10
389.9954719567793
 20
184.7730554995701
 30
0.0
  0
VERTEX
  5
45D
330
449
100
AcDbEntity
  8
Visible (ISO)
100
AcDbVertex
100
AcDb2dVertex
 10
390.0833512568967
 20
183.8878914047729
 30
0.0
  0
VERTEX
  5
45E
330
449
100
AcDbEntity
  8
Visible (ISO)
100
AcDbVertex
100
AcDb2dVertex
 10
390.1712299609677
 20
183.0641935953821
 30
0.0
  0
VERTEX
  5
45F
330
449
100
AcDbEntity
  8
Visible (ISO)
100
AcDbVertex
100
AcDb2dVertex
 10
390.2591092610851
 20
182.3119963413893
 30
0.0
  0
VERTEX
  5
460
330
449
100
AcDbEntity
  8
Visible (ISO)
100
AcDbVertex
100
AcDb2dVertex
 10
390.3469879651563
 20
181.640463195865
 30
0.0
  0
VERTEX
  5
461
330
449
100
AcDbEntity
  8
Visible (ISO)
100
AcDbVertex
100
AcDb2dVertex
 10
390.4348672652739
 20
181.0577766825523
 30
0.0
  0
VERTEX
  5
462
330
449
100
AcDbEntity
  8
Visible (ISO)
100
AcDbVertex
100
AcDb2dVertex
 10
390.5227459693449
 20
180.5710342642902
 30
0.0
  0
VERTEX
  5
463
330
449
100
AcDbEntity
  8
Visible (ISO)
100
AcDbVertex
100
AcDb2dVertex
 10
390.6106252694627
 20
180.1861669806091
 30
0.0
  0
VERTEX
  5
464
330
449
100
AcDbEntity
  8
Visible (ISO)
100
AcDbVertex
100
AcDb2dVertex
 10
390.6985039735339
 20
179.907862284687
 30
0.0
  0
VERTEX
  5
465
330
449
100
AcDbEntity
  8
Visible (ISO)
100
AcDbVertex
100
AcDb2dVertex
 10
390.7863832736516
 20
179.7395119347398
 30
0.0
  0
VERTEX
  5
466
330
449
100
AcDbEntity
  8
Visible (ISO)
100
AcDbVertex
100
AcDb2dVertex
 10
390.8742619777229
 20
179.6831664480219
 30
0.0
  0
SEQEND
  5
44C
330
449
100
AcDbEntity
  8
Visible (ISO)
  0
POLYLINE
  5
467
330
75
100
AcDbEntity
  8
Visible (ISO)
100
AcDb2dPolyline
 66
     1
 10
0.0
 20
0.0
 30
0.0
 70
   128
  0
VERTEX
  5
468
330
467
100
AcDbEntity
  8
Visible (ISO)
100
AcDbVertex
100
AcDb2dVertex
 10
393.5015286231595
 20
198.0651245931147
 30
0.0
  0
VERTEX
  5
469
330
467
100
AcDbEntity
  8
Visible (ISO)
100
AcDbVertex
100
AcDb2dVertex
 10
393.5894079232767
 20
197.8471581245037
 30
0.0
  0
VERTEX
  5
46B
330
467
100
AcDbEntity
  8
Visible (ISO)
100
AcDbVertex
100
AcDb2dVertex
 10
393.6772866273472
 20
197.5205935869199
 30
0.0
  0
VERTEX
  5
46C
330
467
100
AcDbEntity
  8
Visible (ISO)
100
AcDbVertex
100
AcDb2dVertex
 10
393.7651659274644
 20
197.0894101088394
 30
0.0
  0
VERTEX
  5
46D
330
467
100
AcDbEntity
  8
Visible (ISO)
100
AcDbVertex
100
AcDb2dVertex
 10
393.853044631535
 20
196.5588599357943
 30
0.0
  0
VERTEX
  5
46E
330
467
100
AcDbEntity
  8
Visible (ISO)
100
AcDbVertex
100
AcDb2dVertex
 10
393.9409239316521
 20
195.9354072998669
 30
0.0
  0
VERTEX
  5
46F
330
467
100
AcDbEntity
  8
Visible (ISO)
100
AcDbVertex
100
AcDb2dVertex
 10
394.0288026357227
 20
195.2266476417058
 30
0.0
  0
VERTEX
  5
470
330
467
100
AcDbEntity
  8
Visible (ISO)
100
AcDbVertex
100
AcDb2dVertex
 10
394.1166819358398
 20
194.4412155232009
 30
0.0
  0
VERTEX
  5
471
330
467
100
AcDbEntity
  8
Visible (ISO)
100
AcDbVertex
100
AcDb2dVertex
 10
394.2045606399103
 20
193.588679764145
 30
0.0
  0
VERTEX
  5
472
330
467
100
AcDbEntity
  8
Visible (ISO)
100
AcDbVertex
100
AcDb2dVertex
 10
394.2924399400275
 20
192.6794263794542
 30
0.0
  0
VERTEX
  5
473
330
467
100
AcDbEntity
  8
Visible (ISO)
100
AcDbVertex
100
AcDb2dVertex
 10
394.3803186440982
 20
191.724533203497
 30
0.0
  0
VERTEX
  5
474
330
467
100
AcDbEntity
  8
Visible (ISO)
100
AcDbVertex
100
AcDb2dVertex
 10
394.4681979442152
 20
190.735632939157
 30
0.0
  0
VERTEX
  5
475
330
467
100
AcDbEntity
  8
Visible (ISO)
100
AcDbVertex
100
AcDb2dVertex
 10
394.556076648286
 20
189.7247736165091
 30
0.0
  0
VERTEX
  5
476
330
467
100
AcDbEntity
  8
Visible (ISO)
100
AcDbVertex
100
AcDb2dVertex
 10
394.6439559484031
 20
188.7042702616592
 30
0.0
  0
VERTEX
  5
477
330
467
100
AcDbEntity
  8
Visible (ISO)
100
AcDbVertex
100
AcDb2dVertex
 10
394.7318346524739
 20
187.6865555141034
 30
0.0
  0
VERTEX
  5
478
330
467
100
AcDbEntity
  8
Visible (ISO)
100
AcDbVertex
100
AcDb2dVertex
 10
394.8197139525912
 20
186.6840279561791
 30
0.0
  0
VERTEX
  5
479
330
467
100
AcDbEntity
  8
Visible (ISO)
100
AcDbVertex
100
AcDb2dVertex
 10
394.907592656662
 20
185.7089013827435
 30
0.0
  0
VERTEX
  5
47A
330
467
100
AcDbEntity
  8
Visible (ISO)
100
AcDbVertex
100
AcDb2dVertex
 10
394.9954719567793
 20
184.7730554995686
 30
0.0
  0
VERTEX
  5
47B
330
467
100
AcDbEntity
  8
Visible (ISO)
100
AcDbVertex
100
AcDb2dVertex
 10
395.0833512568967
 20
183.8878914047714
 30
0.0
  0
VERTEX
  5
47C
330
467
100
AcDbEntity
  8
Visible (ISO)
100
AcDbVertex
100
AcDb2dVertex
 10
395.1712299609677
 20
183.0641935953806
 30
0.0
  0
VERTEX
  5
47D
330
467
100
AcDbEntity
  8
Visible (ISO)
100
AcDbVertex
100
AcDb2dVertex
 10
395.2591086650387
 20
182.3119963413879
 30
0.0
  0
VERTEX
  5
47E
330
467
100
AcDbEntity
  8
Visible (ISO)
100
AcDbVertex
100
AcDb2dVertex
 10
395.3469885612027
 20
181.6404631958635
 30
0.0
  0
VERTEX
  5
47F
330
467
100
AcDbEntity
  8
Visible (ISO)
100
AcDbVertex
100
AcDb2dVertex
 10
395.4348672652739
 20
181.0577766825509
 30
0.0
  0
VERTEX
  5
480
330
467
100
AcDbEntity
  8
Visible (ISO)
100
AcDbVertex
100
AcDb2dVertex
 10
395.522745969345
 20
180.5710342642887
 30
0.0
  0
VERTEX
  5
481
330
467
100
AcDbEntity
  8
Visible (ISO)
100
AcDbVertex
100
AcDb2dVertex
 10
395.6106246734163
 20
180.1861669806076
 30
0.0
  0
VERTEX
  5
482
330
467
100
AcDbEntity
  8
Visible (ISO)
100
AcDbVertex
100
AcDb2dVertex
 10
395.6985045695804
 20
179.9078622846855
 30
0.0
  0
VERTEX
  5
483
330
467
100
AcDbEntity
  8
Visible (ISO)
100
AcDbVertex
100
AcDb2dVertex
 10
395.7863832736516
 20
179.7395119347384
 30
0.0
  0
VERTEX
  5
484
330
467
100
AcDbEntity
  8
Visible (ISO)
100
AcDbVertex
100
AcDb2dVertex
 10
395.8742619777229
 20
179.6831664480204
 30
0.0
  0
SEQEND
  5
46A
330
467
100
AcDbEntity
  8
Visible (ISO)
  0
POLYLINE
  5
485
330
75
100
AcDbEntity
  8
Visible (ISO)
100
AcDb2dPolyline
 66
     1
 10
0.0
 20
0.0
 30
0.0
 70
   128
  0
VERTEX
  5
486
330
485
100
AcDbEntity
  8
Visible (ISO)
100
AcDbVertex
100
AcDb2dVertex
 10
398.5015286231595
 20
198.0651245931132
 30
0.0
  0
VERTEX
  5
487
330
485
100
AcDbEntity
  8
Visible (ISO)
100
AcDbVertex
100
AcDb2dVertex
 10
398.5894073272302
 20
197.8471581245022
 30
0.0
  0
VERTEX
  5
489
330
485
100
AcDbEntity
  8
Visible (ISO)
100
AcDbVertex
100
AcDb2dVertex
 10
398.6772872233937
 20
197.5205935869185
 30
0.0
  0
VERTEX
  5
48A
330
485
100
AcDbEntity
  8
Visible (ISO)
100
AcDbVertex
100
AcDb2dVertex
 10
398.7651659274644
 20
197.0894101088379
 30
0.0
  0
VERTEX
  5
48B
330
485
100
AcDbEntity
  8
Visible (ISO)
100
AcDbVertex
100
AcDb2dVertex
 10
398.853044631535
 20
196.5588599357928
 30
0.0
  0
VERTEX
  5
48C
330
485
100
AcDbEntity
  8
Visible (ISO)
100
AcDbVertex
100
AcDb2dVertex
 10
398.9409233356056
 20
195.9354072998655
 30
0.0
  0
VERTEX
  5
48D
330
485
100
AcDbEntity
  8
Visible (ISO)
100
AcDbVertex
100
AcDb2dVertex
 10
399.0288032317692
 20
195.2266476417044
 30
0.0
  0
VERTEX
  5
48E
330
485
100
AcDbEntity
  8
Visible (ISO)
100
AcDbVertex
100
AcDb2dVertex
 10
399.1166819358398
 20
194.4412155231994
 30
0.0
  0
VERTEX
  5
48F
330
485
100
AcDbEntity
  8
Visible (ISO)
100
AcDbVertex
100
AcDb2dVertex
 10
399.2045606399104
 20
193.5886797641436
 30
0.0
  0
VERTEX
  5
490
330
485
100
AcDbEntity
  8
Visible (ISO)
100
AcDbVertex
100
AcDb2dVertex
 10
399.292439343981
 20
192.6794263794526
 30
0.0
  0
VERTEX
  5
491
330
485
100
AcDbEntity
  8
Visible (ISO)
100
AcDbVertex
100
AcDb2dVertex
 10
399.3803192401446
 20
191.7245332034955
 30
0.0
  0
VERTEX
  5
492
330
485
100
AcDbEntity
  8
Visible (ISO)
100
AcDbVertex
100
AcDb2dVertex
 10
399.4681979442152
 20
190.7356329391556
 30
0.0
  0
VERTEX
  5
493
330
485
100
AcDbEntity
  8
Visible (ISO)
100
AcDbVertex
100
AcDb2dVertex
 10
399.5560766482859
 20
189.7247736165076
 30
0.0
  0
VERTEX
  5
494
330
485
100
AcDbEntity
  8
Visible (ISO)
100
AcDbVertex
100
AcDb2dVertex
 10
399.6439553523567
 20
188.7042702616577
 30
0.0
  0
VERTEX
  5
495
330
485
100
AcDbEntity
  8
Visible (ISO)
100
AcDbVertex
100
AcDb2dVertex
 10
399.7318352485203
 20
187.6865555141019
 30
0.0
  0
VERTEX
  5
496
330
485
100
AcDbEntity
  8
Visible (ISO)
100
AcDbVertex
100
AcDb2dVertex
 10
399.8197139525911
 20
186.6840279561776
 30
0.0
  0
VERTEX
  5
497
330
485
100
AcDbEntity
  8
Visible (ISO)
100
AcDbVertex
100
AcDb2dVertex
 10
399.907592656662
 20
185.708901382742
 30
0.0
  0
VERTEX
  5
498
330
485
100
AcDbEntity
  8
Visible (ISO)
100
AcDbVertex
100
AcDb2dVertex
 10
399.9954725528258
 20
184.7730554995671
 30
0.0
  0
VERTEX
  5
499
330
485
100
AcDbEntity
  8
Visible (ISO)
100
AcDbVertex
100
AcDb2dVertex
 10
400.0833512568966
 20
183.8878914047699
 30
0.0
  0
VERTEX
  5
49A
330
485
100
AcDbEntity
  8
Visible (ISO)
100
AcDbVertex
100
AcDb2dVertex
 10
400.1712299609677
 20
183.0641935953791
 30
0.0
  0
VERTEX
  5
49B
330
485
100
AcDbEntity
  8
Visible (ISO)
100
AcDbVertex
100
AcDb2dVertex
 10
400.2591086650387
 20
182.3119963413864
 30
0.0
  0
VERTEX
  5
49C
330
485
100
AcDbEntity
  8
Visible (ISO)
100
AcDbVertex
100
AcDb2dVertex
 10
400.3469885612026
 20
181.640463195862
 30
0.0
  0
VERTEX
  5
49D
330
485
100
AcDbEntity
  8
Visible (ISO)
100
AcDbVertex
100
AcDb2dVertex
 10
400.4348672652738
 20
181.0577766825494
 30
0.0
  0
VERTEX
  5
49E
330
485
100
AcDbEntity
  8
Visible (ISO)
100
AcDbVertex
100
AcDb2dVertex
 10
400.5227459693449
 20
180.5710342642873
 30
0.0
  0
VERTEX
  5
49F
330
485
100
AcDbEntity
  8
Visible (ISO)
100
AcDbVertex
100
AcDb2dVertex
 10
400.6106246734161
 20
180.1861669806061
 30
0.0
  0
VERTEX
  5
4A0
330
485
100
AcDbEntity
  8
Visible (ISO)
100
AcDbVertex
100
AcDb2dVertex
 10
400.6985045695803
 20
179.9078622846841
 30
0.0
  0
VERTEX
  5
4A1
330
485
100
AcDbEntity
  8
Visible (ISO)
100
AcDbVertex
100
AcDb2dVertex
 10
400.7863832736516
 20
179.7395119347368
 30
0.0
  0
VERTEX
  5
4A2
330
485
100
AcDbEntity
  8
Visible (ISO)
100
AcDbVertex
100
AcDb2dVertex
 10
400.8742619777229
 20
179.6831664480189
 30
0.0
  0
SEQEND
  5
488
330
485
100
AcDbEntity
  8
Visible (ISO)
  0
LINE
  5
4A3
330
75
100
AcDbEntity
  8
Visible (ISO)
100
AcDbLine
 10
385.4761879706885
 20
178.9331955251625
 30
0.0
 11
385.8761735227546
 21
179.6831662388952
 31
0.0
  0
LINE
  5
4A4
330
75
100
AcDbEntity
  8
Visible (ISO)
100
AcDbLine
 10
390.356395962288
 20
179.0426559995802
 30
0.0
 11
389.9469952011608
 21
179.8012077796961
 31
0.0
  0
LINE
  5
4A5
330
75
100
AcDbEntity
  8
Visible (ISO)
100
AcDbLine
 10
395.3563953662416
 20
179.0426559995787
 30
0.0
 11
394.9469954991841
 21
179.8012077796946
 31
0.0
  0
LINE
  5
4A6
330
75
100
AcDbEntity
  8
Visible (ISO)
100
AcDbLine
 10
400.3563953662416
 20
179.0426559995772
 30
0.0
 11
399.9469949031376
 21
179.8012077796932
 31
0.0
  0
LINE
  5
4A7
330
75
100
AcDbEntity
  8
Visible (ISO)
100
AcDbLine
 10
397.510755183753
 20
198.1831660091983
 30
0.0
 11
397.8563953662484
 21
198.8236764782051
 31
0.0
  0
LINE
  5
4A8
330
75
100
AcDbEntity
  8
Visible (ISO)
100
AcDbLine
 10
392.5107545877066
 20
198.1831660091998
 30
0.0
 11
392.8563959622948
 21
198.8236764782066
 31
0.0
  0
LINE
  5
4A9
330
75
100
AcDbEntity
  8
Visible (ISO)
100
AcDbLine
 10
387.5107545877066
 20
198.1831660092012
 30
0.0
 11
387.8563959622948
 21
198.8236764782081
 31
0.0
  0
LINE
  5
4AA
330
75
100
AcDbEntity
  8
Visible (ISO)
100
AcDbLine
 10
385.9377694601329
 20
179.6831664274808
 30
0.0
 11
385.5921282718092
 21
179.0426560797071
 31
0.0
  0
LINE
  5
4AB
330
75
100
AcDbEntity
  8
Visible (ISO)
100
AcDbLine
 10
390.9377695346387
 20
179.6831664274793
 30
0.0
 11
390.5921281600505
 21
179.0426560797057
 31
0.0
  0
LINE
  5
4AC
330
75
100
AcDbEntity
  8
Visible (ISO)
100
AcDbLine
 10
395.9377695346387
 20
179.6831664274779
 30
0.0
 11
395.5921281600505
 21
179.0426560797042
 31
0.0
  0
LINE
  5
4AD
330
75
100
AcDbEntity
  8
Visible (ISO)
100
AcDbLine
 10
400.9377695346386
 20
179.6831664274764
 30
0.0
 11
400.5921281600505
 21
179.0426560797027
 31
0.0
  0
LINE
  5
4AE
330
75
100
AcDbEntity
  8
Visible (ISO)
100
AcDbLine
 10
388.0921281600555
 20
198.8236763980825
 30
0.0
 11
388.5015289211827
 21
198.0651245931162
 31
0.0
  0
LINE
  5
4AF
330
75
100
AcDbEntity
  8
Visible (ISO)
100
AcDbLine
 10
393.0921281600555
 20
198.823676398081
 30
0.0
 11
393.5015286231595
 21
198.0651245931147
 31
0.0
  0
LINE
  5
4B0
330
75
100
AcDbEntity
  8
Visible (ISO)
100
AcDbLine
 10
398.0921281600555
 20
198.8236763980795
 30
0.0
 11
398.5015286231595
 21
198.0651245931132
 31
0.0
  0
LINE
  5
4B1
330
75
100
AcDbEntity
  8
Visible (ISO)
100
AcDbLine
 10
385.0761879706942
 20
198.1831662388952
 30
0.0
 11
385.0761879706886
 21
179.6831662388954
 31
0.0
  0
LINE
  5
4B2
330
75
100
AcDbEntity
  8
Visible (ISO)
100
AcDbLine
 10
403.5761879706941
 20
198.1831662388898
 30
0.0
 11
403.5761879706885
 21
179.68316623889
 31
0.0
  0
LINE
  5
4B3
330
75
100
AcDbEntity
  8
Visible (ISO)
100
AcDbLine
 10
385.0761879706942
 20
198.1831662388952
 30
0.0
 11
387.5742620550996
 21
198.1831662388945
 31
0.0
  0
LINE
  5
4B4
330
75
100
AcDbEntity
  8
Visible (ISO)
100
AcDbLine
 10
388.4377694760791
 20
198.1831662388943
 30
0.0
 11
392.5742620550995
 21
198.183166238893
 31
0.0
  0
LINE
  5
4B5
330
75
100
AcDbEntity
  8
Visible (ISO)
100
AcDbLine
 10
393.4377694760791
 20
198.1831662388928
 30
0.0
 11
397.5742620550996
 21
198.1831662388916
 31
0.0
  0
LINE
  5
4B6
330
75
100
AcDbEntity
  8
Visible (ISO)
100
AcDbLine
 10
398.4377694760791
 20
198.1831662388913
 30
0.0
 11
403.5761879706941
 21
198.1831662388898
 31
0.0
  0
LINE
  5
4B7
330
75
100
AcDbEntity
  8
Visible (ISO)
100
AcDbLine
 10
385.0761879706886
 20
179.6831662388954
 30
0.0
 11
390.0107546341145
 21
179.6831662388939
 31
0.0
  0
LINE
  5
4B8
330
75
100
AcDbEntity
  8
Visible (ISO)
100
AcDbLine
 10
390.8742620550941
 20
179.6831662388937
 30
0.0
 11
395.0107546341145
 21
179.6831662388925
 31
0.0
  0
LINE
  5
4B9
330
75
100
AcDbEntity
  8
Visible (ISO)
100
AcDbLine
 10
395.8742620550941
 20
179.6831662388922
 30
0.0
 11
400.0107546341145
 21
179.683166238891
 31
0.0
  0
LINE
  5
4BA
330
75
100
AcDbEntity
  8
Visible (ISO)
100
AcDbLine
 10
400.8742620550941
 20
179.6831662388908
 30
0.0
 11
403.5761879706886
 21
179.6831662388899
 31
0.0
  0
ELLIPSE
  5
4BB
330
75
100
AcDbEntity
  8
Visible (ISO)
100
AcDbEllipse
 10
403.7458526084537
 20
188.9331662388898
 30
0.0
 11
-2.270811702639843
 21
7.499999845111302
 31
0.0
210
0.0
220
0.0
230
0.9999999999999998
 40
0.0006712359518074
 41
1.498228349357837
 42
1.573013270148969
  0
ELLIPSE
  5
4BC
330
75
100
AcDbEntity
  8
Visible (ISO)
100
AcDbEllipse
 10
403.7458526084537
 20
188.9331662388898
 30
0.0
 11
-2.270811702639844
 21
7.499999845111301
 31
0.0
210
0.0
220
0.0
230
0.9999999999999998
 40
0.0006712359518074
 41
1.573013270395067
 42
3.141389420351578
  0
LINE
  5
4BD
330
75
100
AcDbEntity
  8
Visible (ISO)
100
AcDbLine
 10
403.576187970694
 20
197.833926877757
 30
0.0
 11
407.9786945659661
 21
200.7689226790708
 31
0.0
  0
LINE
  5
4BE
330
75
100
AcDbEntity
  8
Visible (ISO)
100
AcDbLine
 10
406.0166652873286
 20
181.4331668584464
 30
0.0
 11
407.9786945659714
 21
182.7411825468398
 31
0.0
  0
LINE
  5
4BF
330
75
100
AcDbEntity
  8
Visible (ISO)
100
AcDbLine
 10
403.5761879706891
 20
181.4331662388899
 30
0.0
 11
406.0166632410653
 21
181.4331662388892
 31
0.0
  0
ENDSEC
  0
SECTION
  2
OBJECTS
  0
DICTIONARY
  5
C
330
0
100
AcDbDictionary
281
     1
  3
ACAD_COLOR
350
6B
  3
ACAD_GROUP
350
D
  3
ACAD_LAYOUT
350
6A
  3
ACAD_MATERIAL
350
10
  3
ACAD_MLEADERSTYLE
350
6E
  3
ACAD_MLINESTYLE
350
67
  3
ACAD_PLOTSETTINGS
350
69
  3
ACAD_PLOTSTYLENAME
350
E
  3
ACAD_SCALELIST
350
3A
  3
ACAD_TABLESTYLE
350
6C
  3
ACAD_VISUALSTYLE
350
29
  3
ACDB_RECOMPOSE_DATA
350
4C6
  3
AcDbVariableDictionary
350
4C0
  0
DICTIONARY
  5
6B
102
{ACAD_REACTORS
330
C
102
}
330
C
100
AcDbDictionary
281
     1
  0
DICTIONARY
  5
D
102
{ACAD_REACTORS
330
C
102
}
330
C
100
AcDbDictionary
281
     1
  0
DICTIONARY
  5
6A
102
{ACAD_REACTORS
330
C
102
}
330
C
100
AcDbDictionary
281
     1
  3
Layout1
350
74
  3
Layout2
350
7C
  3
Model
350
78
  0
DICTIONARY
  5
10
102
{ACAD_REACTORS
330
C
102
}
330
C
100
AcDbDictionary
281
     1
  3
ByBlock
350
19
  3
ByLayer
350
11
  3
Global
350
21
  0
DICTIONARY
  5
6E
102
{ACAD_REACTORS
330
C
102
}
330
C
100
AcDbDictionary
281
     1
  3
Standard
350
6F
  0
DICTIONARY
  5
67
102
{ACAD_REACTORS
330
C
102
}
330
C
100
AcDbDictionary
281
     1
  3
Standard
350
68
  0
DICTIONARY
  5
69
102
{ACAD_REACTORS
330
C
102
}
330
C
100
AcDbDictionary
281
     1
  0
ACDBDICTIONARYWDFLT
  5
E
102
{ACAD_REACTORS
330
C
102
}
330
C
100
AcDbDictionary
281
     1
  3
Normal
350
F
100
AcDbDictionaryWithDefault
340
F
  0
DICTIONARY
  5
3A
102
{ACAD_REACTORS
330
C
102
}
330
C
100
AcDbDictionary
281
     1
  3
A0
350
3B
  3
A1
350
3C
  3
A2
350
3D
  3
A3
350
3E
  3
A4
350
3F
  3
A5
350
40
  3
A6
350
41
  3
A7
350
42
  3
A8
350
43
  3
A9
350
44
  3
B0
350
45
  3
B1
350
46
  3
B2
350
47
  3
B3
350
48
  3
B4
350
49
  3
B5
350
4A
  3
B6
350
4B
  3
B7
350
4C
  3
B8
350
4D
  3
B9
350
4E
  3
C0
350
4F
  3
C1
350
50
  3
C2
350
51
  3
C3
350
52
  3
C4
350
53
  3
C5
350
54
  3
C6
350
55
  3
C7
350
56
  3
C8
350
57
  3
C9
350
58
  3
D0
350
59
  3
D1
350
5A
  3
D2
350
5B
  0
DICTIONARY
  5
6C
102
{ACAD_REACTORS
330
C
102
}
330
C
100
AcDbDictionary
281
     1
  3
Standard
350
6D
  0
DICTIONARY
  5
29
102
{ACAD_REACTORS
330
C
102
}
330
C
100
AcDbDictionary
281
     1
  3
2dWireframe
350
2F
  3
3D Hidden
350
31
  3
3dWireframe
350
30
  3
Basic
350
2E
  3
Brighten
350
35
  3
ColorChange
350
39
  3
Conceptual
350
32
  3
Dim
350
34
  3
Facepattern
350
38
  3
Flat
350
2A
  3
FlatWithEdges
350
2B
  3
Gouraud
350
2C
  3
GouraudWithEdges
350
2D
  3
Linepattern
350
37
  3
Realistic
350
33
  3
Thicken
350
36
  0
XRECORD
  5
4C6
102
{ACAD_REACTORS
330
C
102
}
330
C
100
AcDbXrecord
280
     1
 90
        1
330
6D
  0
DICTIONARY
  5
4C0
102
{ACAD_REACTORS
330
C
102
}
330
C
100
AcDbDictionary
281
     1
  3
CANNOSCALE
350
4C3
  3
CMLEADERSTYLE
350
4C2
  3
CTABLESTYLE
350
4C1
  0
LAYOUT
  5
74
102
{ACAD_REACTORS
330
6A
102
}
330
6A
100
AcDbPlotSettings
  1

  2

  4

  6

 40
0.0
 41
0.0
 42
0.0
 43
0.0
 44
0.0
 45
0.0
 46
0.0
 47
0.0
 48
0.0
 49
0.0
140
0.0
141
0.0
142
1.0
143
1.0
 70
   688
 72
     0
 73
     0
 74
     5
  7

 75
    16
147
1.0
 76
     0
 77
     2
 78
   300
148
0.0
149
0.0
100
AcDbLayout
  1
Layout1
 70
     1
 71
     1
 10
0.0
 20
0.0
 11
12.0
 21
9.0
 12
0.0
 22
0.0
 32
0.0
 14
0.0
 24
0.0
 34
0.0
 15
0.0
 25
0.0
 35
0.0
146
0.0
 13
0.0
 23
0.0
 33
0.0
 16
1.0
 26
0.0
 36
0.0
 17
0.0
 27
1.0
 37
0.0
 76
     0
330
71
  0
LAYOUT
  5
7C
102
{ACAD_REACTORS
330
6A
102
}
330
6A
100
AcDbPlotSettings
  1

  2

  4

  6

 40
0.0
 41
0.0
 42
0.0
 43
0.0
 44
0.0
 45
0.0
 46
0.0
 47
0.0
 48
0.0
 49
0.0
140
0.0
141
0.0
142
1.0
143
1.0
 70
   688
 72
     0
 73
     0
 74
     5
  7

 75
    16
147
1.0
 76
     0
 77
     2
 78
   300
148
0.0
149
0.0
100
AcDbLayout
  1
Layout2
 70
     1
 71
     2
 10
0.0
 20
0.0
 11
12.0
 21
9.0
 12
0.0
 22
0.0
 32
0.0
 14
0.0
 24
0.0
 34
0.0
 15
0.0
 25
0.0
 35
0.0
146
0.0
 13
0.0
 23
0.0
 33
0.0
 16
1.0
 26
0.0
 36
0.0
 17
0.0
 27
1.0
 37
0.0
 76
     0
330
79
  0
LAYOUT
  5
78
102
{ACAD_REACTORS
330
6A
102
}
330
6A
100
AcDbPlotSettings
  1

  2

  4

  6

 40
0.0
 41
0.0
 42
0.0
 43
0.0
 44
0.0
 45
0.0
 46
0.0
 47
0.0
 48
0.0
 49
0.0
140
0.0
141
0.0
142
1.0
143
1.0
 70
  1712
 72
     0
 73
     0
 74
     0
  7

 75
     0
147
1.0
 76
     0
 77
     2
 78
   300
148
0.0
149
0.0
100
AcDbLayout
  1
Model
 70
     1
 71
     0
 10
0.0
 20
0.0
 11
12.0
 21
9.0
 12
0.0
 22
0.0
 32
0.0
 14
0.0
 24
0.0
 34
0.0
 15
0.0
 25
0.0
 35
0.0
146
0.0
 13
0.0
 23
0.0
 33
0.0
 16
1.0
 26
0.0
 36
0.0
 17
0.0
 27
1.0
 37
0.0
 76
     0
330
75
  0
MATERIAL
  5
19
102
{ACAD_XDICTIONARY
360
1A
102
}
102
{ACAD_REACTORS
330
10
102
}
330
10
100
AcDbMaterial
  1
ByBlock
 72
     0
 43
0.0208333333333333
 43
0.0
 43
0.0
 43
0.0
 43
0.0
 43
0.0208333333333333
 43
0.0
 43
0.0
 43
0.0
 43
0.0
 43
1.0
 43
0.0
 43
0.0
 43
0.0
 43
0.0
 43
1.0
 77
     0
 47
0.0208333333333333
 47
0.0
 47
0.0
 47
0.0
 47
0.0
 47
0.0208333333333333
 47
0.0
 47
0.0
 47
0.0
 47
0.0
 47
1.0
 47
0.0
 47
0.0
 47
0.0
 47
0.0
 47
1.0
171
     0
 49
0.0208333333333333
 49
0.0
 49
0.0
 49
0.0
 49
0.0
 49
0.0208333333333333
 49
0.0
 49
0.0
 49
0.0
 49
0.0
 49
1.0
 49
0.0
 49
0.0
 49
0.0
 49
0.0
 49
1.0
175
     0
142
0.0208333333333333
142
0.0
142
0.0
142
0.0
142
0.0
142
0.0208333333333333
142
0.0
142
0.0
142
0.0
142
0.0
142
1.0
142
0.0
142
0.0
142
0.0
142
0.0
142
1.0
179
     0
144
0.0208333333333333
144
0.0
144
0.0
144
0.0
144
0.0
144
0.0208333333333333
144
0.0
144
0.0
144
0.0
144
0.0
144
1.0
144
0.0
144
0.0
144
0.0
144
0.0
144
1.0
147
0.0208333333333333
147
0.0
147
0.0
147
0.0
147
0.0
147
0.0208333333333333
147
0.0
147
0.0
147
0.0
147
0.0
147
1.0
147
0.0
147
0.0
147
0.0
147
0.0
147
1.0
  0
MATERIAL
  5
11
102
{ACAD_XDICTIONARY
360
12
102
}
102
{ACAD_REACTORS
330
10
102
}
330
10
100
AcDbMaterial
  1
ByLayer
 72
     0
 43
0.0208333333333333
 43
0.0
 43
0.0
 43
0.0
 43
0.0
 43
0.0208333333333333
 43
0.0
 43
0.0
 43
0.0
 43
0.0
 43
1.0
 43
0.0
 43
0.0
 43
0.0
 43
0.0
 43
1.0
 77
     0
 47
0.0208333333333333
 47
0.0
 47
0.0
 47
0.0
 47
0.0
 47
0.0208333333333333
 47
0.0
 47
0.0
 47
0.0
 47
0.0
 47
1.0
 47
0.0
 47
0.0
 47
0.0
 47
0.0
 47
1.0
171
     0
 49
0.0208333333333333
 49
0.0
 49
0.0
 49
0.0
 49
0.0
 49
0.0208333333333333
 49
0.0
 49
0.0
 49
0.0
 49
0.0
 49
1.0
 49
0.0
 49
0.0
 49
0.0
 49
0.0
 49
1.0
175
     0
142
0.0208333333333333
142
0.0
142
0.0
142
0.0
142
0.0
142
0.0208333333333333
142
0.0
142
0.0
142
0.0
142
0.0
142
1.0
142
0.0
142
0.0
142
0.0
142
0.0
142
1.0
179
     0
144
0.0208333333333333
144
0.0
144
0.0
144
0.0
144
0.0
144
0.0208333333333333
144
0.0
144
0.0
144
0.0
144
0.0
144
1.0
144
0.0
144
0.0
144
0.0
144
0.0
144
1.0
147
0.0208333333333333
147
0.0
147
0.0
147
0.0
147
0.0
147
0.0208333333333333
147
0.0
147
0.0
147
0.0
147
0.0
147
1.0
147
0.0
147
0.0
147
0.0
147
0.0
147
1.0
  0
MATERIAL
  5
21
102
{ACAD_XDICTIONARY
360
22
102
}
102
{ACAD_REACTORS
330
10
102
}
330
10
100
AcDbMaterial
  1
Global
 72
     0
 43
0.0208333333333333
 43
0.0
 43
0.0
 43
0.0
 43
0.0
 43
0.0208333333333333
 43
0.0
 43
0.0
 43
0.0
 43
0.0
 43
1.0
 43
0.0
 43
0.0
 43
0.0
 43
0.0
 43
1.0
 77
     0
 47
0.0208333333333333
 47
0.0
 47
0.0
 47
0.0
 47
0.0
 47
0.0208333333333333
 47
0.0
 47
0.0
 47
0.0
 47
0.0
 47
1.0
 47
0.0
 47
0.0
 47
0.0
 47
0.0
 47
1.0
171
     0
 49
0.0208333333333333
 49
0.0
 49
0.0
 49
0.0
 49
0.0
 49
0.0208333333333333
 49
0.0
 49
0.0
 49
0.0
 49
0.0
 49
1.0
 49
0.0
 49
0.0
 49
0.0
 49
0.0
 49
1.0
175
     0
142
0.0208333333333333
142
0.0
142
0.0
142
0.0
142
0.0
142
0.0208333333333333
142
0.0
142
0.0
142
0.0
142
0.0
142
1.0
142
0.0
142
0.0
142
0.0
142
0.0
142
1.0
179
     0
144
0.0208333333333333
144
0.0
144
0.0
144
0.0
144
0.0
144
0.0208333333333333
144
0.0
144
0.0
144
0.0
144
0.0
144
1.0
144
0.0
144
0.0
144
0.0
144
0.0
144
1.0
147
0.0208333333333333
147
0.0
147
0.0
147
0.0
147
0.0
147
0.0208333333333333
147
0.0
147
0.0
147
0.0
147
0.0
147
1.0
147
0.0
147
0.0
147
0.0
147
0.0
147
1.0
  0
MLEADERSTYLE
  5
6F
102
{ACAD_REACTORS
330
6E
102
}
330
6E
100
AcDbMLeaderStyle
170
     2
171
     1
172
     0
 90
        2
 40
0.0
 41
0.0
173
     1
 91
-1056964608
340
63
 92
       -2
290
     1
 42
0.09
291
     1
 43
0.36
  3
Standard
 44
0.18
300

342
5D
174
     1
178
     6
175
     1
176
     0
 93
-1056964608
 45
0.18
292
     0
297
     0
 46
0.18
 94
-1056964608
 47
1.0
 49
1.0
140
1.0
293
     1
141
0.0
294
     1
177
     0
142
1.0
295
     1
296
     0
143
0.125
1001
ACAD_MLEADERVER
1070
     2
  0
MLINESTYLE
  5
68
102
{ACAD_REACTORS
330
67
102
}
330
67
100
AcDbMlineStyle
  2
STANDARD
 70
     0
  3

 62
   256
 51
90.0
 52
90.0
 71
     2
 49
0.5
 62
   256
  6
BYLAYER
 49
-0.5
 62
   256
  6
BYLAYER
  0
ACDBPLACEHOLDER
  5
F
102
{ACAD_REACTORS
330
E
102
}
330
E
  0
SCALE
  5
3B
102
{ACAD_REACTORS
330
3A
102
}
330
3A
100
AcDbScale
 70
     0
300
1:1
140
1.0
141
1.0
290
     1
  0
SCALE
  5
3C
102
{ACAD_REACTORS
330
3A
102
}
330
3A
100
AcDbScale
 70
     0
300
1:2
140
1.0
141
2.0
290
     0
  0
SCALE
  5
3D
102
{ACAD_REACTORS
330
3A
102
}
330
3A
100
AcDbScale
 70
     0
300
1:4
140
1.0
141
4.0
290
     0
  0
SCALE
  5
3E
102
{ACAD_REACTORS
330
3A
102
}
330
3A
100
AcDbScale
 70
     0
300
1:5
140
1.0
141
5.0
290
     0
  0
SCALE
  5
3F
102
{ACAD_REACTORS
330
3A
102
}
330
3A
100
AcDbScale
 70
     0
300
1:8
140
1.0
141
8.0
290
     0
  0
SCALE
  5
40
102
{ACAD_REACTORS
330
3A
102
}
330
3A
100
AcDbScale
 70
     0
300
1:10
140
1.0
141
10.0
290
     0
  0
SCALE
  5
41
102
{ACAD_REACTORS
330
3A
102
}
330
3A
100
AcDbScale
 70
     0
300
1:16
140
1.0
141
16.0
290
     0
  0
SCALE
  5
42
102
{ACAD_REACTORS
330
3A
102
}
330
3A
100
AcDbScale
 70
     0
300
1:20
140
1.0
141
20.0
290
     0
  0
SCALE
  5
43
102
{ACAD_REACTORS
330
3A
102
}
330
3A
100
AcDbScale
 70
     0
300
1:30
140
1.0
141
30.0
290
     0
  0
SCALE
  5
44
102
{ACAD_REACTORS
330
3A
102
}
330
3A
100
AcDbScale
 70
     0
300
1:40
140
1.0
141
40.0
290
     0
  0
SCALE
  5
45
102
{ACAD_REACTORS
330
3A
102
}
330
3A
100
AcDbScale
 70
     0
300
1:50
140
1.0
141
50.0
290
     0
  0
SCALE
  5
46
102
{ACAD_REACTORS
330
3A
102
}
330
3A
100
AcDbScale
 70
     0
300
1:100
140
1.0
141
100.0
290
     0
  0
SCALE
  5
47
102
{ACAD_REACTORS
330
3A
102
}
330
3A
100
AcDbScale
 70
     0
300
2:1
140
2.0
141
1.0
290
     0
  0
SCALE
  5
48
102
{ACAD_REACTORS
330
3A
102
}
330
3A
100
AcDbScale
 70
     0
300
4:1
140
4.0
141
1.0
290
     0
  0
SCALE
  5
49
102
{ACAD_REACTORS
330
3A
102
}
330
3A
100
AcDbScale
 70
     0
300
8:1
140
8.0
141
1.0
290
     0
  0
SCALE
  5
4A
102
{ACAD_REACTORS
330
3A
102
}
330
3A
100
AcDbScale
 70
     0
300
10:1
140
10.0
141
1.0
290
     0
  0
SCALE
  5
4B
102
{ACAD_REACTORS
330
3A
102
}
330
3A
100
AcDbScale
 70
     0
300
100:1
140
100.0
141
1.0
290
     0
  0
SCALE
  5
4C
102
{ACAD_REACTORS
330
3A
102
}
330
3A
100
AcDbScale
 70
     0
300
1/128" = 1'-0"
140
0.0078125
141
12.0
290
     0
  0
SCALE
  5
4D
102
{ACAD_REACTORS
330
3A
102
}
330
3A
100
AcDbScale
 70
     0
300
1/64" = 1'-0"
140
0.015625
141
12.0
290
     0
  0
SCALE
  5
4E
102
{ACAD_REACTORS
330
3A
102
}
330
3A
100
AcDbScale
 70
     0
300
1/32" = 1'-0"
140
0.03125
141
12.0
290
     0
  0
SCALE
  5
4F
102
{ACAD_REACTORS
330
3A
102
}
330
3A
100
AcDbScale
 70
     0
300
1/16" = 1'-0"
140
0.0625
141
12.0
290
     0
  0
SCALE
  5
50
102
{ACAD_REACTORS
330
3A
102
}
330
3A
100
AcDbScale
 70
     0
300
3/32" = 1'-0"
140
0.09375
141
12.0
290
     0
  0
SCALE
  5
51
102
{ACAD_REACTORS
330
3A
102
}
330
3A
100
AcDbScale
 70
     0
300
1/8" = 1'-0"
140
0.125
141
12.0
290
     0
  0
SCALE
  5
52
102
{ACAD_REACTORS
330
3A
102
}
330
3A
100
AcDbScale
 70
     0
300
3/16" = 1'-0"
140
0.1875
141
12.0
290
     0
  0
SCALE
  5
53
102
{ACAD_REACTORS
330
3A
102
}
330
3A
100
AcDbScale
 70
     0
300
1/4" = 1'-0"
140
0.25
141
12.0
290
     0
  0
SCALE
  5
54
102
{ACAD_REACTORS
330
3A
102
}
330
3A
100
AcDbScale
 70
     0
300
3/8" = 1'-0"
140
0.375
141
12.0
290
     0
  0
SCALE
  5
55
102
{ACAD_REACTORS
330
3A
102
}
330
3A
100
AcDbScale
 70
     0
300
1/2" = 1'-0"
140
0.5
141
12.0
290
     0
  0
SCALE
  5
56
102
{ACAD_REACTORS
330
3A
102
}
330
3A
100
AcDbScale
 70
     0
300
3/4" = 1'-0"
140
0.75
141
12.0
290
     0
  0
SCALE
  5
57
102
{ACAD_REACTORS
330
3A
102
}
330
3A
100
AcDbScale
 70
     0
300
1" = 1'-0"
140
1.0
141
12.0
290
     0
  0
SCALE
  5
58
102
{ACAD_REACTORS
330
3A
102
}
330
3A
100
AcDbScale
 70
     0
300
1-1/2" = 1'-0"
140
1.5
141
12.0
290
     0
  0
SCALE
  5
59
102
{ACAD_REACTORS
330
3A
102
}
330
3A
100
AcDbScale
 70
     0
300
3" = 1'-0"
140
3.0
141
12.0
290
     0
  0
SCALE
  5
5A
102
{ACAD_REACTORS
330
3A
102
}
330
3A
100
AcDbScale
 70
     0
300
6" = 1'-0"
140
6.0
141
12.0
290
     0
  0
SCALE
  5
5B
102
{ACAD_REACTORS
330
3A
102
}
330
3A
100
AcDbScale
 70
     0
300
1'-0" = 1'-0"
140
12.0
141
12.0
290
     0
  0
TABLESTYLE
  5
6D
102
{ACAD_XDICTIONARY
360
4C4
102
}
102
{ACAD_REACTORS
330
6C
102
}
330
6C
100
AcDbTableStyle
  3
Standard
 70
     0
 71
     0
 40
0.06
 41
0.06
280
     0
281
     0
  7
Standard
140
0.18
170
     2
 62
     0
 63
     7
283
     0
 90
      512
 91
        0
  1

274
    -2
284
     1
 64
     0
275
    -2
285
     1
 65
     0
276
    -2
286
     1
 66
     0
277
    -2
287
     1
 67
     0
278
    -2
288
     1
 68
     0
279
    -2
289
     1
 69
     0
  7
Standard
140
0.25
170
     5
 62
     0
 63
     7
283
     0
 90
      512
 91
        0
  1

274
    -2
284
     1
 64
     0
275
    -2
285
     1
 65
     0
276
    -2
286
     1
 66
     0
277
    -2
287
     1
 67
     0
278
    -2
288
     1
 68
     0
279
    -2
289
     1
 69
     0
  7
Standard
140
0.18
170
     5
 62
     0
 63
     7
283
     0
 90
      512
 91
        0
  1

274
    -2
284
     1
 64
     0
275
    -2
285
     1
 65
     0
276
    -2
286
     1
 66
     0
277
    -2
287
     1
 67
     0
278
    -2
288
     1
 68
     0
279
    -2
289
     1
 69
     0
  0
VISUALSTYLE
  5
2F
102
{ACAD_REACTORS
330
29
102
}
330
29
100
AcDbVisualStyle
  2
2dWireframe
 70
     4
 71
     0
 72
     2
 73
     0
 90
        0
 40
-0.6
 41
-30.0
 62
     5
 63
     7
421
 16777215
 74
     1
 91
        4
 64
     7
 65
   257
 75
     1
175
     1
 42
1.0
 92
        0
 66
   257
 43
1.0
 76
     1
 77
     6
 78
     2
 67
     7
 79
     5
170
     0
171
     0
290
     0
174
     0
 93
        1
 44
0.0
173
     0
291
     0
 45
0.0
  0
VISUALSTYLE
  5
31
102
{ACAD_REACTORS
330
29
102
}
330
29
100
AcDbVisualStyle
  2
3D Hidden
 70
     6
 71
     1
 72
     2
 73
     2
 90
        0
 40
-0.6
 41
-30.0
 62
     5
 63
     7
421
 16777215
 74
     2
 91
        2
 64
     7
 65
   257
 75
     2
175
     1
 42
40.0
 92
        0
 66
   257
 43
1.0
 76
     1
 77
     6
 78
     2
 67
     7
 79
     3
170
     0
171
     0
290
     0
174
     0
 93
        1
 44
0.0
173
     0
291
     0
 45
0.0
  0
VISUALSTYLE
  5
30
102
{ACAD_REACTORS
330
29
102
}
330
29
100
AcDbVisualStyle
  2
3dWireframe
 70
     5
 71
     0
 72
     2
 73
     0
 90
        0
 40
-0.6
 41
-30.0
 62
     5
 63
     7
421
 16777215
 74
     1
 91
        4
 64
     7
 65
   257
 75
     1
175
     1
 42
1.0
 92
        0
 66
   257
 43
1.0
 76
     1
 77
     6
 78
     2
 67
     7
 79
     5
170
     0
171
     0
290
     0
174
     0
 93
        1
 44
0.0
173
     0
291
     0
 45
0.0
  0
VISUALSTYLE
  5
2E
102
{ACAD_REACTORS
330
29
102
}
330
29
100
AcDbVisualStyle
  2
Basic
 70
     7
 71
     1
 72
     0
 73
     1
 90
        0
 40
-0.6
 41
-30.0
 62
     5
 63
     7
421
 16777215
 74
     0
 91
        4
 64
     7
 65
   257
 75
     1
175
     1
 42
1.0
 92
        8
 66
     7
 43
1.0
 76
     1
 77
     6
 78
     2
 67
     7
 79
     5
170
     0
171
     0
290
     0
174
     0
 93
        1
 44
0.0
173
     0
291
     1
 45
0.0
  0
VISUALSTYLE
  5
35
102
{ACAD_REACTORS
330
29
102
}
330
29
100
AcDbVisualStyle
  2
Brighten
 70
    12
 71
     2
 72
     2
 73
     0
 90
        0
 40
-0.6
 41
-30.0
 62
     5
 63
     7
421
 16777215
 74
     1
 91
        4
 64
     7
 65
   257
 75
     1
175
     1
 42
1.0
 92
        8
 66
     7
 43
1.0
 76
     1
 77
     6
 78
     2
 67
     7
 79
     5
170
     0
171
     0
290
     0
174
     0
 93
        1
 44
50.0
173
     0
291
     1
 45
0.0
  0
VISUALSTYLE
  5
39
102
{ACAD_REACTORS
330
29
102
}
330
29
100
AcDbVisualStyle
  2
ColorChange
 70
    16
 71
     2
 72
     2
 73
     3
 90
        0
 40
-0.6
 41
-30.0
 62
     5
 63
     8
421
  8421504
 74
     1
 91
        4
 64
     7
 65
   257
 75
     1
175
     1
 42
1.0
 92
        8
 66
     8
424
  8421504
 43
1.0
 76
     1
 77
     6
 78
     2
 67
     7
 79
     5
170
     0
171
     0
290
     0
174
     0
 93
        1
 44
0.0
173
     0
291
     1
 45
0.0
  0
VISUALSTYLE
  5
32
102
{ACAD_REACTORS
330
29
102
}
330
29
100
AcDbVisualStyle
  2
Conceptual
 70
     9
 71
     3
 72
     2
 73
     0
 90
        0
 40
-0.6
 41
-30.0
 62
     5
 63
     7
421
 16777215
 74
     2
 91
        2
 64
     7
 65
   257
 75
     1
175
     1
 42
40.0
 92
        8
 66
     7
 43
1.0
 76
     1
 77
     6
 78
     2
 67
     7
 79
     3
170
     0
171
     0
290
     0
174
     0
 93
        1
 44
0.0
173
     0
291
     0
 45
0.0
  0
VISUALSTYLE
  5
34
102
{ACAD_REACTORS
330
29
102
}
330
29
100
AcDbVisualStyle
  2
Dim
 70
    11
 71
     2
 72
     2
 73
     0
 90
        0
 40
-0.6
 41
-30.0
 62
     5
 63
     7
421
 16777215
 74
     1
 91
        4
 64
     7
 65
   257
 75
     1
175
     1
 42
1.0
 92
        8
 66
     7
 43
1.0
 76
     1
 77
     6
 78
     2
 67
     7
 79
     5
170
     0
171
     0
290
     0
174
     0
 93
        1
 44
-50.0
173
     0
291
     1
 45
0.0
  0
VISUALSTYLE
  5
38
102
{ACAD_REACTORS
330
29
102
}
330
29
100
AcDbVisualStyle
  2
Facepattern
 70
    15
 71
     2
 72
     2
 73
     0
 90
        0
 40
-0.6
 41
-30.0
 62
     5
 63
     7
421
 16777215
 74
     1
 91
        4
 64
     7
 65
   257
 75
     1
175
     1
 42
1.0
 92
        8
 66
     7
 43
1.0
 76
     1
 77
     6
 78
     2
 67
     7
 79
     5
170
     0
171
     0
290
     0
174
     0
 93
        1
 44
0.0
173
     0
291
     1
 45
0.0
  0
VISUALSTYLE
  5
2A
102
{ACAD_REACTORS
330
29
102
}
330
29
100
AcDbVisualStyle
  2
Flat
 70
     0
 71
     2
 72
     1
 73
     1
 90
        2
 40
-0.6
 41
30.0
 62
     5
 63
     7
421
 16777215
 74
     0
 91
        4
 64
     7
 65
   257
 75
     1
175
     1
 42
1.0
 92
        8
 66
     7
 43
1.0
 76
     1
 77
     6
 78
     2
 67
     7
 79
     5
170
     0
171
     0
290
     0
174
     0
 93
       13
 44
0.0
173
     0
291
     1
 45
0.0
  0
VISUALSTYLE
  5
2B
102
{ACAD_REACTORS
330
29
102
}
330
29
100
AcDbVisualStyle
  2
FlatWithEdges
 70
     1
 71
     2
 72
     1
 73
     1
 90
        2
 40
-0.6
 41
30.0
 62
     5
 63
     7
421
 16777215
 74
     1
 91
        4
 64
     7
 65
   257
 75
     1
175
     1
 42
1.0
 92
        0
 66
   257
 43
1.0
 76
     1
 77
     6
 78
     2
 67
     7
 79
     5
170
     0
171
     0
290
     0
174
     0
 93
       13
 44
0.0
173
     0
291
     1
 45
0.0
  0
VISUALSTYLE
  5
2C
102
{ACAD_REACTORS
330
29
102
}
330
29
100
AcDbVisualStyle
  2
Gouraud
 70
     2
 71
     2
 72
     2
 73
     1
 90
        2
 40
-0.6
 41
30.0
 62
     5
 63
     7
421
 16777215
 74
     0
 91
        4
 64
     7
 65
   257
 75
     1
175
     1
 42
1.0
 92
        0
 66
     7
 43
1.0
 76
     1
 77
     6
 78
     2
 67
     7
 79
     5
170
     0
171
     0
290
     0
174
     0
 93
       13
 44
0.0
173
     0
291
     1
 45
0.0
  0
VISUALSTYLE
  5
2D
102
{ACAD_REACTORS
330
29
102
}
330
29
100
AcDbVisualStyle
  2
GouraudWithEdges
 70
     3
 71
     2
 72
     2
 73
     1
 90
        2
 40
-0.6
 41
30.0
 62
     5
 63
     7
421
 16777215
 74
     1
 91
        4
 64
     7
 65
   257
 75
     1
175
     1
 42
1.0
 92
        0
 66
   257
 43
1.0
 76
     1
 77
     6
 78
     2
 67
     7
 79
     5
170
     0
171
     0
290
     0
174
     0
 93
       13
 44
0.0
173
     0
291
     1
 45
0.0
  0
VISUALSTYLE
  5
37
102
{ACAD_REACTORS
330
29
102
}
330
29
100
AcDbVisualStyle
  2
Linepattern
 70
    14
 71
     2
 72
     2
 73
     0
 90
        0
 40
-0.6
 41
-30.0
 62
     5
 63
     7
421
 16777215
 74
     1
 91
        4
 64
     7
 65
   257
 75
     7
175
     7
 42
1.0
 92
        8
 66
     7
 43
1.0
 76
     1
 77
     6
 78
     2
 67
     7
 79
     5
170
     0
171
     0
290
     0
174
     0
 93
        1
 44
0.0
173
     0
291
     1
 45
0.0
  0
VISUALSTYLE
  5
33
102
{ACAD_REACTORS
330
29
102
}
330
29
100
AcDbVisualStyle
  2
Realistic
 70
     8
 71
     2
 72
     2
 73
     0
 90
        0
 40
-0.6
 41
-30.0
 62
     5
 63
     7
421
 16777215
 74
     1
 91
        0
 64
     7
 65
   257
 75
     1
175
     1
 42
1.0
 92
        8
 66
     8
424
  7895160
 43
1.0
 76
     1
 77
     6
 78
     2
 67
     7
 79
     5
170
     0
171
     0
290
     0
174
     0
 93
       13
 44
0.0
173
     0
291
     0
 45
0.0
  0
VISUALSTYLE
  5
36
102
{ACAD_REACTORS
330
29
102
}
330
29
100
AcDbVisualStyle
  2
Thicken
 70
    13
 71
     2
 72
     2
 73
     0
 90
        0
 40
-0.6
 41
-30.0
 62
     5
 63
     7
421
 16777215
 74
     1
 91
        4
 64
     7
 65
   257
 75
     1
175
     1
 42
1.0
 92
       12
 66
     7
 43
1.0
 76
     1
 77
     6
 78
     2
 67
     7
 79
     5
170
     0
171
     0
290
     0
174
     0
 93
        1
 44
0.0
173
     0
291
     1
 45
0.0
  0
DICTIONARYVAR
  5
4C3
102
{ACAD_REACTORS
330
4C0
102
}
330
4C0
100
DictionaryVariables
280
     0
  1
1:1
  0
DICTIONARYVAR
  5
4C2
102
{ACAD_REACTORS
330
4C0
102
}
330
4C0
100
DictionaryVariables
280
     0
  1
STANDARD
  0
DICTIONARYVAR
  5
4C1
102
{ACAD_REACTORS
330
4C0
102
}
330
4C0
100
DictionaryVariables
280
     0
  1
STANDARD
  0
DICTIONARY
  5
1A
330
19
100
AcDbDictionary
280
     1
281
     1
  3
BUMPTILE
360
1C
  3
DIFFUSETILE
360
1B
  3
OPACITYTILE
360
1F
  3
REFLECTIONTILE
360
1E
  3
REFRACTIONTILE
360
20
  3
SPECULARTILE
360
1D
  0
DICTIONARY
  5
12
330
11
100
AcDbDictionary
280
     1
281
     1
  3
BUMPTILE
360
14
  3
DIFFUSETILE
360
13
  3
OPACITYTILE
360
17
  3
REFLECTIONTILE
360
16
  3
REFRACTIONTILE
360
18
  3
SPECULARTILE
360
15
  0
DICTIONARY
  5
22
330
21
100
AcDbDictionary
280
     1
281
     1
  3
BUMPTILE
360
24
  3
DIFFUSETILE
360
23
  3
OPACITYTILE
360
27
  3
REFLECTIONTILE
360
26
  3
REFRACTIONTILE
360
28
  3
SPECULARTILE
360
25
  0
DICTIONARY
  5
4C4
330
6D
100
AcDbDictionary
280
     1
281
     1
  3
ACAD_ROUNDTRIP_2008_TABLESTYLE_CELLSTYLEMAP
360
4C5
  0
XRECORD
  5
1C
102
{ACAD_REACTORS
330
1A
102
}
330
1A
100
AcDbXrecord
280
     1
270
     1
271
     1
  0
XRECORD
  5
1B
102
{ACAD_REACTORS
330
1A
102
}
330
1A
100
AcDbXrecord
280
     1
270
     1
271
     1
  0
XRECORD
  5
1F
102
{ACAD_REACTORS
330
1A
102
}
330
1A
100
AcDbXrecord
280
     1
270
     1
271
     1
  0
XRECORD
  5
1E
102
{ACAD_REACTORS
330
1A
102
}
330
1A
100
AcDbXrecord
280
     1
270
     1
271
     1
  0
XRECORD
  5
20
102
{ACAD_REACTORS
330
1A
102
}
330
1A
100
AcDbXrecord
280
     1
270
     1
271
     1
  0
XRECORD
  5
1D
102
{ACAD_REACTORS
330
1A
102
}
330
1A
100
AcDbXrecord
280
     1
270
     1
271
     1
  0
XRECORD
  5
14
102
{ACAD_REACTORS
330
12
102
}
330
12
100
AcDbXrecord
280
     1
270
     1
271
     1
  0
XRECORD
  5
13
102
{ACAD_REACTORS
330
12
102
}
330
12
100
AcDbXrecord
280
     1
270
     1
271
     1
  0
XRECORD
  5
17
102
{ACAD_REACTORS
330
12
102
}
330
12
100
AcDbXrecord
280
     1
270
     1
271
     1
  0
XRECORD
  5
16
102
{ACAD_REACTORS
330
12
102
}
330
12
100
AcDbXrecord
280
     1
270
     1
271
     1
  0
XRECORD
  5
18
102
{ACAD_REACTORS
330
12
102
}
330
12
100
AcDbXrecord
280
     1
270
     1
271
     1
  0
XRECORD
  5
15
102
{ACAD_REACTORS
330
12
102
}
330
12
100
AcDbXrecord
280
     1
270
     1
271
     1
  0
XRECORD
  5
24
102
{ACAD_REACTORS
330
22
102
}
330
22
100
AcDbXrecord
280
     1
270
     1
271
     1
  0
XRECORD
  5
23
102
{ACAD_REACTORS
330
22
102
}
330
22
100
AcDbXrecord
280
     1
270
     1
271
     1
  0
XRECORD
  5
27
102
{ACAD_REACTORS
330
22
102
}
330
22
100
AcDbXrecord
280
     1
270
     1
271
     1
  0
XRECORD
  5
26
102
{ACAD_REACTORS
330
22
102
}
330
22
100
AcDbXrecord
280
     1
270
     1
271
     1
  0
XRECORD
  5
28
102
{ACAD_REACTORS
330
22
102
}
330
22
100
AcDbXrecord
280
     1
270
     1
271
     1
  0
XRECORD
  5
25
102
{ACAD_REACTORS
330
22
102
}
330
22
100
AcDbXrecord
280
     1
270
     1
271
     1
  0
CELLSTYLEMAP
  5
4C5
102
{ACAD_REACTORS
330
4C4
102
}
330
4C4
100
AcDbCellStyleMap
 90
        3
300
CELLSTYLE
  1
TABLEFORMAT_BEGIN
 90
        5
170
     1
 91
        0
 92
    32768
 62
   257
 93
        1
300
CONTENTFORMAT
  1
CONTENTFORMAT_BEGIN
 90
        0
 91
        0
 92
      512
 93
        0
300

 40
0.0
140
1.0
 94
        5
 62
     0
340
5D
144
0.25
309
CONTENTFORMAT_END
171
     0
 94
        0
309
TABLEFORMAT_END
  1
CELLSTYLE_BEGIN
 90
        1
 91
        1
300
_TITLE
309
CELLSTYLE_END
300
CELLSTYLE
  1
TABLEFORMAT_BEGIN
 90
        5
170
     1
 91
        0
 92
        0
 62
   257
 93
        1
300
CONTENTFORMAT
  1
CONTENTFORMAT_BEGIN
 90
        0
 91
        0
 92
      512
 93
        0
300

 40
0.0
140
1.0
 94
        5
 62
     0
340
5D
144
0.18
309
CONTENTFORMAT_END
171
     0
 94
        0
309
TABLEFORMAT_END
  1
CELLSTYLE_BEGIN
 90
        2
 91
        1
300
_HEADER
309
CELLSTYLE_END
300
CELLSTYLE
  1
TABLEFORMAT_BEGIN
 90
        5
170
     1
 91
        0
 92
        0
 62
   257
 93
        1
300
CONTENTFORMAT
  1
CONTENTFORMAT_BEGIN
 90
        0
 91
        0
 92
      512
 93
        0
300

 40
0.0
140
1.0
 94
        2
 62
     0
340
5D
144
0.18
309
CONTENTFORMAT_END
171
     0
 94
        0
309
TABLEFORMAT_END
  1
CELLSTYLE_BEGIN
 90
        3
 91
        2
300
_DATA
309
CELLSTYLE_END
  0
ENDSEC
  0
EOF
