  0
SECTION
  2
HEADER
  9
$ACADVER
  1
AC1021
  9
$ACADMAINTVER
 70
    25
  9
$DWGCODEPAGE
  3
ANSI_1252
  9
$AUTHOR
  1
User
  9
$CUSTOMPROPERTYTAG
  1
Manager
  9
$CUSTOMPROPERTY
  1

  9
$CUSTOMPROPERTYTAG
  1
Company
  9
$CUSTOMPROPERTY
  1

  9
$CUSTOMPROPERTYTAG
  1
Category
  9
$CUSTOMPROPERTY
  1

  9
$CUSTOMPROPERTYTAG
  1
Part Number
  9
$CUSTOMPROPERTY
  1
C33574 td
  9
$CUSTOMPROPERTYTAG
  1
Description
  9
$CUSTOMPROPERTY
  1

  9
$CUSTOMPROPERTYTAG
  1
Project
  9
$CUSTOMPROPERTY
  1

  9
$CUSTOMPROPERTYTAG
  1
Designer
  9
$CUSTOMPROPERTY
  1
User
  9
$CUSTOMPROPERTYTAG
  1
Engineer
  9
$CUSTOMPROPERTY
  1

  9
$CUSTOMPROPERTYTAG
  1
Authority
  9
$CUSTOMPROPERTY
  1

  9
$CUSTOMPROPERTYTAG
  1
Cost Center
  9
$CUSTOMPROPERTY
  1

  9
$CUSTOMPROPERTYTAG
  1
Vendor
  9
$CUSTOMPROPERTY
  1

  9
$CUSTOMPROPERTYTAG
  1
User Status
  9
$CUSTOMPROPERTY
  1

  9
$CUSTOMPROPERTYTAG
  1
Design Status
  9
$CUSTOMPROPERTY
  1
WorkInProgress
  9
$CUSTOMPROPERTYTAG
  1
Checked by
  9
$CUSTOMPROPERTY
  1

  9
$CUSTOMPROPERTYTAG
  1
Engr Approved by
  9
$CUSTOMPROPERTY
  1

  9
$CUSTOMPROPERTYTAG
  1
Mfg Approved by
  9
$CUSTOMPROPERTY
  1

  9
$INSBASE
 10
0.0
 20
0.0
 30
0.0
  9
$EXTMIN
 10
0.0
 20
0.0
 30
0.0
  9
$EXTMAX
 10
594.0
 20
420.0
 30
0.0
  9
$LIMMIN
 10
0.0
 20
0.0
  9
$LIMMAX
 10
594.0
 20
420.0
  9
$ORTHOMODE
 70
     0
  9
$REGENMODE
 70
     1
  9
$FILLMODE
 70
     1
  9
$QTEXTMODE
 70
     0
  9
$MIRRTEXT
 70
     0
  9
$LTSCALE
 40
2.0
  9
$ATTMODE
 70
     1
  9
$TEXTSIZE
 40
0.2
  9
$TRACEWID
 40
0.05
  9
$TEXTSTYLE
  7
Standard
  9
$CLAYER
  8
0
  9
$CELTYPE
  6
ByLayer
  9
$CECOLOR
 62
   256
  9
$CELTSCALE
 40
1.0
  9
$DISPSILH
 70
     0
  9
$DIMSCALE
 40
1.0
  9
$DIMASZ
 40
1.799999999999999
  9
$DIMEXO
 40
0.0625
  9
$DIMDLI
 40
0.38
  9
$DIMRND
 40
0.0
  9
$DIMDLE
 40
0.0
  9
$DIMEXE
 40
0.18
  9
$DIMTP
 40
0.0
  9
$DIMTM
 40
0.0
  9
$DIMTXT
 40
0.3499999940395355
  9
$DIMCEN
 40
0.09
  9
$DIMTSZ
 40
0.0
  9
$DIMTOL
 70
     0
  9
$DIMLIM
 70
     0
  9
$DIMTIH
 70
     1
  9
$DIMTOH
 70
     1
  9
$DIMSE1
 70
     0
  9
$DIMSE2
 70
     0
  9
$DIMTAD
 70
     0
  9
$DIMZIN
 70
     0
  9
$DIMBLK
  1

  9
$DIMASO
 70
     1
  9
$DIMSHO
 70
     1
  9
$DIMPOST
  1

  9
$DIMAPOST
  1

  9
$DIMALT
 70
     0
  9
$DIMALTD
 70
     2
  9
$DIMALTF
 40
25.4
  9
$DIMLFAC
 40
1.0
  9
$DIMTOFL
 70
     0
  9
$DIMTVP
 40
0.0
  9
$DIMTIX
 70
     0
  9
$DIMSOXD
 70
     0
  9
$DIMSAH
 70
     0
  9
$DIMBLK1
  1

  9
$DIMBLK2
  1

  9
$DIMSTYLE
  2
Standard
  9
$DIMCLRD
 70
     0
  9
$DIMCLRE
 70
     0
  9
$DIMCLRT
 70
     0
  9
$DIMTFAC
 40
1.0
  9
$DIMGAP
 40
0.09
  9
$DIMJUST
 70
     0
  9
$DIMSD1
 70
     0
  9
$DIMSD2
 70
     0
  9
$DIMTOLJ
 70
     1
  9
$DIMTZIN
 70
     0
  9
$DIMALTZ
 70
     0
  9
$DIMALTTZ
 70
     0
  9
$DIMUPT
 70
     0
  9
$DIMDEC
 70
     4
  9
$DIMTDEC
 70
     4
  9
$DIMALTU
 70
     2
  9
$DIMALTTD
 70
     2
  9
$DIMTXSTY
  7
Standard
  9
$DIMAUNIT
 70
     0
  9
$DIMADEC
 70
     0
  9
$DIMALTRND
 40
0.0
  9
$DIMAZIN
 70
     0
  9
$DIMDSEP
 70
    46
  9
$DIMATFIT
 70
     3
  9
$DIMFRAC
 70
     0
  9
$DIMLDRBLK
  1

  9
$DIMLUNIT
 70
     2
  9
$DIMLWD
 70
    -2
  9
$DIMLWE
 70
    -2
  9
$DIMTMOVE
 70
     0
  9
$DIMFXL
 40
1.0
  9
$DIMFXLON
 70
     0
  9
$DIMJOGANG
 40
0.7853981633974483
  9
$DIMTFILL
 70
     0
  9
$DIMTFILLCLR
 70
     0
  9
$DIMARCSYM
 70
     0
  9
$DIMLTYPE
  6

  9
$DIMLTEX1
  6

  9
$DIMLTEX2
  6

  9
$LUNITS
 70
     2
  9
$LUPREC
 70
     4
  9
$SKETCHINC
 40
0.1
  9
$FILLETRAD
 40
0.0
  9
$AUNITS
 70
     0
  9
$AUPREC
 70
     0
  9
$MENU
  1
.
  9
$ELEVATION
 40
0.0
  9
$PELEVATION
 40
0.0
  9
$THICKNESS
 40
0.0
  9
$LIMCHECK
 70
     0
  9
$CHAMFERA
 40
0.0
  9
$CHAMFERB
 40
0.0
  9
$CHAMFERC
 40
0.0
  9
$CHAMFERD
 40
0.0
  9
$SKPOLY
 70
     0
  9
$TDCREATE
 40
2454312.701271157
  9
$TDUCREATE
 40
2454312.367937824
  9
$TDUPDATE
 40
2454312.701271157
  9
$TDUUPDATE
 40
2454312.367937824
  9
$TDINDWG
 40
0.0000059722
  9
$TDUSRTIMER
 40
0.0000059722
  9
$USRTIMER
 70
     1
  9
$ANGBASE
 50
0.0
  9
$ANGDIR
 70
     0
  9
$PDMODE
 70
     0
  9
$PDSIZE
 40
0.0
  9
$PLINEWID
 40
0.0
  9
$SPLFRAME
 70
     0
  9
$SPLINETYPE
 70
     6
  9
$SPLINESEGS
 70
     8
  9
$HANDSEED
  5
607
  9
$SURFTAB1
 70
     6
  9
$SURFTAB2
 70
     6
  9
$SURFTYPE
 70
     6
  9
$SURFU
 70
     6
  9
$SURFV
 70
     6
  9
$UCSBASE
  2

  9
$UCSNAME
  2

  9
$UCSORG
 10
0.0
 20
0.0
 30
0.0
  9
$UCSXDIR
 10
1.0
 20
0.0
 30
0.0
  9
$UCSYDIR
 10
0.0
 20
1.0
 30
0.0
  9
$UCSORTHOREF
  2

  9
$UCSORTHOVIEW
 70
     0
  9
$UCSORGTOP
 10
0.0
 20
0.0
 30
0.0
  9
$UCSORGBOTTOM
 10
0.0
 20
0.0
 30
0.0
  9
$UCSORGLEFT
 10
0.0
 20
0.0
 30
0.0
  9
$UCSORGRIGHT
 10
0.0
 20
0.0
 30
0.0
  9
$UCSORGFRONT
 10
0.0
 20
0.0
 30
0.0
  9
$UCSORGBACK
 10
0.0
 20
0.0
 30
0.0
  9
$PUCSBASE
  2

  9
$PUCSNAME
  2

  9
$PUCSORG
 10
0.0
 20
0.0
 30
0.0
  9
$PUCSXDIR
 10
1.0
 20
0.0
 30
0.0
  9
$PUCSYDIR
 10
0.0
 20
1.0
 30
0.0
  9
$PUCSORTHOREF
  2

  9
$PUCSORTHOVIEW
 70
     0
  9
$PUCSORGTOP
 10
0.0
 20
0.0
 30
0.0
  9
$PUCSORGBOTTOM
 10
0.0
 20
0.0
 30
0.0
  9
$PUCSORGLEFT
 10
0.0
 20
0.0
 30
0.0
  9
$PUCSORGRIGHT
 10
0.0
 20
0.0
 30
0.0
  9
$PUCSORGFRONT
 10
0.0
 20
0.0
 30
0.0
  9
$PUCSORGBACK
 10
0.0
 20
0.0
 30
0.0
  9
$USERI1
 70
     0
  9
$USERI2
 70
     0
  9
$USERI3
 70
     0
  9
$USERI4
 70
     0
  9
$USERI5
 70
     0
  9
$USERR1
 40
0.0
  9
$USERR2
 40
0.0
  9
$USERR3
 40
0.0
  9
$USERR4
 40
0.0
  9
$USERR5
 40
0.0
  9
$WORLDVIEW
 70
     1
  9
$SHADEDGE
 70
     3
  9
$SHADEDIF
 70
    70
  9
$TILEMODE
 70
     1
  9
$MAXACTVP
 70
    64
  9
$PINSBASE
 10
0.0
 20
0.0
 30
0.0
  9
$PLIMCHECK
 70
     0
  9
$PEXTMIN
 10
0.0
 20
0.0
 30
0.0
  9
$PEXTMAX
 10
594.0
 20
420.0
 30
0.0
  9
$PLIMMIN
 10
0.0
 20
0.0
  9
$PLIMMAX
 10
594.0
 20
420.0
  9
$UNITMODE
 70
     0
  9
$VISRETAIN
 70
     1
  9
$PLINEGEN
 70
     0
  9
$PSLTSCALE
 70
     1
  9
$TREEDEPTH
 70
  3020
  9
$CMLSTYLE
  2
Standard
  9
$CMLJUST
 70
     0
  9
$CMLSCALE
 40
1.0
  9
$PROXYGRAPHICS
 70
     1
  9
$MEASUREMENT
 70
     1
  9
$CELWEIGHT
370
    -1
  9
$ENDCAPS
280
     0
  9
$JOINSTYLE
280
     0
  9
$LWDISPLAY
290
     0
  9
$INSUNITS
 70
     4
  9
$HYPERLINKBASE
  1

  9
$STYLESHEET
  1

  9
$XEDIT
290
     1
  9
$CEPSNTYPE
380
     0
  9
$PSTYLEMODE
290
     1
  9
$FINGERPRINTGUID
  2
{EFD9D9E2-B084-458B-825C-DCFED1706EF1}
  9
$VERSIONGUID
  2
{E7361AB2-FC0A-40F2-84EA-ADFCC0F0CCDC}
  9
$EXTNAMES
290
     1
  9
$PSVPSCALE
 40
0.0
  9
$OLESTARTUP
290
     0
  9
$SORTENTS
280
   127
  9
$INDEXCTL
280
     0
  9
$HIDETEXT
280
     1
  9
$XCLIPFRAME
290
     0
  9
$HALOGAP
280
     0
  9
$OBSCOLOR
 70
   257
  9
$OBSLTYPE
280
     0
  9
$INTERSECTIONDISPLAY
280
     0
  9
$INTERSECTIONCOLOR
 70
   257
  9
$DIMASSOC
280
     1
  9
$PROJECTNAME
  1

  9
$CAMERADISPLAY
290
     0
  9
$LENSLENGTH
 40
50.0
  9
$CAMERAHEIGHT
 40
0.0
  9
$STEPSPERSEC
 40
2.0
  9
$STEPSIZE
 40
6.0
  9
$3DDWFPREC
 40
2.0
  9
$PSOLWIDTH
 40
0.25
  9
$PSOLHEIGHT
 40
4.0
  9
$LOFTANG1
 40
1.570796326794896
  9
$LOFTANG2
 40
1.570796326794896
  9
$LOFTMAG1
 40
0.0
  9
$LOFTMAG2
 40
0.0
  9
$LOFTPARAM
 70
     7
  9
$LOFTNORMALS
280
     1
  9
$LATITUDE
 40
37.795
  9
$LONGITUDE
 40
-122.394
  9
$NORTHDIRECTION
 40
0.0
  9
$TIMEZONE
 70
 -8000
  9
$LIGHTGLYPHDISPLAY
280
     1
  9
$TILEMODELIGHTSYNCH
280
     1
  9
$CMATERIAL
347
11
  9
$SOLIDHIST
280
     1
  9
$SHOWHIST
280
     1
  9
$DWFFRAME
280
     2
  9
$DGNFRAME
280
     0
  9
$REALWORLDSCALE
290
     1
  9
$INTERFERECOLOR
 62
     1
  9
$INTERFEREOBJVS
345
33
  9
$INTERFEREVPVS
346
30
  9
$CSHADOW
280
     0
  9
$SHADOWPLANELOCATION
 40
0.0
  0
ENDSEC
  0
SECTION
  2
CLASSES
  0
CLASS
  1
ACDBDICTIONARYWDFLT
  2
AcDbDictionaryWithDefault
  3
ObjectDBX Classes
 90
        0
 91
        1
280
     0
281
     0
  0
CLASS
  1
MATERIAL
  2
AcDbMaterial
  3
ObjectDBX Classes
 90
     1153
 91
        3
280
     0
281
     0
  0
CLASS
  1
VISUALSTYLE
  2
AcDbVisualStyle
  3
ObjectDBX Classes
 90
     4095
 91
       16
280
     0
281
     0
  0
CLASS
  1
SCALE
  2
AcDbScale
  3
ObjectDBX Classes
 90
     1153
 91
       33
280
     0
281
     0
  0
CLASS
  1
TABLESTYLE
  2
AcDbTableStyle
  3
ObjectDBX Classes
 90
     4095
 91
        1
280
     0
281
     0
  0
CLASS
  1
MLEADERSTYLE
  2
AcDbMLeaderStyle
  3
ACDB_MLEADERSTYLE_CLASS
 90
     4095
 91
        1
280
     0
281
     0
  0
CLASS
  1
DICTIONARYVAR
  2
AcDbDictionaryVar
  3
ObjectDBX Classes
 90
        0
 91
        3
280
     0
281
     0
  0
CLASS
  1
CELLSTYLEMAP
  2
AcDbCellStyleMap
  3
ObjectDBX Classes
 90
     1152
 91
        1
280
     0
281
     0
  0
ENDSEC
  0
SECTION
  2
TABLES
  0
TABLE
  2
VPORT
  5
8
330
0
100
AcDbSymbolTable
 70
     1
  0
VPORT
  5
5F
330
8
100
AcDbSymbolTableRecord
100
AcDbViewportTableRecord
  2
*Active
 70
     0
 10
0.0
 20
0.0
 11
1.0
 21
1.0
 12
297.0
 22
210.0
 13
0.0
 23
0.0
 14
1.0
 24
1.0
 15
0.0
 25
0.0
 16
0.0
 26
0.0
 36
1.0
 17
0.0
 27
0.0
 37
0.0
 40
420.0
 41
1.414285714285714
 42
50.0
 43
0.0
 44
0.0
 50
0.0
 51
0.0
 71
     0
 72
   100
 73
     1
 74
     1
 75
     0
 76
     0
 77
     0
 78
     0
281
     0
 65
     1
110
0.0
120
0.0
130
0.0
111
1.0
121
0.0
131
0.0
112
0.0
122
1.0
132
0.0
 79
     0
146
0.0
 60
     3
 61
     5
292
     1
282
     1
141
0.0
142
0.0
 63
   250
421
  3355443
  0
ENDTAB
  0
TABLE
  2
LTYPE
  5
5
330
0
100
AcDbSymbolTable
 70
    59
  0
LTYPE
  5
63
330
5
100
AcDbSymbolTableRecord
100
AcDbLinetypeTableRecord
  2
ByBlock
 70
     0
  3

 72
    65
 73
     0
 40
0.0
  0
LTYPE
  5
64
330
5
100
AcDbSymbolTableRecord
100
AcDbLinetypeTableRecord
  2
ByLayer
 70
     0
  3

 72
    65
 73
     0
 40
0.0
  0
LTYPE
  5
65
330
5
100
AcDbSymbolTableRecord
100
AcDbLinetypeTableRecord
  2
Continuous
 70
     0
  3
Solid line
 72
    65
 73
     0
 40
0.0
  0
LTYPE
  5
7D
330
5
100
AcDbSymbolTableRecord
100
AcDbLinetypeTableRecord
  2
BY_STANDARD
 70
     0
  3
By Standard ____________    ____    ____   _
 72
    65
 73
     6
 40
1.240299999999999
 49
0.6614
 74
     0
 49
-0.0827
 74
     0
 49
0.1654
 74
     0
 49
-0.0827
 74
     0
 49
0.1654
 74
     0
 49
-0.0827
 74
     0
  0
LTYPE
  5
7E
330
5
100
AcDbSymbolTableRecord
100
AcDbLinetypeTableRecord
  2
CHAIN
 70
     0
  3
Chain ____ _ ____ _ ____ _ ____ _ ____ _ ____
 72
    65
 73
     4
 40
0.7087
 49
0.4724000000000001
 74
     0
 49
-0.0591
 74
     0
 49
0.1181
 74
     0
 49
-0.0591
 74
     0
  0
LTYPE
  5
7F
330
5
100
AcDbSymbolTableRecord
100
AcDbLinetypeTableRecord
  2
DASH_DOT
 70
     0
  3
Dash dot __ . __ . __ . __ . __ . __ . __ . __
 72
    65
 73
     4
 40
0.37
 49
0.24
 74
     0
 49
-0.06
 74
     0
 49
0.01
 74
     0
 49
-0.06
 74
     0
  0
LTYPE
  5
80
330
5
100
AcDbSymbolTableRecord
100
AcDbLinetypeTableRecord
  2
DOUBLE_DASH_DOT
 70
     0
  3
Double-Dash Dot __ __ . __ __ . __ __ . __ _
 72
    65
 73
     6
 40
0.4398
 49
0.24
 74
     0
 49
-0.06
 74
     0
 49
0.0098
 74
     0
 49
-0.06
 74
     0
 49
0.01
 74
     0
 49
-0.06
 74
     0
  0
LTYPE
  5
81
330
5
100
AcDbSymbolTableRecord
100
AcDbLinetypeTableRecord
  2
DASH_TRIPLE_DOT
 70
     0
  3
Dash Triple-Dot _ . . . _ . . . _ . . . _
 72
    65
 73
     8
 40
0.51
 49
0.24
 74
     0
 49
-0.06
 74
     0
 49
0.01
 74
     0
 49
-0.06
 74
     0
 49
0.01
 74
     0
 49
-0.06
 74
     0
 49
0.01
 74
     0
 49
-0.06
 74
     0
  0
LTYPE
  5
82
330
5
100
AcDbSymbolTableRecord
100
AcDbLinetypeTableRecord
  2
DASHED
 70
     0
  3
Dashed __ __ __ __ __ __ __ __ __ __ __ __ __ _
 72
    65
 73
     2
 40
0.2067
 49
0.1654
 74
     0
 49
-0.0413
 74
     0
  0
LTYPE
  5
83
330
5
100
AcDbSymbolTableRecord
100
AcDbLinetypeTableRecord
  2
DASH_DOUBLE_DOT
 70
     0
  3
Dash Double-Dot __ . . __ . . __ . . __ . .
 72
    65
 73
     6
 40
0.4398
 49
0.24
 74
     0
 49
-0.06
 74
     0
 49
0.0098
 74
     0
 49
-0.06
 74
     0
 49
0.01
 74
     0
 49
-0.06
 74
     0
  0
LTYPE
  5
84
330
5
100
AcDbSymbolTableRecord
100
AcDbLinetypeTableRecord
  2
DASHED_SPACE
 70
     0
  3
Dashed Space __ __ __ __ __ __ __ __ __ __ __ _
 72
    65
 73
     2
 40
0.2067
 49
0.1654
 74
     0
 49
-0.0413
 74
     0
  0
LTYPE
  5
85
330
5
100
AcDbSymbolTableRecord
100
AcDbLinetypeTableRecord
  2
DOTTED
 70
     0
  3
Dotted . . . . . . . . . . . . . . . . . . . . 
 72
    65
 73
     2
 40
0.0482
 49
0.0069
 74
     0
 49
-0.0413
 74
     0
  0
LTYPE
  5
86
330
5
100
AcDbSymbolTableRecord
100
AcDbLinetypeTableRecord
  2
DOUBLE_DASH_CHAIN
 70
     0
  3
Double-Dash Chain ______  __  __  ______  __  _
 72
    65
 73
     6
 40
1.240299999999999
 49
0.6614
 74
     0
 49
-0.0827
 74
     0
 49
0.1654
 74
     0
 49
-0.0827
 74
     0
 49
0.1654
 74
     0
 49
-0.0827
 74
     0
  0
LTYPE
  5
88
330
5
100
AcDbSymbolTableRecord
100
AcDbLinetypeTableRecord
  2
DOUBLE_DASH_DOUBLE_DOT
 70
     0
  3
Double-Dash Double-dot _ _ . . _ _ . . _
 72
    65
 73
     8
 40
0.7400000000000001
 49
0.24
 74
     0
 49
-0.06
 74
     0
 49
0.24
 74
     0
 49
-0.06
 74
     0
 49
0.01
 74
     0
 49
-0.06
 74
     0
 49
0.01
 74
     0
 49
-0.06
 74
     0
  0
LTYPE
  5
89
330
5
100
AcDbSymbolTableRecord
100
AcDbLinetypeTableRecord
  2
DOUBLE_DASH_TRIPLE_DOT
 70
     0
  3
Double Dash Triple Dot __ __ . . . __ __ . .
 72
    65
 73
    10
 40
0.8100000000000001
 49
0.24
 74
     0
 49
-0.06
 74
     0
 49
0.24
 74
     0
 49
-0.06
 74
     0
 49
0.01
 74
     0
 49
-0.06
 74
     0
 49
0.01
 74
     0
 49
-0.06
 74
     0
 49
0.01
 74
     0
 49
-0.06
 74
     0
  0
LTYPE
  5
8A
330
5
100
AcDbSymbolTableRecord
100
AcDbLinetypeTableRecord
  2
LONG_DASH_DOTTED
 70
     0
  3
Long Dash Dotted ____ . ____ . ____ . ____ . _
 72
    65
 73
     4
 40
0.3543
 49
0.2362
 74
     0
 49
-0.0295
 74
     0
 49
0.0591
 74
     0
 49
-0.0295
 74
     0
  0
LTYPE
  5
8B
330
5
100
AcDbSymbolTableRecord
100
AcDbLinetypeTableRecord
  2
LONG_DASH_DOUBLE_DOT
 70
     0
  3
Long Dash Double Dot ________  .  .  ________  
 72
    65
 73
     6
 40
0.6799999999999999
 49
0.48
 74
     0
 49
-0.06
 74
     0
 49
0.01
 74
     0
 49
-0.06
 74
     0
 49
0.01
 74
     0
 49
-0.06
 74
     0
  0
LTYPE
  5
8C
330
5
100
AcDbSymbolTableRecord
100
AcDbLinetypeTableRecord
  2
LONG_DASH_TRIPLE_DOT
 70
     0
  3
Long Dash Triple Dot ____ ... ____ ... ____
 72
    65
 73
     8
 40
0.3689
 49
0.2362
 74
     0
 49
-0.0295
 74
     0
 49
0.0049
 74
     0
 49
-0.0295
 74
     0
 49
0.0049
 74
     0
 49
-0.0295
 74
     0
 49
0.0049
 74
     0
 49
-0.0295
 74
     0
  0
LTYPE
  5
8D
330
5
100
AcDbSymbolTableRecord
100
AcDbLinetypeTableRecord
  2
BORDER
 70
     0
  3
Border __ __ . __ __ . __ __ . __ __ . __ __ .
 72
    65
 73
     6
 40
1.75
 49
0.5
 74
     0
 49
-0.25
 74
     0
 49
0.5
 74
     0
 49
-0.25
 74
     0
 49
0.0
 74
     0
 49
-0.25
 74
     0
  0
LTYPE
  5
8E
330
5
100
AcDbSymbolTableRecord
100
AcDbLinetypeTableRecord
  2
BORDER2
 70
     0
  3
Border (.5x) __.__.__.__.__.__.__.__.__.__.__.
 72
    65
 73
     6
 40
0.875
 49
0.25
 74
     0
 49
-0.125
 74
     0
 49
0.25
 74
     0
 49
-0.125
 74
     0
 49
0.0
 74
     0
 49
-0.125
 74
     0
  0
LTYPE
  5
8F
330
5
100
AcDbSymbolTableRecord
100
AcDbLinetypeTableRecord
  2
BORDERX2
 70
     0
  3
Border (2x) ____  ____  .  ____  ____  .  ___
 72
    65
 73
     6
 40
3.5
 49
1.0
 74
     0
 49
-0.5
 74
     0
 49
1.0
 74
     0
 49
-0.5
 74
     0
 49
0.0
 74
     0
 49
-0.5
 74
     0
  0
LTYPE
  5
90
330
5
100
AcDbSymbolTableRecord
100
AcDbLinetypeTableRecord
  2
CENTER
 70
     0
  3
Center ____ _ ____ _ ____ _ ____ _ ____ _ ____
 72
    65
 73
     4
 40
2.0
 49
1.25
 74
     0
 49
-0.25
 74
     0
 49
0.25
 74
     0
 49
-0.25
 74
     0
  0
LTYPE
  5
91
330
5
100
AcDbSymbolTableRecord
100
AcDbLinetypeTableRecord
  2
CENTER2
 70
     0
  3
Center (.5x) ___ _ ___ _ ___ _ ___ _ ___ _ ___
 72
    65
 73
     4
 40
1.125
 49
0.75
 74
     0
 49
-0.125
 74
     0
 49
0.125
 74
     0
 49
-0.125
 74
     0
  0
LTYPE
  5
92
330
5
100
AcDbSymbolTableRecord
100
AcDbLinetypeTableRecord
  2
CENTERX2
 70
     0
  3
Center (2x) ________  __  ________  __  _____
 72
    65
 73
     4
 40
4.0
 49
2.5
 74
     0
 49
-0.5
 74
     0
 49
0.5
 74
     0
 49
-0.5
 74
     0
  0
LTYPE
  5
93
330
5
100
AcDbSymbolTableRecord
100
AcDbLinetypeTableRecord
  2
DASHDOT2
 70
     0
  3
Dash dot (.5x) _._._._._._._._._._._._._._._.
 72
    65
 73
     4
 40
0.5
 49
0.25
 74
     0
 49
-0.125
 74
     0
 49
0.0
 74
     0
 49
-0.125
 74
     0
  0
LTYPE
  5
94
330
5
100
AcDbSymbolTableRecord
100
AcDbLinetypeTableRecord
  2
DASHDOTX2
 70
     0
  3
Dash dot (2x) ____  .  ____  .  ____  .  ___
 72
    65
 73
     4
 40
2.0
 49
1.0
 74
     0
 49
-0.5
 74
     0
 49
0.0
 74
     0
 49
-0.5
 74
     0
  0
LTYPE
  5
96
330
5
100
AcDbSymbolTableRecord
100
AcDbLinetypeTableRecord
  2
DASHED2
 70
     0
  3
Dashed (.5x) _ _ _ _ _ _ _ _ _ _ _ _ _ _ _ _ _
 72
    65
 73
     2
 40
0.375
 49
0.25
 74
     0
 49
-0.125
 74
     0
  0
LTYPE
  5
97
330
5
100
AcDbSymbolTableRecord
100
AcDbLinetypeTableRecord
  2
DASHEDX2
 70
     0
  3
Dashed (2x) ____  ____  ____  ____  ____  ___
 72
    65
 73
     2
 40
1.5
 49
1.0
 74
     0
 49
-0.5
 74
     0
  0
LTYPE
  5
98
330
5
100
AcDbSymbolTableRecord
100
AcDbLinetypeTableRecord
  2
DIVIDE
 70
     0
  3
Divide ____ . . ____ . . ____ . . ____ . . ____
 72
    65
 73
     6
 40
1.25
 49
0.5
 74
     0
 49
-0.25
 74
     0
 49
0.0
 74
     0
 49
-0.25
 74
     0
 49
0.0
 74
     0
 49
-0.25
 74
     0
  0
LTYPE
  5
99
330
5
100
AcDbSymbolTableRecord
100
AcDbLinetypeTableRecord
  2
DIVIDE2
 70
     0
  3
Divide (.5x) __..__..__..__..__..__..__..__.._
 72
    65
 73
     6
 40
0.625
 49
0.25
 74
     0
 49
-0.125
 74
     0
 49
0.0
 74
     0
 49
-0.125
 74
     0
 49
0.0
 74
     0
 49
-0.125
 74
     0
  0
LTYPE
  5
9A
330
5
100
AcDbSymbolTableRecord
100
AcDbLinetypeTableRecord
  2
DIVIDEX2
 70
     0
  3
Divide (2x) ________  .  .  ________  .  .  _
 72
    65
 73
     6
 40
2.5
 49
1.0
 74
     0
 49
-0.5
 74
     0
 49
0.0
 74
     0
 49
-0.5
 74
     0
 49
0.0
 74
     0
 49
-0.5
 74
     0
  0
LTYPE
  5
9B
330
5
100
AcDbSymbolTableRecord
100
AcDbLinetypeTableRecord
  2
DOT
 70
     0
  3
Dot . . . . . . . . . . . . . . . . . . . . . .
 72
    65
 73
     2
 40
0.25
 49
0.0
 74
     0
 49
-0.25
 74
     0
  0
LTYPE
  5
9C
330
5
100
AcDbSymbolTableRecord
100
AcDbLinetypeTableRecord
  2
DOT2
 70
     0
  3
Dot (.5x) .....................................
 72
    65
 73
     2
 40
0.125
 49
0.0
 74
     0
 49
-0.125
 74
     0
  0
LTYPE
  5
9D
330
5
100
AcDbSymbolTableRecord
100
AcDbLinetypeTableRecord
  2
DOTX2
 70
     0
  3
Dot (2x) .  .  .  .  .  .  .  .  .  .  .  .  . 
 72
    65
 73
     2
 40
0.5
 49
0.0
 74
     0
 49
-0.5
 74
     0
  0
LTYPE
  5
9E
330
5
100
AcDbSymbolTableRecord
100
AcDbLinetypeTableRecord
  2
HIDDEN
 70
     0
  3
Hidden __ __ __ __ __ __ __ __ __ __ __ __ __ _
 72
    65
 73
     2
 40
0.375
 49
0.25
 74
     0
 49
-0.125
 74
     0
  0
LTYPE
  5
9F
330
5
100
AcDbSymbolTableRecord
100
AcDbLinetypeTableRecord
  2
HIDDEN2
 70
     0
  3
Hidden (.5x) _ _ _ _ _ _ _ _ _ _ _ _ _ _ _ _ _
 72
    65
 73
     2
 40
0.1875
 49
0.125
 74
     0
 49
-0.0625
 74
     0
  0
LTYPE
  5
A0
330
5
100
AcDbSymbolTableRecord
100
AcDbLinetypeTableRecord
  2
HIDDENX2
 70
     0
  3
Hidden (2x) ____ ____ ____ ____ ____ ____ ____
 72
    65
 73
     2
 40
0.75
 49
0.5
 74
     0
 49
-0.25
 74
     0
  0
LTYPE
  5
A1
330
5
100
AcDbSymbolTableRecord
100
AcDbLinetypeTableRecord
  2
PHANTOM
 70
     0
  3
Phantom ______  __  __  ______  __  __  ______
 72
    65
 73
     6
 40
2.5
 49
1.25
 74
     0
 49
-0.25
 74
     0
 49
0.25
 74
     0
 49
-0.25
 74
     0
 49
0.25
 74
     0
 49
-0.25
 74
     0
  0
LTYPE
  5
A2
330
5
100
AcDbSymbolTableRecord
100
AcDbLinetypeTableRecord
  2
PHANTOM2
 70
     0
  3
Phantom (.5x) ___ _ _ ___ _ _ ___ _ _ ___ _ _
 72
    65
 73
     6
 40
1.25
 49
0.625
 74
     0
 49
-0.125
 74
     0
 49
0.125
 74
     0
 49
-0.125
 74
     0
 49
0.125
 74
     0
 49
-0.125
 74
     0
  0
LTYPE
  5
A3
330
5
100
AcDbSymbolTableRecord
100
AcDbLinetypeTableRecord
  2
PHANTOMX2
 70
     0
  3
Phantom (2x) ____________    ____    ____   _
 72
    65
 73
     6
 40
5.0
 49
2.5
 74
     0
 49
-0.5
 74
     0
 49
0.5
 74
     0
 49
-0.5
 74
     0
 49
0.5
 74
     0
 49
-0.5
 74
     0
  0
LTYPE
  5
A4
330
5
100
AcDbSymbolTableRecord
100
AcDbLinetypeTableRecord
  2
ACAD_ISO02W100
 70
     0
  3
ISO dash __ __ __ __ __ __ __ __ __ __ __ __ __
 72
    65
 73
     2
 40
0.59
 49
0.47
 74
     0
 49
-0.12
 74
     0
  0
LTYPE
  5
A5
330
5
100
AcDbSymbolTableRecord
100
AcDbLinetypeTableRecord
  2
ACAD_ISO03W100
 70
     0
  3
ISO dash space __    __    __    __    __    __
 72
    65
 73
     2
 40
1.179999999999999
 49
0.47
 74
     0
 49
-0.71
 74
     0
  0
LTYPE
  5
A6
330
5
100
AcDbSymbolTableRecord
100
AcDbLinetypeTableRecord
  2
ACAD_ISO04W100
 70
     0
  3
ISO long-dash dot ____ . ____ . ____ . ____ . _
 72
    65
 73
     4
 40
1.179999999999999
 49
0.9399999999999998
 74
     0
 49
-0.12
 74
     0
 49
0.0
 74
     0
 49
-0.12
 74
     0
  0
LTYPE
  5
A7
330
5
100
AcDbSymbolTableRecord
100
AcDbLinetypeTableRecord
  2
ACAD_ISO05W100
 70
     0
  3
ISO long-dash double-dot ____ .. ____ .. ____ .
 72
    65
 73
     6
 40
1.299999999999999
 49
0.9399999999999998
 74
     0
 49
-0.12
 74
     0
 49
0.0
 74
     0
 49
-0.12
 74
     0
 49
0.0
 74
     0
 49
-0.12
 74
     0
  0
LTYPE
  5
A8
330
5
100
AcDbSymbolTableRecord
100
AcDbLinetypeTableRecord
  2
ACAD_ISO06W100
 70
     0
  3
ISO long-dash triple-dot ____ ... ____ ... ____
 72
    65
 73
     8
 40
1.419999999999999
 49
0.9399999999999998
 74
     0
 49
-0.12
 74
     0
 49
0.0
 74
     0
 49
-0.12
 74
     0
 49
0.0
 74
     0
 49
-0.12
 74
     0
 49
0.0
 74
     0
 49
-0.12
 74
     0
  0
LTYPE
  5
A9
330
5
100
AcDbSymbolTableRecord
100
AcDbLinetypeTableRecord
  2
ACAD_ISO07W100
 70
     0
  3
ISO dot . . . . . . . . . . . . . . . . . . . .
 72
    65
 73
     2
 40
0.12
 49
0.0
 74
     0
 49
-0.12
 74
     0
  0
LTYPE
  5
AA
330
5
100
AcDbSymbolTableRecord
100
AcDbLinetypeTableRecord
  2
ACAD_ISO08W100
 70
     0
  3
ISO long-dash short-dash ____ __ ____ __ ____ _
 72
    65
 73
     4
 40
0.95
 49
0.47
 74
     0
 49
-0.12
 74
     0
 49
0.24
 74
     0
 49
-0.12
 74
     0
  0
LTYPE
  5
AB
330
5
100
AcDbSymbolTableRecord
100
AcDbLinetypeTableRecord
  2
ACAD_ISO09W100
 70
     0
  3
ISO long-dash double-short-dash ____ __ __ ____
 72
    65
 73
     6
 40
1.31
 49
0.47
 74
     0
 49
-0.12
 74
     0
 49
0.24
 74
     0
 49
-0.12
 74
     0
 49
0.24
 74
     0
 49
-0.12
 74
     0
  0
LTYPE
  5
AC
330
5
100
AcDbSymbolTableRecord
100
AcDbLinetypeTableRecord
  2
ACAD_ISO10W100
 70
     0
  3
ISO dash dot __ . __ . __ . __ . __ . __ . __ .
 72
    65
 73
     4
 40
0.71
 49
0.47
 74
     0
 49
-0.12
 74
     0
 49
0.0
 74
     0
 49
-0.12
 74
     0
  0
LTYPE
  5
AD
330
5
100
AcDbSymbolTableRecord
100
AcDbLinetypeTableRecord
  2
ACAD_ISO11W100
 70
     0
  3
ISO double-dash dot __ __ . __ __ . __ __ . __ 
 72
    65
 73
     6
 40
1.299999999999999
 49
0.47
 74
     0
 49
-0.12
 74
     0
 49
0.47
 74
     0
 49
-0.12
 74
     0
 49
0.0
 74
     0
 49
-0.12
 74
     0
  0
LTYPE
  5
AE
330
5
100
AcDbSymbolTableRecord
100
AcDbLinetypeTableRecord
  2
ACAD_ISO12W100
 70
     0
  3
ISO dash double-dot __ . . __ . . __ . . __ . .
 72
    65
 73
     6
 40
0.8299999999999998
 49
0.47
 74
     0
 49
-0.12
 74
     0
 49
0.0
 74
     0
 49
-0.12
 74
     0
 49
0.0
 74
     0
 49
-0.12
 74
     0
  0
LTYPE
  5
AF
330
5
100
AcDbSymbolTableRecord
100
AcDbLinetypeTableRecord
  2
ACAD_ISO13W100
 70
     0
  3
ISO double-dash double-dot __ __ . . __ __ . . 
 72
    65
 73
     8
 40
1.419999999999999
 49
0.47
 74
     0
 49
-0.12
 74
     0
 49
0.47
 74
     0
 49
-0.12
 74
     0
 49
0.0
 74
     0
 49
-0.12
 74
     0
 49
0.0
 74
     0
 49
-0.12
 74
     0
  0
LTYPE
  5
B0
330
5
100
AcDbSymbolTableRecord
100
AcDbLinetypeTableRecord
  2
ACAD_ISO14W100
 70
     0
  3
ISO dash triple-dot __ . . . __ . . . __ . . . 
 72
    65
 73
     8
 40
0.95
 49
0.47
 74
     0
 49
-0.12
 74
     0
 49
0.0
 74
     0
 49
-0.12
 74
     0
 49
0.0
 74
     0
 49
-0.12
 74
     0
 49
0.0
 74
     0
 49
-0.12
 74
     0
  0
LTYPE
  5
B1
330
5
100
AcDbSymbolTableRecord
100
AcDbLinetypeTableRecord
  2
ACAD_ISO15W100
 70
     0
  3
ISO double-dash triple-dot __ __ . . . __ __ . 
 72
    65
 73
    10
 40
1.539999999999999
 49
0.47
 74
     0
 49
-0.12
 74
     0
 49
0.47
 74
     0
 49
-0.12
 74
     0
 49
0.0
 74
     0
 49
-0.12
 74
     0
 49
0.0
 74
     0
 49
-0.12
 74
     0
 49
0.0
 74
     0
 49
-0.12
 74
     0
  0
LTYPE
  5
B4
330
5
100
AcDbSymbolTableRecord
100
AcDbLinetypeTableRecord
  2
FENCELINE1
 70
     0
  3
Fenceline circle ----0-----0----0-----0----0---
 72
    65
 73
     4
 40
1.45
 49
0.25
 74
     0
 49
-0.1
 74
     4
 75
   133
340
B3
 46
0.1
 50
0.0
 44
-0.1
 45
0.0
 49
-0.1
 74
     0
 49
1.0
 74
     0
  0
LTYPE
  5
B5
330
5
100
AcDbSymbolTableRecord
100
AcDbLinetypeTableRecord
  2
FENCELINE2
 70
     0
  3
Fenceline square ----[]-----[]----[]-----[]----
 72
    65
 73
     4
 40
1.45
 49
0.25
 74
     0
 49
-0.1
 74
     4
 75
   132
340
B3
 46
0.1
 50
0.0
 44
-0.1
 45
0.0
 49
-0.1
 74
     0
 49
1.0
 74
     0
  0
LTYPE
  5
B6
330
5
100
AcDbSymbolTableRecord
100
AcDbLinetypeTableRecord
  2
TRACKS
 70
     0
  3
Tracks -|-|-|-|-|-|-|-|-|-|-|-|-|-|-|-|-|-|-|-|
 72
    65
 73
     2
 40
0.3
 49
0.15
 74
     4
 75
   130
340
B3
 46
0.25
 50
0.0
 44
0.0
 45
0.0
 49
0.15
 74
     0
  0
LTYPE
  5
B7
330
5
100
AcDbSymbolTableRecord
100
AcDbLinetypeTableRecord
  2
BATTING
 70
     0
  3
Batting SSSSSSSSSSSSSSSSSSSSSSSSSSSSSSSSSSSSSSS
 72
    65
 73
     4
 40
0.4001000000000001
 49
0.0001
 74
     0
 49
-0.1
 74
     4
 75
   134
340
B3
 46
0.1
 50
0.0
 44
-0.1
 45
0.0
 49
-0.2
 74
     4
 75
   134
340
B3
 46
0.1
 50
180.0
 44
0.1
 45
0.0
 49
-0.1
 74
     0
  0
LTYPE
  5
B8
330
5
100
AcDbSymbolTableRecord
100
AcDbLinetypeTableRecord
  2
HOT_WATER_SUPPLY
 70
     0
  3
Hot water supply ---- HW ---- HW ---- HW ----
 72
    65
 73
     3
 40
0.9
 49
0.5
 74
     0
 49
-0.2
 74
     2
 75
     0
340
5D
 46
0.1
 50
0.0
 44
-0.1
 45
-0.05
  9
HW
 49
-0.2
 74
     0
  0
LTYPE
  5
B9
330
5
100
AcDbSymbolTableRecord
100
AcDbLinetypeTableRecord
  2
GAS_LINE
 70
     0
  3
Gas line ----GAS----GAS----GAS----GAS----GAS---
 72
    65
 73
     3
 40
0.95
 49
0.5
 74
     0
 49
-0.2
 74
     2
 75
     0
340
5D
 46
0.1
 50
0.0
 44
-0.1
 45
-0.05
  9
GAS
 49
-0.25
 74
     0
  0
LTYPE
  5
BA
330
5
100
AcDbSymbolTableRecord
100
AcDbLinetypeTableRecord
  2
ZIGZAG
 70
     0
  3
Zig zag /\/\/\/\/\/\/\/\/\/\/\/\/\/\/\/\/\/\/\/
 72
    65
 73
     4
 40
0.8001000000000001
 49
0.0001
 74
     0
 49
-0.2
 74
     4
 75
   131
340
B3
 46
0.2
 50
0.0
 44
-0.2
 45
0.0
 49
-0.4
 74
     4
 75
   131
340
B3
 46
0.2
 50
180.0
 44
0.2
 45
0.0
 49
-0.2
 74
     0
  0
ENDTAB
  0
TABLE
  2
LAYER
  5
2
330
0
100
AcDbSymbolTable
 70
    25
  0
LAYER
  5
5C
330
2
100
AcDbSymbolTableRecord
100
AcDbLayerTableRecord
  2
0
 70
     0
 62
     7
  6
Continuous
370
    -3
390
F
347
21
  0
LAYER
  5
CE
330
2
100
AcDbSymbolTableRecord
100
AcDbLayerTableRecord
  2
Visible (ISO)
 70
     0
 62
     7
  6
Continuous
370
    50
390
F
347
21
  0
LAYER
  5
CF
330
2
100
AcDbSymbolTableRecord
100
AcDbLayerTableRecord
  2
Visible Narrow (ISO)
 70
     0
 62
     7
  6
Continuous
370
    35
390
F
347
21
  0
ENDTAB
  0
TABLE
  2
STYLE
  5
3
330
0
100
AcDbSymbolTable
 70
    12
  0
STYLE
  5
5D
330
3
100
AcDbSymbolTableRecord
100
AcDbTextStyleTableRecord
  2
Standard
 70
     0
 40
0.0
 41
1.0
 50
0.0
 71
     0
 42
0.2
  3
TAHOMA.TTF
  4

1001
ACAD
1000
Tahoma
1071
      256
  0
STYLE
  5
62
330
3
100
AcDbSymbolTableRecord
100
AcDbTextStyleTableRecord
  2
Annotative
 70
     0
 40
0.0
 41
1.0
 50
0.0
 71
     0
 42
0.2
  3

  4

1001
AcadAnnotative
1000
AnnotativeData
1002
{
1070
     1
1070
     1
1002
}
  0
STYLE
  5
B3
330
3
100
AcDbSymbolTableRecord
100
AcDbTextStyleTableRecord
  2

 70
     1
 40
0.0
 41
1.0
 50
0.0
 71
     0
 42
0.2
  3
ltypeshp.shx
  4

  0
STYLE
  5
D3
330
3
100
AcDbSymbolTableRecord
100
AcDbTextStyleTableRecord
  2
Installation
 70
     0
 40
0.0
 41
1.0
 50
0.0
 71
     0
 42
0.2
  3
TAHOMA.TTF
  4

1001
ACAD
1000
Tahoma
1071
      256
  0
STYLE
  5
D4
330
3
100
AcDbSymbolTableRecord
100
AcDbTextStyleTableRecord
  2
Label Text (ANSI)
 70
     0
 40
0.0
 41
1.0
 50
0.0
 71
     0
 42
0.2
  3
TAHOMA.TTF
  4

1001
ACAD
1000
Tahoma
1071
      256
  0
STYLE
  5
D5
330
3
100
AcDbSymbolTableRecord
100
AcDbTextStyleTableRecord
  2
Label Text (DIN)
 70
     0
 40
0.0
 41
1.0
 50
0.0
 71
     0
 42
0.2
  3
isocpeur.ttf
  4

1001
ACAD
1000
ISOCPEUR
1071
      256
  0
STYLE
  5
D6
330
3
100
AcDbSymbolTableRecord
100
AcDbTextStyleTableRecord
  2
Label Text (ISO)
 70
     0
 40
0.0
 41
1.0
 50
0.0
 71
     0
 42
0.2
  3
TAHOMA.TTF
  4

1001
ACAD
1000
Tahoma
1071
      256
  0
STYLE
  5
D7
330
3
100
AcDbSymbolTableRecord
100
AcDbTextStyleTableRecord
  2
Label Text (JIS)
 70
     0
 40
0.0
 41
1.0
 50
0.0
 71
     0
 42
0.2
  3
TAHOMA.TTF
  4

1001
ACAD
1000
Tahoma
1071
      256
  0
STYLE
  5
D8
330
3
100
AcDbSymbolTableRecord
100
AcDbTextStyleTableRecord
  2
Note Text (ANSI)
 70
     0
 40
0.0
 41
1.0
 50
0.0
 71
     0
 42
0.2
  3
TAHOMA.TTF
  4

1001
ACAD
1000
Tahoma
1071
      256
  0
STYLE
  5
D9
330
3
100
AcDbSymbolTableRecord
100
AcDbTextStyleTableRecord
  2
Note Text (DIN)
 70
     0
 40
0.0
 41
1.0
 50
0.0
 71
     0
 42
0.2
  3
isocpeur.ttf
  4

1001
ACAD
1000
ISOCPEUR
1071
      256
  0
STYLE
  5
DA
330
3
100
AcDbSymbolTableRecord
100
AcDbTextStyleTableRecord
  2
Note Text (ISO)
 70
     0
 40
0.0
 41
1.0
 50
0.0
 71
     0
 42
0.2
  3
TAHOMA.TTF
  4

1001
ACAD
1000
Tahoma
1071
      256
  0
STYLE
  5
DB
330
3
100
AcDbSymbolTableRecord
100
AcDbTextStyleTableRecord
  2
Note Text (JIS)
 70
     0
 40
0.0
 41
1.0
 50
0.0
 71
     0
 42
0.2
  3
TAHOMA.TTF
  4

1001
ACAD
1000
Tahoma
1071
      256
  0
ENDTAB
  0
TABLE
  2
VIEW
  5
6
330
0
100
AcDbSymbolTable
 70
     0
  0
ENDTAB
  0
TABLE
  2
UCS
  5
7
330
0
100
AcDbSymbolTable
 70
     0
  0
ENDTAB
  0
TABLE
  2
APPID
  5
9
330
0
100
AcDbSymbolTable
 70
     3
  0
APPID
  5
5E
330
9
100
AcDbSymbolTableRecord
100
AcDbRegAppTableRecord
  2
ACAD
 70
     0
  0
APPID
  5
66
330
9
100
AcDbSymbolTableRecord
100
AcDbRegAppTableRecord
  2
AcadAnnotative
 70
     0
  0
APPID
  5
70
330
9
100
AcDbSymbolTableRecord
100
AcDbRegAppTableRecord
  2
ACAD_MLEADERVER
 70
     0
  0
ENDTAB
  0
TABLE
  2
DIMSTYLE
  5
A
330
0
100
AcDbSymbolTable
 70
    16
100
AcDbDimStyleTable
 71
     0
  0
DIMSTYLE
105
60
330
A
100
AcDbSymbolTableRecord
100
AcDbDimStyleTableRecord
  2
Standard
 70
     0
340
5D
  0
DIMSTYLE
105
61
330
A
100
AcDbSymbolTableRecord
100
AcDbDimStyleTableRecord
  2
Annotative
 70
     0
340
5D
1001
AcadAnnotative
1000
AnnotativeData
1002
{
1070
     1
1070
     1
1002
}
  0
DIMSTYLE
105
DC
330
A
100
AcDbSymbolTableRecord
100
AcDbDimStyleTableRecord
  2
Default - Method 1b (ISO)
 70
     0
 40
2.0
 41
2.5
 42
0.0
 43
5.999999999999999
 44
3.174999999999999
 45
0.00000001
 46
10.0
 73
     0
 77
     1
 78
     8
 79
     2
140
3.5
143
0.03937
147
0.762
171
     3
172
     1
176
   256
177
   256
178
   256
179
     2
271
     2
272
     2
274
     3
278
    44
284
     8
286
     8
340
DA
371
    -1
372
    -1
  0
DIMSTYLE
105
DD
330
A
100
AcDbSymbolTableRecord
100
AcDbDimStyleTableRecord
  2
Default - Method 1b (ISO)$7
 70
     0
 40
2.0
 41
2.5
 42
0.0
 43
5.999999999999999
 44
3.174999999999999
 45
0.00000001
 46
10.0
 73
     0
 77
     1
 78
     8
 79
     2
140
3.5
143
0.03937
147
0.762
171
     3
172
     1
176
   256
177
   256
178
   256
179
     2
271
     2
272
     2
274
     3
278
    44
284
     8
286
     8
340
DA
371
    -1
372
    -1
  0
DIMSTYLE
105
DE
330
A
100
AcDbSymbolTableRecord
100
AcDbDimStyleTableRecord
  2
Default - Method 2a (ISO)
 70
     0
 40
2.0
 41
2.5
 42
0.0
 43
5.999999999999999
 44
3.174999999999999
 45
0.00000001
 46
10.0
 77
     1
 78
     8
 79
     2
140
3.5
143
0.03937
147
0.762
171
     3
172
     1
176
   256
177
   256
178
   256
179
     2
271
     2
272
     2
274
     3
278
    44
284
     8
286
     8
340
DA
371
    -1
372
    -1
  0
DIMSTYLE
105
DF
330
A
100
AcDbSymbolTableRecord
100
AcDbDimStyleTableRecord
  2
Default - Method 2a (ISO)$7
 70
     0
 40
2.0
 41
2.5
 42
0.0
 43
5.999999999999999
 44
3.174999999999999
 45
0.00000001
 46
10.0
 77
     1
 78
     8
 79
     2
140
3.5
143
0.03937
147
0.762
171
     3
172
     1
176
   256
177
   256
178
   256
179
     2
271
     2
272
     2
274
     3
278
    44
284
     8
286
     8
340
DA
371
    -1
372
    -1
  0
DIMSTYLE
105
E0
330
A
100
AcDbSymbolTableRecord
100
AcDbDimStyleTableRecord
  2
Default - Method 2b (ISO)
 70
     0
 40
2.0
 41
2.5
 42
0.0
 43
5.999999999999999
 44
3.174999999999999
 45
0.00000001
 46
10.0
 77
     1
 78
     8
 79
     2
140
3.5
143
0.03937
147
0.762
171
     3
172
     1
176
   256
177
   256
178
   256
179
     2
271
     2
272
     2
274
     3
278
    44
284
     8
286
     8
340
DA
371
    -1
372
    -1
  0
DIMSTYLE
105
E1
330
A
100
AcDbSymbolTableRecord
100
AcDbDimStyleTableRecord
  2
Default - Method 2b (ISO)$7
 70
     0
 40
2.0
 41
2.5
 42
0.0
 43
5.999999999999999
 44
3.174999999999999
 45
0.00000001
 46
10.0
 77
     1
 78
     8
 79
     2
140
3.5
143
0.03937
147
0.762
171
     3
172
     1
176
   256
177
   256
178
   256
179
     2
271
     2
272
     2
274
     3
278
    44
284
     8
286
     8
340
DA
371
    -1
372
    -1
  0
DIMSTYLE
105
E2
330
A
100
AcDbSymbolTableRecord
100
AcDbDimStyleTableRecord
  2
Default - mm [in] (ISO)
 70
     0
  4
 in
 40
2.0
 41
2.5
 42
0.0
 43
5.999999999999999
 44
3.174999999999999
 45
0.00000001
 46
10.0
 73
     0
 74
     0
 77
     1
 78
     8
 79
     2
140
3.5
143
0.03937
147
0.762
170
     1
171
     3
172
     1
176
   256
177
   256
178
   256
179
     3
271
     3
272
     2
274
     3
275
     1
278
    44
284
     8
285
     8
286
     8
340
DA
371
    -1
372
    -1
  0
DIMSTYLE
105
E3
330
A
100
AcDbSymbolTableRecord
100
AcDbDimStyleTableRecord
  2
Default - mm [in] (ISO)$7
 70
     0
  4
 in
 40
2.0
 41
2.5
 42
0.0
 43
5.999999999999999
 44
3.174999999999999
 45
0.00000001
 46
10.0
 73
     0
 74
     0
 77
     1
 78
     8
 79
     2
140
3.5
143
0.03937
147
0.762
170
     1
171
     3
172
     1
176
   256
177
   256
178
   256
179
     3
271
     3
272
     2
274
     3
275
     1
278
    44
284
     8
285
     8
286
     8
340
DA
371
    -1
372
    -1
  0
DIMSTYLE
105
E4
330
A
100
AcDbSymbolTableRecord
100
AcDbDimStyleTableRecord
  2
Default (ISO)
 70
     0
 40
2.0
 41
2.5
 42
0.0
 43
5.999999999999999
 44
3.174999999999999
 45
0.00000001
 46
10.0
 73
     0
 74
     0
 77
     1
140
3.5
143
0.03937
146
1.001485756465366
147
0.762
171
     3
172
     1
176
   256
177
   256
178
   256
179
     2
271
     2
272
     2
274
     3
278
    44
340
DA
371
    -1
372
    -1
  0
DIMSTYLE
105
E5
330
A
100
AcDbSymbolTableRecord
100
AcDbDimStyleTableRecord
  2
Default (ISO)$7
 70
     0
 40
2.0
 41
2.5
 42
0.0
 43
5.999999999999999
 44
3.174999999999999
 45
0.00000001
 46
10.0
 73
     0
 74
     0
 77
     1
140
3.5
143
0.03937
146
1.001485756465366
147
0.762
171
     3
172
     1
176
   256
177
   256
178
   256
179
     2
271
     2
272
     2
274
     3
278
    44
340
DA
371
    -1
372
    -1
  0
DIMSTYLE
105
F4
330
A
100
AcDbSymbolTableRecord
100
AcDbDimStyleTableRecord
  2
Miscellaneous Object (ISO)
 70
     0
 40
2.0
 41
2.5
 42
0.0
 43
5.999999999999999
 44
3.174999999999999
 45
0.00000001
 46
10.0
 73
     0
 74
     0
 77
     1
140
5.25
143
0.03937
146
0.6676571709769112
147
0.762
171
     3
172
     1
176
   256
177
   256
178
   256
179
     2
271
     2
272
     2
274
     3
278
    44
340
D6
341
E6
371
    -1
372
    -1
  0
DIMSTYLE
105
F5
330
A
100
AcDbSymbolTableRecord
100
AcDbDimStyleTableRecord
  2
Miscellaneous Object (ISO)$7
 70
     0
 40
2.0
 41
5.0
 42
0.0
 43
5.999999999999999
 44
3.174999999999999
 45
0.00000001
 46
10.0
 73
     0
 74
     0
 77
     1
140
5.25
143
0.03937
146
0.6676571709769112
147
0.762
171
     3
172
     1
176
   256
177
   256
178
   256
179
     2
271
     2
272
     2
274
     3
278
    44
340
D6
341
E6
371
    25
372
    -1
  0
DIMSTYLE
105
F6
330
A
100
AcDbSymbolTableRecord
100
AcDbDimStyleTableRecord
  2
Alternate (ISO)
 70
     0
 40
2.0
 41
2.5
340
5D
342
F7
  0
DIMSTYLE
105
108
330
A
100
AcDbSymbolTableRecord
100
AcDbDimStyleTableRecord
  2
Datum (ISO)
 70
     0
 40
2.0
 41
2.5
340
5D
342
F7
  0
ENDTAB
  0
TABLE
  2
BLOCK_RECORD
  5
1
330
0
100
AcDbSymbolTable
 70
     4
  0
BLOCK_RECORD
  5
75
330
1
100
AcDbSymbolTableRecord
100
AcDbBlockTableRecord
  2
*Model_Space
340
78
 70
     0
280
     1
281
     0
  0
BLOCK_RECORD
  5
71
330
1
100
AcDbSymbolTableRecord
100
AcDbBlockTableRecord
  2
*Paper_Space
340
74
 70
     0
280
     1
281
     0
  0
BLOCK_RECORD
  5
79
330
1
100
AcDbSymbolTableRecord
100
AcDbBlockTableRecord
  2
*Paper_Space0
340
7C
 70
     0
280
     1
281
     0
  0
BLOCK_RECORD
  5
E6
330
1
100
AcDbSymbolTableRecord
100
AcDbBlockTableRecord
  2
Filled-1
340
0
 70
     0
280
     1
281
     0
  0
BLOCK_RECORD
  5
F7
330
1
100
AcDbSymbolTableRecord
100
AcDbBlockTableRecord
  2
_Closed
340
0
 70
     0
280
     1
281
     0
  0
BLOCK_RECORD
  5
FE
330
1
100
AcDbSymbolTableRecord
100
AcDbBlockTableRecord
  2
DatumFilled45
340
0
 70
     0
280
     1
281
     0
  0
ENDTAB
  0
ENDSEC
  0
SECTION
  2
BLOCKS
  0
BLOCK
  5
76
330
75
100
AcDbEntity
  8
0
100
AcDbBlockBegin
  2
*Model_Space
 70
     0
 10
0.0
 20
0.0
 30
0.0
  3
*Model_Space
  1

  0
ENDBLK
  5
77
330
75
100
AcDbEntity
  8
0
100
AcDbBlockEnd
  0
BLOCK
  5
72
330
71
100
AcDbEntity
 67
     1
  8
0
100
AcDbBlockBegin
  2
*Paper_Space
 70
     0
 10
0.0
 20
0.0
 30
0.0
  3
*Paper_Space
  1

  0
ENDBLK
  5
73
330
71
100
AcDbEntity
 67
     1
  8
0
100
AcDbBlockEnd
  0
BLOCK
  5
7A
330
79
100
AcDbEntity
 67
     1
  8
0
100
AcDbBlockBegin
  2
*Paper_Space0
 70
     0
 10
0.0
 20
0.0
 30
0.0
  3
*Paper_Space0
  1

  0
ENDBLK
  5
7B
330
79
100
AcDbEntity
 67
     1
  8
0
100
AcDbBlockEnd
  0
BLOCK
  5
E7
330
E6
100
AcDbEntity
  8
0
100
AcDbBlockBegin
  2
Filled-1
 70
     0
 10
0.0
 20
0.0
 30
0.0
  3
Filled-1
  1

  0
LINE
  5
E9
330
E6
100
AcDbEntity
  8
0
 62
     0
100
AcDbLine
 10
-1.0
 20
0.0
 30
0.0
 11
0.0
 21
0.0
 31
0.0
  0
POLYLINE
  5
EA
330
E6
100
AcDbEntity
  8
0
 62
     0
100
AcDb2dPolyline
 66
     1
 10
0.0
 20
0.0
 30
0.0
 70
   128
  0
VERTEX
  5
EB
330
EA
100
AcDbEntity
  8
0
 62
     0
100
AcDbVertex
100
AcDb2dVertex
 10
-1.0
 20
-0.1
 30
0.0
  0
VERTEX
  5
EC
330
EA
100
AcDbEntity
  8
0
 62
     0
100
AcDbVertex
100
AcDb2dVertex
 10
0.0
 20
0.0
 30
0.0
  0
VERTEX
  5
EE
330
EA
100
AcDbEntity
  8
0
 62
     0
100
AcDbVertex
100
AcDb2dVertex
 10
-1.0
 20
0.1
 30
0.0
  0
VERTEX
  5
EF
330
EA
100
AcDbEntity
  8
0
 62
     0
100
AcDbVertex
100
AcDb2dVertex
 10
-1.0
 20
-0.1
 30
0.0
  0
SEQEND
  5
ED
330
EA
100
AcDbEntity
  8
0
 62
     0
  0
SOLID
  5
F0
330
E6
100
AcDbEntity
  8
0
 62
     0
100
AcDbTrace
 10
-1.0
 20
-0.1
 30
0.0
 11
0.0
 21
0.0
 31
0.0
 12
-1.0
 22
0.1
 32
0.0
 13
-1.0
 23
-0.1
 33
0.0
  0
LINE
  5
F1
330
E6
100
AcDbEntity
  8
0
 62
     0
100
AcDbLine
 10
-1.0
 20
-0.1
 30
0.0
 11
0.0
 21
0.0
 31
0.0
  0
LINE
  5
F2
330
E6
100
AcDbEntity
  8
0
 62
     0
100
AcDbLine
 10
0.0
 20
0.0
 30
0.0
 11
-1.0
 21
0.1
 31
0.0
  0
LINE
  5
F3
330
E6
100
AcDbEntity
  8
0
 62
     0
100
AcDbLine
 10
-1.0
 20
0.1
 30
0.0
 11
-1.0
 21
-0.1
 31
0.0
  0
ENDBLK
  5
E8
330
E6
100
AcDbEntity
  8
0
100
AcDbBlockEnd
  0
BLOCK
  5
FC
330
F7
100
AcDbEntity
  8
0
100
AcDbBlockBegin
  2
_Closed
 70
     0
 10
0.0
 20
0.0
 30
0.0
  3
_Closed
  1

  0
LINE
  5
F8
330
F7
100
AcDbEntity
  8
0
  6
ByBlock
 62
     0
370
    -2
100
AcDbLine
 10
-1.0
 20
0.1666666666666666
 30
0.0
 11
0.0
 21
0.0
 31
0.0
  0
LINE
  5
F9
330
F7
100
AcDbEntity
  8
0
  6
ByBlock
 62
     0
370
    -2
100
AcDbLine
 10
0.0
 20
0.0
 30
0.0
 11
-1.0
 21
-0.1666666666666666
 31
0.0
  0
LINE
  5
FA
330
F7
100
AcDbEntity
  8
0
  6
ByBlock
 62
     0
370
    -2
100
AcDbLine
 10
-1.0
 20
0.1666666666666666
 30
0.0
 11
-1.0
 21
-0.1666666666666666
 31
0.0
  0
LINE
  5
FB
330
F7
100
AcDbEntity
  8
0
  6
ByBlock
 62
     0
370
    -2
100
AcDbLine
 10
0.0
 20
0.0
 30
0.0
 11
-1.0
 21
0.0
 31
0.0
  0
ENDBLK
  5
FD
330
F7
100
AcDbEntity
  8
0
100
AcDbBlockEnd
  0
BLOCK
  5
FF
330
FE
100
AcDbEntity
  8
0
100
AcDbBlockBegin
  2
DatumFilled45
 70
     0
 10
0.0
 20
0.0
 30
0.0
  3
DatumFilled45
  1

  0
POLYLINE
  5
101
330
FE
100
AcDbEntity
  8
0
 62
     0
100
AcDb2dPolyline
 66
     1
 10
0.0
 20
0.0
 30
0.0
 70
   128
  0
VERTEX
  5
102
330
101
100
AcDbEntity
  8
0
 62
     0
100
AcDbVertex
100
AcDb2dVertex
 10
0.0
 20
1.0
 30
0.0
  0
VERTEX
  5
103
330
101
100
AcDbEntity
  8
0
 62
     0
100
AcDbVertex
100
AcDb2dVertex
 10
0.0
 20
-1.0
 30
0.0
  0
VERTEX
  5
105
330
101
100
AcDbEntity
  8
0
 62
     0
100
AcDbVertex
100
AcDb2dVertex
 10
-1.0
 20
0.0
 30
0.0
  0
VERTEX
  5
106
330
101
100
AcDbEntity
  8
0
 62
     0
100
AcDbVertex
100
AcDb2dVertex
 10
0.0
 20
1.0
 30
0.0
  0
SEQEND
  5
104
330
101
100
AcDbEntity
  8
0
 62
     0
  0
SOLID
  5
107
330
FE
100
AcDbEntity
  8
0
 62
     0
100
AcDbTrace
 10
0.0
 20
1.0
 30
0.0
 11
0.0
 21
-1.0
 31
0.0
 12
-1.0
 22
0.0
 32
0.0
 13
0.0
 23
1.0
 33
0.0
  0
ENDBLK
  5
100
330
FE
100
AcDbEntity
  8
0
100
AcDbBlockEnd
  0
ENDSEC
  0
SECTION
  2
ENTITIES
  0
LINE
  5
109
330
75
100
AcDbEntity
  8
Visible (ISO)
100
AcDbLine
 10
269.6977767223601
 20
216.6318746909015
 30
0.0
 11
269.6977767223601
 21
170.6318746909015
 31
0.0
  0
LINE
  5
10A
330
75
100
AcDbEntity
  8
Visible (ISO)
100
AcDbLine
 10
41.69777672236005
 20
216.6318746909015
 30
0.0
 11
41.69777672236005
 21
170.6318746909015
 31
0.0
  0
LINE
  5
10B
330
75
100
AcDbEntity
  8
Visible (ISO)
100
AcDbLine
 10
41.69777672236005
 20
216.6318746909015
 30
0.0
 11
146.3477767223601
 21
216.6318746909015
 31
0.0
  0
LINE
  5
10C
330
75
100
AcDbEntity
  8
Visible (ISO)
100
AcDbLine
 10
165.0477767223601
 20
216.6318746909015
 30
0.0
 11
269.6977767223601
 21
216.6318746909015
 31
0.0
  0
LINE
  5
10D
330
75
100
AcDbEntity
  8
Visible (ISO)
100
AcDbLine
 10
41.69777672236005
 20
170.6318746909015
 30
0.0
 11
146.44777672236
 21
170.6318746909015
 31
0.0
  0
LINE
  5
10E
330
75
100
AcDbEntity
  8
Visible (ISO)
100
AcDbLine
 10
165.3565557118956
 20
170.6318746909015
 30
0.0
 11
269.6977767223601
 21
170.6318746909015
 31
0.0
  0
ARC
  5
10F
330
75
100
AcDbEntity
  8
Visible (ISO)
100
AcDbCircle
 10
80.69777672236005
 20
193.6318746908977
 30
0.0
 40
30.00000000000002
100
AcDbArc
 50
230.0554948101736
 51
309.944505189826
  0
ARC
  5
110
330
75
100
AcDbEntity
  8
Visible (ISO)
100
AcDbCircle
 10
80.69777672236005
 20
193.6318746908977
 30
0.0
 40
30.00000000000003
100
AcDbArc
 50
50.05549481019647
 51
129.9445051898034
  0
ARC
  5
111
330
75
100
AcDbEntity
  8
Visible (ISO)
100
AcDbCircle
 10
230.69777672236
 20
193.6318746908976
 30
0.0
 40
30.00000000000004
100
AcDbArc
 50
230.0554948101734
 51
309.9445051898263
  0
ARC
  5
112
330
75
100
AcDbEntity
  8
Visible (ISO)
100
AcDbCircle
 10
230.69777672236
 20
193.6318746908976
 30
0.0
 40
30.00000000000004
100
AcDbArc
 50
50.05549481019664
 51
129.944505189803
  0
LINE
  5
113
330
75
100
AcDbEntity
  8
Visible (ISO)
100
AcDbLine
 10
146.9005039466298
 20
172.6318746909405
 30
0.0
 11
145.8067889528904
 21
173.0318746909408
 31
0.0
  0
POLYLINE
  5
114
330
75
100
AcDbEntity
  8
Visible (ISO)
100
AcDb2dPolyline
 66
     1
 10
0.0
 20
0.0
 30
0.0
 70
   128
  0
VERTEX
  5
115
330
114
100
AcDbEntity
  8
Visible (ISO)
100
AcDbVertex
100
AcDb2dVertex
 10
155.69777672236
 20
164.0318743094753
 30
0.0
  0
VERTEX
  5
116
330
114
100
AcDbEntity
  8
Visible (ISO)
100
AcDbVertex
100
AcDb2dVertex
 10
156.471571969438
 20
164.0911380156826
 30
0.0
  0
VERTEX
  5
118
330
114
100
AcDbEntity
  8
Visible (ISO)
100
AcDbVertex
100
AcDb2dVertex
 10
157.2410777682547
 20
164.1504017218898
 30
0.0
  0
VERTEX
  5
119
330
114
100
AcDbEntity
  8
Visible (ISO)
100
AcDbVertex
100
AcDb2dVertex
 10
158.0020280653719
 20
164.2096630439112
 30
0.0
  0
VERTEX
  5
11A
330
114
100
AcDbEntity
  8
Visible (ISO)
100
AcDbVertex
100
AcDb2dVertex
 10
158.7502047890905
 20
164.2689267501183
 30
0.0
  0
VERTEX
  5
11B
330
114
100
AcDbEntity
  8
Visible (ISO)
100
AcDbVertex
100
AcDb2dVertex
 10
159.4814599031691
 20
164.3281904563255
 30
0.0
  0
VERTEX
  5
11C
330
114
100
AcDbEntity
  8
Visible (ISO)
100
AcDbVertex
100
AcDb2dVertex
 10
160.1917404407743
 20
164.3874541625326
 30
0.0
  0
VERTEX
  5
11D
330
114
100
AcDbEntity
  8
Visible (ISO)
100
AcDbVertex
100
AcDb2dVertex
 10
160.8771080250028
 20
164.4467154845538
 30
0.0
  0
VERTEX
  5
11E
330
114
100
AcDbEntity
  8
Visible (ISO)
100
AcDbVertex
100
AcDb2dVertex
 10
161.533764051843
 20
164.5059791907609
 30
0.0
  0
VERTEX
  5
11F
330
114
100
AcDbEntity
  8
Visible (ISO)
100
AcDbVertex
100
AcDb2dVertex
 10
162.1580678695921
 20
164.5652428969679
 30
0.0
  0
VERTEX
  5
120
330
114
100
AcDbEntity
  8
Visible (ISO)
100
AcDbVertex
100
AcDb2dVertex
 10
162.7465588325742
 20
164.6245066031748
 30
0.0
  0
VERTEX
  5
121
330
114
100
AcDbEntity
  8
Visible (ISO)
100
AcDbVertex
100
AcDb2dVertex
 10
163.295974778581
 20
164.683767925196
 30
0.0
  0
VERTEX
  5
122
330
114
100
AcDbEntity
  8
Visible (ISO)
100
AcDbVertex
100
AcDb2dVertex
 10
163.8032693142179
 20
164.7430316314029
 30
0.0
  0
VERTEX
  5
123
330
114
100
AcDbEntity
  8
Visible (ISO)
100
AcDbVertex
100
AcDb2dVertex
 10
164.2656308883909
 20
164.8022953376099
 30
0.0
  0
VERTEX
  5
124
330
114
100
AcDbEntity
  8
Visible (ISO)
100
AcDbVertex
100
AcDb2dVertex
 10
164.6804959053282
 20
164.8615590438167
 30
0.0
  0
VERTEX
  5
125
330
114
100
AcDbEntity
  8
Visible (ISO)
100
AcDbVertex
100
AcDb2dVertex
 10
165.0455654138807
 20
164.9208203658378
 30
0.0
  0
VERTEX
  5
126
330
114
100
AcDbEntity
  8
Visible (ISO)
100
AcDbVertex
100
AcDb2dVertex
 10
165.3588140482191
 20
164.9800840720447
 30
0.0
  0
VERTEX
  5
127
330
114
100
AcDbEntity
  8
Visible (ISO)
100
AcDbVertex
100
AcDb2dVertex
 10
165.6185073131803
 20
165.0393477782515
 30
0.0
  0
VERTEX
  5
128
330
114
100
AcDbEntity
  8
Visible (ISO)
100
AcDbVertex
100
AcDb2dVertex
 10
165.8232039684538
 20
165.0986114844583
 30
0.0
  0
VERTEX
  5
129
330
114
100
AcDbEntity
  8
Visible (ISO)
100
AcDbVertex
100
AcDb2dVertex
 10
165.9717697376493
 20
165.1578728064794
 30
0.0
  0
VERTEX
  5
12A
330
114
100
AcDbEntity
  8
Visible (ISO)
100
AcDbVertex
100
AcDb2dVertex
 10
166.0633808845762
 20
165.2171365126862
 30
0.0
  0
VERTEX
  5
12B
330
114
100
AcDbEntity
  8
Visible (ISO)
100
AcDbVertex
100
AcDb2dVertex
 10
166.0975307697538
 20
165.276400218893
 30
0.0
  0
VERTEX
  5
12C
330
114
100
AcDbEntity
  8
Visible (ISO)
100
AcDbVertex
100
AcDb2dVertex
 10
166.0740286583189
 20
165.3356639250998
 30
0.0
  0
VERTEX
  5
12D
330
114
100
AcDbEntity
  8
Visible (ISO)
100
AcDbVertex
100
AcDb2dVertex
 10
165.993004488397
 20
165.3949252471209
 30
0.0
  0
VERTEX
  5
12E
330
114
100
AcDbEntity
  8
Visible (ISO)
100
AcDbVertex
100
AcDb2dVertex
 10
165.8549088711027
 20
165.4541889533277
 30
0.0
  0
SEQEND
  5
117
330
114
100
AcDbEntity
  8
Visible (ISO)
  0
POLYLINE
  5
12F
330
75
100
AcDbEntity
  8
Visible (ISO)
100
AcDb2dPolyline
 66
     1
 10
0.0
 20
0.0
 30
0.0
 70
   128
  0
VERTEX
  5
130
330
12F
100
AcDbEntity
  8
Visible (ISO)
100
AcDbVertex
100
AcDb2dVertex
 10
145.5406445736174
 20
167.609559665608
 30
0.0
  0
VERTEX
  5
131
330
12F
100
AcDbEntity
  8
Visible (ISO)
100
AcDbVertex
100
AcDb2dVertex
 10
145.3724724525694
 20
167.6864425048114
 30
0.0
  0
VERTEX
  5
133
330
12F
100
AcDbEntity
  8
Visible (ISO)
100
AcDbVertex
100
AcDb2dVertex
 10
145.3006023639921
 20
167.7633229598291
 30
0.0
  0
VERTEX
  5
134
330
12F
100
AcDbEntity
  8
Visible (ISO)
100
AcDbVertex
100
AcDb2dVertex
 10
145.3257042640928
 20
167.8402057990326
 30
0.0
  0
VERTEX
  5
135
330
12F
100
AcDbEntity
  8
Visible (ISO)
100
AcDbVertex
100
AcDb2dVertex
 10
145.4475433105711
 20
167.917088638236
 30
0.0
  0
VERTEX
  5
136
330
12F
100
AcDbEntity
  8
Visible (ISO)
100
AcDbVertex
100
AcDb2dVertex
 10
145.6649834388975
 20
167.9939690932537
 30
0.0
  0
VERTEX
  5
137
330
12F
100
AcDbEntity
  8
Visible (ISO)
100
AcDbVertex
100
AcDb2dVertex
 10
145.9759974951033
 20
168.0708519324572
 30
0.0
  0
VERTEX
  5
138
330
12F
100
AcDbEntity
  8
Visible (ISO)
100
AcDbVertex
100
AcDb2dVertex
 10
146.3776833290342
 20
168.1477323874748
 30
0.0
  0
VERTEX
  5
139
330
12F
100
AcDbEntity
  8
Visible (ISO)
100
AcDbVertex
100
AcDb2dVertex
 10
146.8662953848127
 20
168.2246152266782
 30
0.0
  0
VERTEX
  5
13A
330
12F
100
AcDbEntity
  8
Visible (ISO)
100
AcDbVertex
100
AcDb2dVertex
 10
147.4372768873457
 20
168.3014980658816
 30
0.0
  0
VERTEX
  5
13B
330
12F
100
AcDbEntity
  8
Visible (ISO)
100
AcDbVertex
100
AcDb2dVertex
 10
148.0853009695295
 20
168.3783785208991
 30
0.0
  0
VERTEX
  5
13C
330
12F
100
AcDbEntity
  8
Visible (ISO)
100
AcDbVertex
100
AcDb2dVertex
 10
148.8043255085234
 20
168.4552613601024
 30
0.0
  0
VERTEX
  5
13D
330
12F
100
AcDbEntity
  8
Visible (ISO)
100
AcDbVertex
100
AcDb2dVertex
 10
149.5876425976042
 20
168.5321418151199
 30
0.0
  0
VERTEX
  5
13E
330
12F
100
AcDbEntity
  8
Visible (ISO)
100
AcDbVertex
100
AcDb2dVertex
 10
150.4279476875547
 20
168.6090246543231
 30
0.0
  0
VERTEX
  5
13F
330
12F
100
AcDbEntity
  8
Visible (ISO)
100
AcDbVertex
100
AcDb2dVertex
 10
151.3174033636335
 20
168.6859074935262
 30
0.0
  0
VERTEX
  5
140
330
12F
100
AcDbEntity
  8
Visible (ISO)
100
AcDbVertex
100
AcDb2dVertex
 10
152.2477132553343
 20
168.7627879485436
 30
0.0
  0
VERTEX
  5
141
330
12F
100
AcDbEntity
  8
Visible (ISO)
100
AcDbVertex
100
AcDb2dVertex
 10
153.2102013105635
 20
168.8396707877466
 30
0.0
  0
VERTEX
  5
142
330
12F
100
AcDbEntity
  8
Visible (ISO)
100
AcDbVertex
100
AcDb2dVertex
 10
154.1958900267366
 20
168.9165512427638
 30
0.0
  0
VERTEX
  5
143
330
12F
100
AcDbEntity
  8
Visible (ISO)
100
AcDbVertex
100
AcDb2dVertex
 10
155.1955865794901
 20
168.9934340819667
 30
0.0
  0
VERTEX
  5
144
330
12F
100
AcDbEntity
  8
Visible (ISO)
100
AcDbVertex
100
AcDb2dVertex
 10
156.19996686523
 20
169.0703145369838
 30
0.0
  0
VERTEX
  5
145
330
12F
100
AcDbEntity
  8
Visible (ISO)
100
AcDbVertex
100
AcDb2dVertex
 10
157.1996634179834
 20
169.1471973761867
 30
0.0
  0
VERTEX
  5
146
330
12F
100
AcDbEntity
  8
Visible (ISO)
100
AcDbVertex
100
AcDb2dVertex
 10
158.1853521341566
 20
169.2240802153894
 30
0.0
  0
VERTEX
  5
147
330
12F
100
AcDbEntity
  8
Visible (ISO)
100
AcDbVertex
100
AcDb2dVertex
 10
159.1478401893858
 20
169.3009606704063
 30
0.0
  0
VERTEX
  5
148
330
12F
100
AcDbEntity
  8
Visible (ISO)
100
AcDbVertex
100
AcDb2dVertex
 10
160.0781500810865
 20
169.377843509609
 30
0.0
  0
VERTEX
  5
149
330
12F
100
AcDbEntity
  8
Visible (ISO)
100
AcDbVertex
100
AcDb2dVertex
 10
160.9676057571653
 20
169.4547239646258
 30
0.0
  0
VERTEX
  5
14A
330
12F
100
AcDbEntity
  8
Visible (ISO)
100
AcDbVertex
100
AcDb2dVertex
 10
161.8079108471159
 20
169.5316068038284
 30
0.0
  0
VERTEX
  5
14B
330
12F
100
AcDbEntity
  8
Visible (ISO)
100
AcDbVertex
100
AcDb2dVertex
 10
162.5912279361967
 20
169.6084896430309
 30
0.0
  0
VERTEX
  5
14C
330
12F
100
AcDbEntity
  8
Visible (ISO)
100
AcDbVertex
100
AcDb2dVertex
 10
163.3102524751905
 20
169.6853700980476
 30
0.0
  0
VERTEX
  5
14D
330
12F
100
AcDbEntity
  8
Visible (ISO)
100
AcDbVertex
100
AcDb2dVertex
 10
163.9582765573744
 20
169.76225293725
 30
0.0
  0
VERTEX
  5
14E
330
12F
100
AcDbEntity
  8
Visible (ISO)
100
AcDbVertex
100
AcDb2dVertex
 10
164.5292580599073
 20
169.8391333922666
 30
0.0
  0
VERTEX
  5
14F
330
12F
100
AcDbEntity
  8
Visible (ISO)
100
AcDbVertex
100
AcDb2dVertex
 10
165.0178701156858
 20
169.9160162314689
 30
0.0
  0
VERTEX
  5
150
330
12F
100
AcDbEntity
  8
Visible (ISO)
100
AcDbVertex
100
AcDb2dVertex
 10
165.4195559496168
 20
169.9928990706713
 30
0.0
  0
VERTEX
  5
151
330
12F
100
AcDbEntity
  8
Visible (ISO)
100
AcDbVertex
100
AcDb2dVertex
 10
165.7305700058225
 20
170.0697795256878
 30
0.0
  0
VERTEX
  5
152
330
12F
100
AcDbEntity
  8
Visible (ISO)
100
AcDbVertex
100
AcDb2dVertex
 10
165.9480101341489
 20
170.1466623648901
 30
0.0
  0
VERTEX
  5
153
330
12F
100
AcDbEntity
  8
Visible (ISO)
100
AcDbVertex
100
AcDb2dVertex
 10
166.0698491806272
 20
170.2235428199066
 30
0.0
  0
VERTEX
  5
154
330
12F
100
AcDbEntity
  8
Visible (ISO)
100
AcDbVertex
100
AcDb2dVertex
 10
166.0949510807279
 20
170.3004256591089
 30
0.0
  0
VERTEX
  5
155
330
12F
100
AcDbEntity
  8
Visible (ISO)
100
AcDbVertex
100
AcDb2dVertex
 10
166.0230809921507
 20
170.3773061141254
 30
0.0
  0
VERTEX
  5
156
330
12F
100
AcDbEntity
  8
Visible (ISO)
100
AcDbVertex
100
AcDb2dVertex
 10
165.8549088711027
 20
170.4541889533277
 30
0.0
  0
SEQEND
  5
132
330
12F
100
AcDbEntity
  8
Visible (ISO)
  0
POLYLINE
  5
157
330
75
100
AcDbEntity
  8
Visible (ISO)
100
AcDb2dPolyline
 66
     1
 10
0.0
 20
0.0
 30
0.0
 70
   128
  0
VERTEX
  5
158
330
157
100
AcDbEntity
  8
Visible (ISO)
100
AcDbVertex
100
AcDb2dVertex
 10
145.5406445736174
 20
172.609559665608
 30
0.0
  0
VERTEX
  5
159
330
157
100
AcDbEntity
  8
Visible (ISO)
100
AcDbVertex
100
AcDb2dVertex
 10
145.4937226051573
 20
172.6271573409316
 30
0.0
  0
VERTEX
  5
15B
330
157
100
AcDbEntity
  8
Visible (ISO)
100
AcDbVertex
100
AcDb2dVertex
 10
145.4517907375578
 20
172.6447526320694
 30
0.0
  0
VERTEX
  5
15C
330
157
100
AcDbEntity
  8
Visible (ISO)
100
AcDbVertex
100
AcDb2dVertex
 10
145.4148680443052
 20
172.662350307393
 30
0.0
  0
VERTEX
  5
15D
330
157
100
AcDbEntity
  8
Visible (ISO)
100
AcDbVertex
100
AcDb2dVertex
 10
145.3829735988859
 20
172.6799455985308
 30
0.0
  0
VERTEX
  5
15E
330
157
100
AcDbEntity
  8
Visible (ISO)
100
AcDbVertex
100
AcDb2dVertex
 10
145.3561217064146
 20
172.6975432738545
 30
0.0
  0
VERTEX
  5
15F
330
157
100
AcDbEntity
  8
Visible (ISO)
100
AcDbVertex
100
AcDb2dVertex
 10
145.334326672006
 20
172.7151385649923
 30
0.0
  0
VERTEX
  5
160
330
157
100
AcDbEntity
  8
Visible (ISO)
100
AcDbVertex
100
AcDb2dVertex
 10
145.3175980324034
 20
172.7327362403159
 30
0.0
  0
VERTEX
  5
161
330
157
100
AcDbEntity
  8
Visible (ISO)
100
AcDbVertex
100
AcDb2dVertex
 10
145.3059453243498
 20
172.7503315314538
 30
0.0
  0
VERTEX
  5
162
330
157
100
AcDbEntity
  8
Visible (ISO)
100
AcDbVertex
100
AcDb2dVertex
 10
145.2993733162168
 20
172.7679292067774
 30
0.0
  0
VERTEX
  5
163
330
157
100
AcDbEntity
  8
Visible (ISO)
100
AcDbVertex
100
AcDb2dVertex
 10
145.2978855842832
 20
172.7855244979152
 30
0.0
  0
VERTEX
  5
164
330
157
100
AcDbEntity
  8
Visible (ISO)
100
AcDbVertex
100
AcDb2dVertex
 10
145.3014833206419
 20
172.8031221732388
 30
0.0
  0
VERTEX
  5
165
330
157
100
AcDbEntity
  8
Visible (ISO)
100
AcDbVertex
100
AcDb2dVertex
 10
145.3101629490141
 20
172.8207174643767
 30
0.0
  0
VERTEX
  5
166
330
157
100
AcDbEntity
  8
Visible (ISO)
100
AcDbVertex
100
AcDb2dVertex
 10
145.323922085214
 20
172.8383127555145
 30
0.0
  0
VERTEX
  5
167
330
157
100
AcDbEntity
  8
Visible (ISO)
100
AcDbVertex
100
AcDb2dVertex
 10
145.3427535766844
 20
172.8559104308381
 30
0.0
  0
VERTEX
  5
168
330
157
100
AcDbEntity
  8
Visible (ISO)
100
AcDbVertex
100
AcDb2dVertex
 10
145.3666478866819
 20
172.8735057219759
 30
0.0
  0
VERTEX
  5
169
330
157
100
AcDbEntity
  8
Visible (ISO)
100
AcDbVertex
100
AcDb2dVertex
 10
145.3955930942778
 20
172.8911033972996
 30
0.0
  0
VERTEX
  5
16A
330
157
100
AcDbEntity
  8
Visible (ISO)
100
AcDbVertex
100
AcDb2dVertex
 10
145.42957608645
 20
172.9086986884374
 30
0.0
  0
VERTEX
  5
16B
330
157
100
AcDbEntity
  8
Visible (ISO)
100
AcDbVertex
100
AcDb2dVertex
 10
145.4685789818052
 20
172.926296363761
 30
0.0
  0
VERTEX
  5
16C
330
157
100
AcDbEntity
  8
Visible (ISO)
100
AcDbVertex
100
AcDb2dVertex
 10
145.51258389895
 20
172.9438916548989
 30
0.0
  0
VERTEX
  5
16D
330
157
100
AcDbEntity
  8
Visible (ISO)
100
AcDbVertex
100
AcDb2dVertex
 10
145.5615681881193
 20
172.9614893302225
 30
0.0
  0
VERTEX
  5
16E
330
157
100
AcDbEntity
  8
Visible (ISO)
100
AcDbVertex
100
AcDb2dVertex
 10
145.6155080074553
 20
172.9790846213603
 30
0.0
  0
VERTEX
  5
16F
330
157
100
AcDbEntity
  8
Visible (ISO)
100
AcDbVertex
100
AcDb2dVertex
 10
145.674378323007
 20
172.9966822966839
 30
0.0
  0
VERTEX
  5
170
330
157
100
AcDbEntity
  8
Visible (ISO)
100
AcDbVertex
100
AcDb2dVertex
 10
145.7381487364058
 20
173.0142775878217
 30
0.0
  0
VERTEX
  5
171
330
157
100
AcDbEntity
  8
Visible (ISO)
100
AcDbVertex
100
AcDb2dVertex
 10
145.8067888492826
 20
173.0318752631453
 30
0.0
  0
SEQEND
  5
15A
330
157
100
AcDbEntity
  8
Visible (ISO)
  0
LINE
  5
172
330
75
100
AcDbEntity
  8
Visible (ISO)
100
AcDbLine
 10
155.69777672236
 20
164.031874690945
 30
0.0
 11
155.69777672236
 21
163.6318746909443
 31
0.0
  0
POLYLINE
  5
173
330
75
100
AcDbEntity
  8
Visible (ISO)
100
AcDb2dPolyline
 66
     1
 10
0.0
 20
0.0
 30
0.0
 70
   128
  0
VERTEX
  5
174
330
173
100
AcDbEntity
  8
Visible (ISO)
100
AcDbVertex
100
AcDb2dVertex
 10
146.9005036825422
 20
172.6318756446149
 30
0.0
  0
VERTEX
  5
175
330
173
100
AcDbEntity
  8
Visible (ISO)
100
AcDbVertex
100
AcDb2dVertex
 10
146.8638420576338
 20
172.6214591368938
 30
0.0
  0
VERTEX
  5
177
330
173
100
AcDbEntity
  8
Visible (ISO)
100
AcDbVertex
100
AcDb2dVertex
 10
146.8286943907026
 20
172.6110402449871
 30
0.0
  0
VERTEX
  5
178
330
173
100
AcDbEntity
  8
Visible (ISO)
100
AcDbVertex
100
AcDb2dVertex
 10
146.7950660461668
 20
172.600623737266
 30
0.0
  0
VERTEX
  5
179
330
173
100
AcDbEntity
  8
Visible (ISO)
100
AcDbVertex
100
AcDb2dVertex
 10
146.7629629844908
 20
172.590207229545
 30
0.0
  0
VERTEX
  5
17A
330
173
100
AcDbEntity
  8
Visible (ISO)
100
AcDbVertex
100
AcDb2dVertex
 10
146.7323905700926
 20
172.579790721824
 30
0.0
  0
VERTEX
  5
17B
330
173
100
AcDbEntity
  8
Visible (ISO)
100
AcDbVertex
100
AcDb2dVertex
 10
146.7033547634367
 20
172.569374214103
 30
0.0
  0
VERTEX
  5
17C
330
173
100
AcDbEntity
  8
Visible (ISO)
100
AcDbVertex
100
AcDb2dVertex
 10
146.6758603328947
 20
172.558957706382
 30
0.0
  0
VERTEX
  5
17D
330
173
100
AcDbEntity
  8
Visible (ISO)
100
AcDbVertex
100
AcDb2dVertex
 10
146.6499114507917
 20
172.548541198661
 30
0.0
  0
VERTEX
  5
17E
330
173
100
AcDbEntity
  8
Visible (ISO)
100
AcDbVertex
100
AcDb2dVertex
 10
146.6255128854994
 20
172.53812469094
 30
0.0
  0
VERTEX
  5
17F
330
173
100
AcDbEntity
  8
Visible (ISO)
100
AcDbVertex
100
AcDb2dVertex
 10
146.6026688093428
 20
172.5277081832189
 30
0.0
  0
VERTEX
  5
180
330
173
100
AcDbEntity
  8
Visible (ISO)
100
AcDbVertex
100
AcDb2dVertex
 10
146.581383394647
 20
172.5172916754979
 30
0.0
  0
VERTEX
  5
181
330
173
100
AcDbEntity
  8
Visible (ISO)
100
AcDbVertex
100
AcDb2dVertex
 10
146.5616596216444
 20
172.5068751677769
 30
0.0
  0
VERTEX
  5
182
330
173
100
AcDbEntity
  8
Visible (ISO)
100
AcDbVertex
100
AcDb2dVertex
 10
146.54350166266
 20
172.4964586600559
 30
0.0
  0
VERTEX
  5
183
330
173
100
AcDbEntity
  8
Visible (ISO)
100
AcDbVertex
100
AcDb2dVertex
 10
146.5269119018797
 20
172.4860421523348
 30
0.0
  0
VERTEX
  5
184
330
173
100
AcDbEntity
  8
Visible (ISO)
100
AcDbVertex
100
AcDb2dVertex
 10
146.5118933195356
 20
172.4756256446138
 30
0.0
  0
VERTEX
  5
185
330
173
100
AcDbEntity
  8
Visible (ISO)
100
AcDbVertex
100
AcDb2dVertex
 10
146.4984488958601
 20
172.4652091368928
 30
0.0
  0
VERTEX
  5
186
330
173
100
AcDbEntity
  8
Visible (ISO)
100
AcDbVertex
100
AcDb2dVertex
 10
146.4865810150389
 20
172.454790244986
 30
0.0
  0
VERTEX
  5
187
330
173
100
AcDbEntity
  8
Visible (ISO)
100
AcDbVertex
100
AcDb2dVertex
 10
146.4762914652113
 20
172.444373737265
 30
0.0
  0
VERTEX
  5
188
330
173
100
AcDbEntity
  8
Visible (ISO)
100
AcDbVertex
100
AcDb2dVertex
 10
146.4675814384703
 20
172.433957229544
 30
0.0
  0
VERTEX
  5
189
330
173
100
AcDbEntity
  8
Visible (ISO)
100
AcDbVertex
100
AcDb2dVertex
 10
146.4604533190016
 20
172.4235407218229
 30
0.0
  0
VERTEX
  5
18A
330
173
100
AcDbEntity
  8
Visible (ISO)
100
AcDbVertex
100
AcDb2dVertex
 10
146.4549082988981
 20
172.4131242141019
 30
0.0
  0
VERTEX
  5
18B
330
173
100
AcDbEntity
  8
Visible (ISO)
100
AcDbVertex
100
AcDb2dVertex
 10
146.4509463781599
 20
172.4027077063809
 30
0.0
  0
VERTEX
  5
18C
330
173
100
AcDbEntity
  8
Visible (ISO)
100
AcDbVertex
100
AcDb2dVertex
 10
146.4485693449263
 20
172.3922911986599
 30
0.0
  0
VERTEX
  5
18D
330
173
100
AcDbEntity
  8
Visible (ISO)
100
AcDbVertex
100
AcDb2dVertex
 10
146.4477766031508
 20
172.3818746909389
 30
0.0
  0
SEQEND
  5
176
330
173
100
AcDbEntity
  8
Visible (ISO)
  0
POLYLINE
  5
18E
330
75
100
AcDbEntity
  8
Visible (ISO)
100
AcDb2dPolyline
 66
     1
 10
0.0
 20
0.0
 30
0.0
 70
   128
  0
VERTEX
  5
18F
330
18E
100
AcDbEntity
  8
Visible (ISO)
100
AcDbVertex
100
AcDb2dVertex
 10
164.6771961921934
 20
169.6889249190591
 30
0.0
  0
VERTEX
  5
190
330
18E
100
AcDbEntity
  8
Visible (ISO)
100
AcDbVertex
100
AcDb2dVertex
 10
164.3743008846525
 20
169.6001902922896
 30
0.0
  0
VERTEX
  5
192
330
18E
100
AcDbEntity
  8
Visible (ISO)
100
AcDbVertex
100
AcDb2dVertex
 10
163.9636397833112
 20
169.511458049706
 30
0.0
  0
VERTEX
  5
193
330
18E
100
AcDbEntity
  8
Visible (ISO)
100
AcDbVertex
100
AcDb2dVertex
 10
163.4503126615766
 20
169.4227258071223
 30
0.0
  0
VERTEX
  5
194
330
18E
100
AcDbEntity
  8
Visible (ISO)
100
AcDbVertex
100
AcDb2dVertex
 10
162.8406954283003
 20
169.3339935645386
 30
0.0
  0
VERTEX
  5
195
330
18E
100
AcDbEntity
  8
Visible (ISO)
100
AcDbVertex
100
AcDb2dVertex
 10
162.1423602575544
 20
169.2452613219548
 30
0.0
  0
VERTEX
  5
196
330
18E
100
AcDbEntity
  8
Visible (ISO)
100
AcDbVertex
100
AcDb2dVertex
 10
161.3639808172468
 20
169.1565266951852
 30
0.0
  0
VERTEX
  5
197
330
18E
100
AcDbEntity
  8
Visible (ISO)
100
AcDbVertex
100
AcDb2dVertex
 10
160.5152246827367
 20
169.0677944526012
 30
0.0
  0
VERTEX
  5
198
330
18E
100
AcDbEntity
  8
Visible (ISO)
100
AcDbVertex
100
AcDb2dVertex
 10
159.6066335314993
 20
168.9790622100173
 30
0.0
  0
VERTEX
  5
199
330
18E
100
AcDbEntity
  8
Visible (ISO)
100
AcDbVertex
100
AcDb2dVertex
 10
158.6494929069761
 20
168.8903299674333
 30
0.0
  0
VERTEX
  5
19A
330
18E
100
AcDbEntity
  8
Visible (ISO)
100
AcDbVertex
100
AcDb2dVertex
 10
157.6556905085329
 20
168.8015977248493
 30
0.0
  0
VERTEX
  5
19B
330
18E
100
AcDbEntity
  8
Visible (ISO)
100
AcDbVertex
100
AcDb2dVertex
 10
156.6375700110678
 20
168.7128654822651
 30
0.0
  0
VERTEX
  5
19C
330
18E
100
AcDbEntity
  8
Visible (ISO)
100
AcDbVertex
100
AcDb2dVertex
 10
155.6077769031856
 20
168.6241308554951
 30
0.0
  0
VERTEX
  5
19D
330
18E
100
AcDbEntity
  8
Visible (ISO)
100
AcDbVertex
100
AcDb2dVertex
 10
154.5791016245369
 20
168.5353986129109
 30
0.0
  0
VERTEX
  5
19E
330
18E
100
AcDbEntity
  8
Visible (ISO)
100
AcDbVertex
100
AcDb2dVertex
 10
153.5643208498243
 20
168.4466663703265
 30
0.0
  0
VERTEX
  5
19F
330
18E
100
AcDbEntity
  8
Visible (ISO)
100
AcDbVertex
100
AcDb2dVertex
 10
152.5760382885222
 20
168.3579341277422
 30
0.0
  0
VERTEX
  5
1A0
330
18E
100
AcDbEntity
  8
Visible (ISO)
100
AcDbVertex
100
AcDb2dVertex
 10
151.626529442716
 20
168.2692018851577
 30
0.0
  0
VERTEX
  5
1A1
330
18E
100
AcDbEntity
  8
Visible (ISO)
100
AcDbVertex
100
AcDb2dVertex
 10
150.7275867933516
 20
168.1804696425732
 30
0.0
  0
VERTEX
  5
1A2
330
18E
100
AcDbEntity
  8
Visible (ISO)
100
AcDbVertex
100
AcDb2dVertex
 10
149.8903763765577
 20
168.0917350158028
 30
0.0
  0
VERTEX
  5
1A3
330
18E
100
AcDbEntity
  8
Visible (ISO)
100
AcDbVertex
100
AcDb2dVertex
 10
149.1252965206388
 20
168.0030027732181
 30
0.0
  0
VERTEX
  5
1A4
330
18E
100
AcDbEntity
  8
Visible (ISO)
100
AcDbVertex
100
AcDb2dVertex
 10
148.441849398065
 20
167.9142705306334
 30
0.0
  0
VERTEX
  5
1A5
330
18E
100
AcDbEntity
  8
Visible (ISO)
100
AcDbVertex
100
AcDb2dVertex
 10
147.8485239023451
 20
167.8255382880487
 30
0.0
  0
VERTEX
  5
1A6
330
18E
100
AcDbEntity
  8
Visible (ISO)
100
AcDbVertex
100
AcDb2dVertex
 10
147.3526895517592
 20
167.7368060454639
 30
0.0
  0
VERTEX
  5
1A7
330
18E
100
AcDbEntity
  8
Visible (ISO)
100
AcDbVertex
100
AcDb2dVertex
 10
146.9605052942518
 20
167.6480738028791
 30
0.0
  0
VERTEX
  5
1A8
330
18E
100
AcDbEntity
  8
Visible (ISO)
100
AcDbVertex
100
AcDb2dVertex
 10
146.6768414253477
 20
167.5593391761086
 30
0.0
  0
VERTEX
  5
1A9
330
18E
100
AcDbEntity
  8
Visible (ISO)
100
AcDbVertex
100
AcDb2dVertex
 10
146.5052211755995
 20
167.4706069335237
 30
0.0
  0
VERTEX
  5
1AA
330
18E
100
AcDbEntity
  8
Visible (ISO)
100
AcDbVertex
100
AcDb2dVertex
 10
146.4477766031508
 20
167.3818746909389
 30
0.0
  0
SEQEND
  5
191
330
18E
100
AcDbEntity
  8
Visible (ISO)
  0
POLYLINE
  5
1AB
330
75
100
AcDbEntity
  8
Visible (ISO)
100
AcDb2dPolyline
 66
     1
 10
0.0
 20
0.0
 30
0.0
 70
   128
  0
VERTEX
  5
1AC
330
1AB
100
AcDbEntity
  8
Visible (ISO)
100
AcDbVertex
100
AcDb2dVertex
 10
164.6771961921934
 20
164.6889249190591
 30
0.0
  0
VERTEX
  5
1AD
330
1AB
100
AcDbEntity
  8
Visible (ISO)
100
AcDbVertex
100
AcDb2dVertex
 10
164.5405877107862
 20
164.6448794707561
 30
0.0
  0
VERTEX
  5
1AF
330
1AB
100
AcDbEntity
  8
Visible (ISO)
100
AcDbVertex
100
AcDb2dVertex
 10
164.3768978590254
 20
164.600836406639
 30
0.0
  0
VERTEX
  5
1B0
330
1AB
100
AcDbEntity
  8
Visible (ISO)
100
AcDbVertex
100
AcDb2dVertex
 10
164.1866285080198
 20
164.5567933425218
 30
0.0
  0
VERTEX
  5
1B1
330
1AB
100
AcDbEntity
  8
Visible (ISO)
100
AcDbVertex
100
AcDb2dVertex
 10
163.9703613991026
 20
164.5127478942189
 30
0.0
  0
VERTEX
  5
1B2
330
1AB
100
AcDbEntity
  8
Visible (ISO)
100
AcDbVertex
100
AcDb2dVertex
 10
163.72875993197
 20
164.4687048301017
 30
0.0
  0
VERTEX
  5
1B3
330
1AB
100
AcDbEntity
  8
Visible (ISO)
100
AcDbVertex
100
AcDb2dVertex
 10
163.4625632042173
 20
164.4246617659845
 30
0.0
  0
VERTEX
  5
1B4
330
1AB
100
AcDbEntity
  8
Visible (ISO)
100
AcDbVertex
100
AcDb2dVertex
 10
163.1725872034315
 20
164.3806187018674
 30
0.0
  0
VERTEX
  5
1B5
330
1AB
100
AcDbEntity
  8
Visible (ISO)
100
AcDbVertex
100
AcDb2dVertex
 10
162.8597194427732
 20
164.3365732535644
 30
0.0
  0
VERTEX
  5
1B6
330
1AB
100
AcDbEntity
  8
Visible (ISO)
100
AcDbVertex
100
AcDb2dVertex
 10
162.5249177688841
 20
164.2925301894472
 30
0.0
  0
VERTEX
  5
1B7
330
1AB
100
AcDbEntity
  8
Visible (ISO)
100
AcDbVertex
100
AcDb2dVertex
 10
162.169208573747
 20
164.24848712533
 30
0.0
  0
VERTEX
  5
1B8
330
1AB
100
AcDbEntity
  8
Visible (ISO)
100
AcDbVertex
100
AcDb2dVertex
 10
161.7936802381757
 20
164.2044440612128
 30
0.0
  0
VERTEX
  5
1B9
330
1AB
100
AcDbEntity
  8
Visible (ISO)
100
AcDbVertex
100
AcDb2dVertex
 10
161.3994831318144
 20
164.1603986129098
 30
0.0
  0
VERTEX
  5
1BA
330
1AB
100
AcDbEntity
  8
Visible (ISO)
100
AcDbVertex
100
AcDb2dVertex
 10
160.987824844766
 20
164.1163555487925
 30
0.0
  0
VERTEX
  5
1BB
330
1AB
100
AcDbEntity
  8
Visible (ISO)
100
AcDbVertex
100
AcDb2dVertex
 10
160.5599654192213
 20
164.0723124846752
 30
0.0
  0
VERTEX
  5
1BC
330
1AB
100
AcDbEntity
  8
Visible (ISO)
100
AcDbVertex
100
AcDb2dVertex
 10
160.1172155613187
 20
164.0282670363721
 30
0.0
  0
VERTEX
  5
1BD
330
1AB
100
AcDbEntity
  8
Visible (ISO)
100
AcDbVertex
100
AcDb2dVertex
 10
159.6609312767271
 20
163.9842239722549
 30
0.0
  0
VERTEX
  5
1BE
330
1AB
100
AcDbEntity
  8
Visible (ISO)
100
AcDbVertex
100
AcDb2dVertex
 10
159.1925096983198
 20
163.9401809081376
 30
0.0
  0
VERTEX
  5
1BF
330
1AB
100
AcDbEntity
  8
Visible (ISO)
100
AcDbVertex
100
AcDb2dVertex
 10
158.7133855098967
 20
163.8961378440202
 30
0.0
  0
VERTEX
  5
1C0
330
1AB
100
AcDbEntity
  8
Visible (ISO)
100
AcDbVertex
100
AcDb2dVertex
 10
158.225026177812
 20
163.8520923957171
 30
0.0
  0
VERTEX
  5
1C1
330
1AB
100
AcDbEntity
  8
Visible (ISO)
100
AcDbVertex
100
AcDb2dVertex
 10
157.7289270335916
 20
163.8080493315997
 30
0.0
  0
VERTEX
  5
1C2
330
1AB
100
AcDbEntity
  8
Visible (ISO)
100
AcDbVertex
100
AcDb2dVertex
 10
157.2266073996309
 20
163.7640062674824
 30
0.0
  0
VERTEX
  5
1C3
330
1AB
100
AcDbEntity
  8
Visible (ISO)
100
AcDbVertex
100
AcDb2dVertex
 10
156.7196057463173
 20
163.719963203365
 30
0.0
  0
VERTEX
  5
1C4
330
1AB
100
AcDbEntity
  8
Visible (ISO)
100
AcDbVertex
100
AcDb2dVertex
 10
156.2094747746471
 20
163.6759177550618
 30
0.0
  0
VERTEX
  5
1C5
330
1AB
100
AcDbEntity
  8
Visible (ISO)
100
AcDbVertex
100
AcDb2dVertex
 10
155.69777672236
 20
163.6318746909443
 30
0.0
  0
SEQEND
  5
1AE
330
1AB
100
AcDbEntity
  8
Visible (ISO)
  0
LINE
  5
1C6
330
75
100
AcDbEntity
  8
Visible (ISO)
100
AcDbLine
 10
145.8067889528904
 20
173.0318746909408
 30
0.0
 11
146.9005039466298
 21
173.4318746909406
 31
0.0
  0
POLYLINE
  5
1C7
330
75
100
AcDbEntity
  8
Visible (ISO)
100
AcDb2dPolyline
 66
     1
 10
0.0
 20
0.0
 30
0.0
 70
   128
  0
VERTEX
  5
1C8
330
1C7
100
AcDbEntity
  8
Visible (ISO)
100
AcDbVertex
100
AcDb2dVertex
 10
155.69777672236
 20
164.4318739280049
 30
0.0
  0
VERTEX
  5
1C9
330
1C7
100
AcDbEntity
  8
Visible (ISO)
100
AcDbVertex
100
AcDb2dVertex
 10
156.3027556711916
 20
164.4839588507954
 30
0.0
  0
VERTEX
  5
1CB
330
1C7
100
AcDbEntity
  8
Visible (ISO)
100
AcDbVertex
100
AcDb2dVertex
 10
156.9051439786438
 20
164.5360413894001
 30
0.0
  0
VERTEX
  5
1CC
330
1C7
100
AcDbEntity
  8
Visible (ISO)
100
AcDbVertex
100
AcDb2dVertex
 10
157.5023621792082
 20
164.5881239280048
 30
0.0
  0
VERTEX
  5
1CD
330
1C7
100
AcDbEntity
  8
Visible (ISO)
100
AcDbVertex
100
AcDb2dVertex
 10
158.0918528610949
 20
164.6402088507952
 30
0.0
  0
VERTEX
  5
1CE
330
1C7
100
AcDbEntity
  8
Visible (ISO)
100
AcDbVertex
100
AcDb2dVertex
 10
158.6710918421034
 20
164.6922913893999
 30
0.0
  0
VERTEX
  5
1CF
330
1C7
100
AcDbEntity
  8
Visible (ISO)
100
AcDbVertex
100
AcDb2dVertex
 10
159.2375985259298
 20
164.7443739280045
 30
0.0
  0
VERTEX
  5
1D0
330
1C7
100
AcDbEntity
  8
Visible (ISO)
100
AcDbVertex
100
AcDb2dVertex
 10
159.7889471525435
 20
164.7964588507949
 30
0.0
  0
VERTEX
  5
1D1
330
1C7
100
AcDbEntity
  8
Visible (ISO)
100
AcDbVertex
100
AcDb2dVertex
 10
160.3227767819646
 20
164.8485413893994
 30
0.0
  0
VERTEX
  5
1D2
330
1C7
100
AcDbEntity
  8
Visible (ISO)
100
AcDbVertex
100
AcDb2dVertex
 10
160.8368015760664
 20
164.900623928004
 30
0.0
  0
VERTEX
  5
1D3
330
1C7
100
AcDbEntity
  8
Visible (ISO)
100
AcDbVertex
100
AcDb2dVertex
 10
161.3288200372938
 20
164.9527088507943
 30
0.0
  0
VERTEX
  5
1D4
330
1C7
100
AcDbEntity
  8
Visible (ISO)
100
AcDbVertex
100
AcDb2dVertex
 10
161.7967254394773
 20
165.0047913893988
 30
0.0
  0
VERTEX
  5
1D5
330
1C7
100
AcDbEntity
  8
Visible (ISO)
100
AcDbVertex
100
AcDb2dVertex
 10
162.2385144705061
 20
165.0568739280033
 30
0.0
  0
VERTEX
  5
1D6
330
1C7
100
AcDbEntity
  8
Visible (ISO)
100
AcDbVertex
100
AcDb2dVertex
 10
162.6522946829084
 20
165.1089588507935
 30
0.0
  0
VERTEX
  5
1D7
330
1C7
100
AcDbEntity
  8
Visible (ISO)
100
AcDbVertex
100
AcDb2dVertex
 10
163.0362952226881
 20
165.161041389398
 30
0.0
  0
VERTEX
  5
1D8
330
1C7
100
AcDbEntity
  8
Visible (ISO)
100
AcDbVertex
100
AcDb2dVertex
 10
163.3888704056028
 20
165.2131239280024
 30
0.0
  0
VERTEX
  5
1D9
330
1C7
100
AcDbEntity
  8
Visible (ISO)
100
AcDbVertex
100
AcDb2dVertex
 10
163.7085116380933
 20
165.2652088507927
 30
0.0
  0
VERTEX
  5
1DA
330
1C7
100
AcDbEntity
  8
Visible (ISO)
100
AcDbVertex
100
AcDb2dVertex
 10
163.9938498014692
 20
165.3172913893971
 30
0.0
  0
VERTEX
  5
1DB
330
1C7
100
AcDbEntity
  8
Visible (ISO)
100
AcDbVertex
100
AcDb2dVertex
 10
164.243662404466
 20
165.3693739280015
 30
0.0
  0
VERTEX
  5
1DC
330
1C7
100
AcDbEntity
  8
Visible (ISO)
100
AcDbVertex
100
AcDb2dVertex
 10
164.4568801397566
 20
165.4214588507917
 30
0.0
  0
VERTEX
  5
1DD
330
1C7
100
AcDbEntity
  8
Visible (ISO)
100
AcDbVertex
100
AcDb2dVertex
 10
164.6325904602293
 20
165.4735413893961
 30
0.0
  0
VERTEX
  5
1DE
330
1C7
100
AcDbEntity
  8
Visible (ISO)
100
AcDbVertex
100
AcDb2dVertex
 10
164.7700405592207
 20
165.5256239280005
 30
0.0
  0
VERTEX
  5
1DF
330
1C7
100
AcDbEntity
  8
Visible (ISO)
100
AcDbVertex
100
AcDb2dVertex
 10
164.8686415428404
 20
165.5777088507907
 30
0.0
  0
VERTEX
  5
1E0
330
1C7
100
AcDbEntity
  8
Visible (ISO)
100
AcDbVertex
100
AcDb2dVertex
 10
164.9279720062498
 20
165.6297913893951
 30
0.0
  0
VERTEX
  5
1E1
330
1C7
100
AcDbEntity
  8
Visible (ISO)
100
AcDbVertex
100
AcDb2dVertex
 10
164.9477768415693
 20
165.6818739279994
 30
0.0
  0
SEQEND
  5
1CA
330
1C7
100
AcDbEntity
  8
Visible (ISO)
  0
POLYLINE
  5
1E2
330
75
100
AcDbEntity
  8
Visible (ISO)
100
AcDb2dPolyline
 66
     1
 10
0.0
 20
0.0
 30
0.0
 70
   128
  0
VERTEX
  5
1E3
330
1E2
100
AcDbEntity
  8
Visible (ISO)
100
AcDbVertex
100
AcDb2dVertex
 10
146.7183572525267
 20
168.3748260840676
 30
0.0
  0
VERTEX
  5
1E4
330
1E2
100
AcDbEntity
  8
Visible (ISO)
100
AcDbVertex
100
AcDb2dVertex
 10
147.0212525600675
 20
168.4635583266524
 30
0.0
  0
VERTEX
  5
1E6
330
1E2
100
AcDbEntity
  8
Visible (ISO)
100
AcDbVertex
100
AcDb2dVertex
 10
147.4319136614088
 20
168.5522905692372
 30
0.0
  0
VERTEX
  5
1E7
330
1E2
100
AcDbEntity
  8
Visible (ISO)
100
AcDbVertex
100
AcDb2dVertex
 10
147.9452407831434
 20
168.641022811822
 30
0.0
  0
VERTEX
  5
1E8
330
1E2
100
AcDbEntity
  8
Visible (ISO)
100
AcDbVertex
100
AcDb2dVertex
 10
148.5548580164198
 20
168.7297550544067
 30
0.0
  0
VERTEX
  5
1E9
330
1E2
100
AcDbEntity
  8
Visible (ISO)
100
AcDbVertex
100
AcDb2dVertex
 10
149.2531931871656
 20
168.8184896811772
 30
0.0
  0
VERTEX
  5
1EA
330
1E2
100
AcDbEntity
  8
Visible (ISO)
100
AcDbVertex
100
AcDb2dVertex
 10
150.0315726274733
 20
168.9072219237618
 30
0.0
  0
VERTEX
  5
1EB
330
1E2
100
AcDbEntity
  8
Visible (ISO)
100
AcDbVertex
100
AcDb2dVertex
 10
150.8803287619833
 20
168.9959541663464
 30
0.0
  0
VERTEX
  5
1EC
330
1E2
100
AcDbEntity
  8
Visible (ISO)
100
AcDbVertex
100
AcDb2dVertex
 10
151.7889199132208
 20
169.0846864089309
 30
0.0
  0
VERTEX
  5
1ED
330
1E2
100
AcDbEntity
  8
Visible (ISO)
100
AcDbVertex
100
AcDb2dVertex
 10
152.746060537744
 20
169.1734186515154
 30
0.0
  0
VERTEX
  5
1EE
330
1E2
100
AcDbEntity
  8
Visible (ISO)
100
AcDbVertex
100
AcDb2dVertex
 10
153.7398629361872
 20
169.2621532782855
 30
0.0
  0
VERTEX
  5
1EF
330
1E2
100
AcDbEntity
  8
Visible (ISO)
100
AcDbVertex
100
AcDb2dVertex
 10
154.7579834336523
 20
169.3508855208699
 30
0.0
  0
VERTEX
  5
1F0
330
1E2
100
AcDbEntity
  8
Visible (ISO)
100
AcDbVertex
100
AcDb2dVertex
 10
155.7877765415345
 20
169.4396177634541
 30
0.0
  0
VERTEX
  5
1F1
330
1E2
100
AcDbEntity
  8
Visible (ISO)
100
AcDbVertex
100
AcDb2dVertex
 10
156.8164518201832
 20
169.5283500060383
 30
0.0
  0
VERTEX
  5
1F2
330
1E2
100
AcDbEntity
  8
Visible (ISO)
100
AcDbVertex
100
AcDb2dVertex
 10
157.8312325948957
 20
169.6170822486224
 30
0.0
  0
VERTEX
  5
1F3
330
1E2
100
AcDbEntity
  8
Visible (ISO)
100
AcDbVertex
100
AcDb2dVertex
 10
158.8195151561979
 20
169.7058144912065
 30
0.0
  0
VERTEX
  5
1F4
330
1E2
100
AcDbEntity
  8
Visible (ISO)
100
AcDbVertex
100
AcDb2dVertex
 10
159.7690240020041
 20
169.7945491179763
 30
0.0
  0
VERTEX
  5
1F5
330
1E2
100
AcDbEntity
  8
Visible (ISO)
100
AcDbVertex
100
AcDb2dVertex
 10
160.6679666513685
 20
169.8832813605602
 30
0.0
  0
VERTEX
  5
1F6
330
1E2
100
AcDbEntity
  8
Visible (ISO)
100
AcDbVertex
100
AcDb2dVertex
 10
161.5051770681623
 20
169.9720136031441
 30
0.0
  0
VERTEX
  5
1F7
330
1E2
100
AcDbEntity
  8
Visible (ISO)
100
AcDbVertex
100
AcDb2dVertex
 10
162.2702569240812
 20
170.0607458457279
 30
0.0
  0
VERTEX
  5
1F8
330
1E2
100
AcDbEntity
  8
Visible (ISO)
100
AcDbVertex
100
AcDb2dVertex
 10
162.9537040466551
 20
170.1494780883116
 30
0.0
  0
VERTEX
  5
1F9
330
1E2
100
AcDbEntity
  8
Visible (ISO)
100
AcDbVertex
100
AcDb2dVertex
 10
163.547029542375
 20
170.2382103308954
 30
0.0
  0
VERTEX
  5
1FA
330
1E2
100
AcDbEntity
  8
Visible (ISO)
100
AcDbVertex
100
AcDb2dVertex
 10
164.0428638929609
 20
170.3269449576649
 30
0.0
  0
VERTEX
  5
1FB
330
1E2
100
AcDbEntity
  8
Visible (ISO)
100
AcDbVertex
100
AcDb2dVertex
 10
164.4350481504682
 20
170.4156772002485
 30
0.0
  0
VERTEX
  5
1FC
330
1E2
100
AcDbEntity
  8
Visible (ISO)
100
AcDbVertex
100
AcDb2dVertex
 10
164.7187120193723
 20
170.5044094428322
 30
0.0
  0
VERTEX
  5
1FD
330
1E2
100
AcDbEntity
  8
Visible (ISO)
100
AcDbVertex
100
AcDb2dVertex
 10
164.8903322691206
 20
170.5931416854158
 30
0.0
  0
VERTEX
  5
1FE
330
1E2
100
AcDbEntity
  8
Visible (ISO)
100
AcDbVertex
100
AcDb2dVertex
 10
164.9477768415693
 20
170.6818739279994
 30
0.0
  0
SEQEND
  5
1E5
330
1E2
100
AcDbEntity
  8
Visible (ISO)
  0
POLYLINE
  5
1FF
330
75
100
AcDbEntity
  8
Visible (ISO)
100
AcDb2dPolyline
 66
     1
 10
0.0
 20
0.0
 30
0.0
 70
   128
  0
VERTEX
  5
200
330
1FF
100
AcDbEntity
  8
Visible (ISO)
100
AcDbVertex
100
AcDb2dVertex
 10
146.7183572525267
 20
173.3748260840676
 30
0.0
  0
VERTEX
  5
201
330
1FF
100
AcDbEntity
  8
Visible (ISO)
100
AcDbVertex
100
AcDb2dVertex
 10
146.7250311846022
 20
173.3772031173013
 30
0.0
  0
VERTEX
  5
203
330
1FF
100
AcDbEntity
  8
Visible (ISO)
100
AcDbVertex
100
AcDb2dVertex
 10
146.7317855829481
 20
173.3795801505349
 30
0.0
  0
VERTEX
  5
204
330
1FF
100
AcDbEntity
  8
Visible (ISO)
100
AcDbVertex
100
AcDb2dVertex
 10
146.7386198515181
 20
173.3819571837686
 30
0.0
  0
VERTEX
  5
205
330
1FF
100
AcDbEntity
  8
Visible (ISO)
100
AcDbVertex
100
AcDb2dVertex
 10
146.745533990312
 20
173.3843342170023
 30
0.0
  0
VERTEX
  5
206
330
1FF
100
AcDbEntity
  8
Visible (ISO)
100
AcDbVertex
100
AcDb2dVertex
 10
146.7525279993299
 20
173.3867112502359
 30
0.0
  0
VERTEX
  5
207
330
1FF
100
AcDbEntity
  8
Visible (ISO)
100
AcDbVertex
100
AcDb2dVertex
 10
146.7596018785719
 20
173.3890882834696
 30
0.0
  0
VERTEX
  5
208
330
1FF
100
AcDbEntity
  8
Visible (ISO)
100
AcDbVertex
100
AcDb2dVertex
 10
146.7667550319914
 20
173.3914653167032
 30
0.0
  0
VERTEX
  5
209
330
1FF
100
AcDbEntity
  8
Visible (ISO)
100
AcDbVertex
100
AcDb2dVertex
 10
146.7739886516813
 20
173.3938423499369
 30
0.0
  0
VERTEX
  5
20A
330
1FF
100
AcDbEntity
  8
Visible (ISO)
100
AcDbVertex
100
AcDb2dVertex
 10
146.7813015455488
 20
173.3962193831706
 30
0.0
  0
VERTEX
  5
20B
330
1FF
100
AcDbEntity
  8
Visible (ISO)
100
AcDbVertex
100
AcDb2dVertex
 10
146.7886937135939
 20
173.3985964164042
 30
0.0
  0
VERTEX
  5
20C
330
1FF
100
AcDbEntity
  8
Visible (ISO)
100
AcDbVertex
100
AcDb2dVertex
 10
146.7961657518629
 20
173.4009734496379
 30
0.0
  0
VERTEX
  5
20D
330
1FF
100
AcDbEntity
  8
Visible (ISO)
100
AcDbVertex
100
AcDb2dVertex
 10
146.8037170643095
 20
173.4033504828715
 30
0.0
  0
VERTEX
  5
20E
330
1FF
100
AcDbEntity
  8
Visible (ISO)
100
AcDbVertex
100
AcDb2dVertex
 10
146.8113482469801
 20
173.4057275161052
 30
0.0
  0
VERTEX
  5
20F
330
1FF
100
AcDbEntity
  8
Visible (ISO)
100
AcDbVertex
100
AcDb2dVertex
 10
146.8190581077818
 20
173.4081045493389
 30
0.0
  0
VERTEX
  5
210
330
1FF
100
AcDbEntity
  8
Visible (ISO)
100
AcDbVertex
100
AcDb2dVertex
 10
146.826847242761
 20
173.4104815825725
 30
0.0
  0
VERTEX
  5
211
330
1FF
100
AcDbEntity
  8
Visible (ISO)
100
AcDbVertex
100
AcDb2dVertex
 10
146.8347156519178
 20
173.4128586158062
 30
0.0
  0
VERTEX
  5
212
330
1FF
100
AcDbEntity
  8
Visible (ISO)
100
AcDbVertex
100
AcDb2dVertex
 10
146.8426633352522
 20
173.4152356490398
 30
0.0
  0
VERTEX
  5
213
330
1FF
100
AcDbEntity
  8
Visible (ISO)
100
AcDbVertex
100
AcDb2dVertex
 10
146.8506896967176
 20
173.4176126822735
 30
0.0
  0
VERTEX
  5
214
330
1FF
100
AcDbEntity
  8
Visible (ISO)
100
AcDbVertex
100
AcDb2dVertex
 10
146.8587953323607
 20
173.4199897155071
 30
0.0
  0
VERTEX
  5
215
330
1FF
100
AcDbEntity
  8
Visible (ISO)
100
AcDbVertex
100
AcDb2dVertex
 10
146.8669796461347
 20
173.4223667487408
 30
0.0
  0
VERTEX
  5
216
330
1FF
100
AcDbEntity
  8
Visible (ISO)
100
AcDbVertex
100
AcDb2dVertex
 10
146.87524263804
 20
173.4247437819744
 30
0.0
  0
VERTEX
  5
217
330
1FF
100
AcDbEntity
  8
Visible (ISO)
100
AcDbVertex
100
AcDb2dVertex
 10
146.8835843080763
 20
173.4271208152081
 30
0.0
  0
VERTEX
  5
218
330
1FF
100
AcDbEntity
  8
Visible (ISO)
100
AcDbVertex
100
AcDb2dVertex
 10
146.8920046562437
 20
173.4294978484418
 30
0.0
  0
VERTEX
  5
219
330
1FF
100
AcDbEntity
  8
Visible (ISO)
100
AcDbVertex
100
AcDb2dVertex
 10
146.9005036825422
 20
173.4318748816754
 30
0.0
  0
SEQEND
  5
202
330
1FF
100
AcDbEntity
  8
Visible (ISO)
  0
LINE
  5
21A
330
75
100
AcDbEntity
  8
Visible (ISO)
100
AcDbLine
 10
155.69777672236
 20
164.4318746909443
 30
0.0
 11
155.69777672236
 21
164.031874690945
 31
0.0
  0
LINE
  5
21B
330
75
100
AcDbEntity
  8
Visible (ISO)
100
AcDbLine
 10
146.9005039466298
 20
173.4318746909406
 30
0.0
 11
146.9005039466298
 21
172.6318746909405
 31
0.0
  0
LINE
  5
21C
330
75
100
AcDbEntity
  8
Visible (ISO)
100
AcDbLine
 10
165.8549088711027
 20
165.1095596656106
 30
0.0
 11
164.6771961921934
 21
164.6889249190591
 31
0.0
  0
LINE
  5
21D
330
75
100
AcDbEntity
  8
Visible (ISO)
100
AcDbLine
 10
165.8549088711027
 20
170.1095596656106
 30
0.0
 11
164.6771961921934
 21
169.6889249190591
 31
0.0
  0
LINE
  5
21E
330
75
100
AcDbEntity
  8
Visible (ISO)
100
AcDbLine
 10
146.4477766031508
 20
172.2857967719312
 30
0.0
 11
145.5406445736174
 21
172.609559665608
 31
0.0
  0
LINE
  5
21F
330
75
100
AcDbEntity
  8
Visible (ISO)
100
AcDbLine
 10
146.4477766031508
 20
167.2857967719312
 30
0.0
 11
145.5406445736174
 21
167.609559665608
 31
0.0
  0
LINE
  5
220
330
75
100
AcDbEntity
  8
Visible (ISO)
100
AcDbLine
 10
164.9477768415693
 20
165.7779518470044
 30
0.0
 11
165.8549088711027
 21
165.4541889533277
 31
0.0
  0
LINE
  5
221
330
75
100
AcDbEntity
  8
Visible (ISO)
100
AcDbLine
 10
164.9477768415693
 20
170.7779518470044
 30
0.0
 11
165.8549088711027
 21
170.4541889533277
 31
0.0
  0
LINE
  5
222
330
75
100
AcDbEntity
  8
Visible (ISO)
100
AcDbLine
 10
145.5406445736174
 20
167.9541889533303
 30
0.0
 11
146.7183572525267
 21
168.3748260840676
 31
0.0
  0
LINE
  5
223
330
75
100
AcDbEntity
  8
Visible (ISO)
100
AcDbLine
 10
145.5406445736174
 20
172.9541889533303
 30
0.0
 11
146.7183572525267
 21
173.3748260840676
 31
0.0
  0
LINE
  5
224
330
75
100
AcDbEntity
  8
Visible (ISO)
100
AcDbLine
 10
164.94777672236
 20
163.6318746909388
 30
0.0
 11
146.44777672236
 21
163.6318746909388
 31
0.0
  0
LINE
  5
225
330
75
100
AcDbEntity
  8
Visible (ISO)
100
AcDbLine
 10
164.94777672236
 20
173.6318746909389
 30
0.0
 11
164.94777672236
 21
170.6818746909389
 31
0.0
  0
LINE
  5
226
330
75
100
AcDbEntity
  8
Visible (ISO)
100
AcDbLine
 10
164.94777672236
 20
169.7857977344937
 30
0.0
 11
164.94777672236
 21
165.6818746909389
 31
0.0
  0
LINE
  5
227
330
75
100
AcDbEntity
  8
Visible (ISO)
100
AcDbLine
 10
164.94777672236
 20
164.7857977344937
 30
0.0
 11
164.94777672236
 21
163.6318746909388
 31
0.0
  0
LINE
  5
228
330
75
100
AcDbEntity
  8
Visible (ISO)
100
AcDbLine
 10
146.44777672236
 20
173.6318746909389
 30
0.0
 11
146.44777672236
 21
173.2779516473867
 31
0.0
  0
LINE
  5
229
330
75
100
AcDbEntity
  8
Visible (ISO)
100
AcDbLine
 10
146.44777672236
 20
172.3818746909389
 30
0.0
 11
146.44777672236
 21
168.2779516473867
 31
0.0
  0
LINE
  5
22A
330
75
100
AcDbEntity
  8
Visible (ISO)
100
AcDbLine
 10
146.44777672236
 20
167.3818746909389
 30
0.0
 11
146.44777672236
 21
163.6318746909388
 31
0.0
  0
ARC
  5
22B
330
75
100
AcDbEntity
  8
Visible (ISO)
100
AcDbCircle
 10
155.69777672236
 20
193.6318746909719
 30
0.0
 40
15.5000000000007
100
AcDbArc
 50
39.4662643495907
 51
140.5337356504093
  0
POLYLINE
  5
22C
330
75
100
AcDbEntity
  8
Visible (ISO)
100
AcDb2dPolyline
 66
     1
 10
0.0
 20
0.0
 30
0.0
 70
   128
  0
VERTEX
  5
22D
330
22C
100
AcDbEntity
  8
Visible (ISO)
100
AcDbVertex
100
AcDb2dVertex
 10
143.6998790973905
 20
186.9638565883171
 30
0.0
  0
VERTEX
  5
22E
330
22C
100
AcDbEntity
  8
Visible (ISO)
100
AcDbVertex
100
AcDb2dVertex
 10
143.6760956520323
 20
187.0330611571801
 30
0.0
  0
VERTEX
  5
230
330
22C
100
AcDbEntity
  8
Visible (ISO)
100
AcDbVertex
100
AcDb2dVertex
 10
143.6534899944548
 20
187.1023485764993
 30
0.0
  0
VERTEX
  5
231
330
22C
100
AcDbEntity
  8
Visible (ISO)
100
AcDbVertex
100
AcDb2dVertex
 10
143.6320645088438
 20
187.1717128858103
 30
0.0
  0
VERTEX
  5
232
330
22C
100
AcDbEntity
  8
Visible (ISO)
100
AcDbVertex
100
AcDb2dVertex
 10
143.6118215793852
 20
187.2411499127879
 30
0.0
  0
VERTEX
  5
233
330
22C
100
AcDbEntity
  8
Visible (ISO)
100
AcDbVertex
100
AcDb2dVertex
 10
143.5927623981718
 20
187.3106489285961
 30
0.0
  0
VERTEX
  5
234
330
22C
100
AcDbEntity
  8
Visible (ISO)
100
AcDbVertex
100
AcDb2dVertex
 10
143.5748905414824
 20
187.380207549049
 30
0.0
  0
VERTEX
  5
235
330
22C
100
AcDbEntity
  8
Visible (ISO)
100
AcDbVertex
100
AcDb2dVertex
 10
143.5582060093168
 20
187.4498245820538
 30
0.0
  0
VERTEX
  5
236
330
22C
100
AcDbEntity
  8
Visible (ISO)
100
AcDbVertex
100
AcDb2dVertex
 10
143.542711185861
 20
187.5194988355176
 30
0.0
  0
VERTEX
  5
237
330
22C
100
AcDbEntity
  8
Visible (ISO)
100
AcDbVertex
100
AcDb2dVertex
 10
143.5284060711149
 20
187.5892285213011
 30
0.0
  0
VERTEX
  5
238
330
22C
100
AcDbEntity
  8
Visible (ISO)
100
AcDbVertex
100
AcDb2dVertex
 10
143.5152930492643
 20
187.6590082749861
 30
0.0
  0
VERTEX
  5
239
330
22C
100
AcDbEntity
  8
Visible (ISO)
100
AcDbVertex
100
AcDb2dVertex
 10
143.5033768886808
 20
187.728813062622
 30
0.0
  0
VERTEX
  5
23A
330
22C
100
AcDbEntity
  8
Visible (ISO)
100
AcDbVertex
100
AcDb2dVertex
 10
143.4926587814573
 20
187.7986422881622
 30
0.0
  0
VERTEX
  5
23B
330
22C
100
AcDbEntity
  8
Visible (ISO)
100
AcDbVertex
100
AcDb2dVertex
 10
143.483136343408
 20
187.8685001239319
 30
0.0
  0
VERTEX
  5
23C
330
22C
100
AcDbEntity
  8
Visible (ISO)
100
AcDbVertex
100
AcDb2dVertex
 10
143.4748119587187
 20
187.9383907422563
 30
0.0
  0
VERTEX
  5
23D
330
22C
100
AcDbEntity
  8
Visible (ISO)
100
AcDbVertex
100
AcDb2dVertex
 10
143.4676844352964
 20
188.0083189115069
 30
0.0
  0
VERTEX
  5
23E
330
22C
100
AcDbEntity
  8
Visible (ISO)
100
AcDbVertex
100
AcDb2dVertex
 10
143.4617549652342
 20
188.0782882079623
 30
0.0
  0
VERTEX
  5
23F
330
22C
100
AcDbEntity
  8
Visible (ISO)
100
AcDbVertex
100
AcDb2dVertex
 10
143.4570211643461
 20
188.1483022079013
 30
0.0
  0
VERTEX
  5
240
330
22C
100
AcDbEntity
  8
Visible (ISO)
100
AcDbVertex
100
AcDb2dVertex
 10
143.4534842247251
 20
188.2183662757419
 30
0.0
  0
VERTEX
  5
241
330
22C
100
AcDbEntity
  8
Visible (ISO)
100
AcDbVertex
100
AcDb2dVertex
 10
143.4511453384642
 20
188.2884833917164
 30
0.0
  0
VERTEX
  5
242
330
22C
100
AcDbEntity
  8
Visible (ISO)
100
AcDbVertex
100
AcDb2dVertex
 10
143.4500021213774
 20
188.3586589202428
 30
0.0
  0
VERTEX
  5
243
330
22C
100
AcDbEntity
  8
Visible (ISO)
100
AcDbVertex
100
AcDb2dVertex
 10
143.4500569576506
 20
188.4288958415533
 30
0.0
  0
VERTEX
  5
244
330
22C
100
AcDbEntity
  8
Visible (ISO)
100
AcDbVertex
100
AcDb2dVertex
 10
143.4513074630979
 20
188.4991995200659
 30
0.0
  0
VERTEX
  5
245
330
22C
100
AcDbEntity
  8
Visible (ISO)
100
AcDbVertex
100
AcDb2dVertex
 10
143.4537548298124
 20
188.5695729360129
 30
0.0
  0
VERTEX
  5
246
330
22C
100
AcDbEntity
  8
Visible (ISO)
100
AcDbVertex
100
AcDb2dVertex
 10
143.4574002498869
 20
188.6400208577659
 30
0.0
  0
SEQEND
  5
22F
330
22C
100
AcDbEntity
  8
Visible (ISO)
  0
ARC
  5
247
330
75
100
AcDbEntity
  8
Visible (ISO)
100
AcDbCircle
 10
155.69777672236
 20
193.6318746909656
 30
0.0
 40
15.50000000001059
100
AcDbArc
 50
140.5337356503913
 51
219.28030196721
  0
ARC
  5
248
330
75
100
AcDbEntity
  8
Visible (ISO)
100
AcDbCircle
 10
155.69777672236
 20
193.6318746909656
 30
0.0
 40
15.50000000001059
100
AcDbArc
 50
320.7442531816453
 51
39.46626434960864
  0
POLYLINE
  5
249
330
75
100
AcDbEntity
  8
Visible (ISO)
100
AcDb2dPolyline
 66
     1
 10
0.0
 20
0.0
 30
0.0
 70
   128
  0
VERTEX
  5
24A
330
249
100
AcDbEntity
  8
Visible (ISO)
100
AcDbVertex
100
AcDb2dVertex
 10
167.9413861507658
 20
188.6556822762038
 30
0.0
  0
VERTEX
  5
24B
330
249
100
AcDbEntity
  8
Visible (ISO)
100
AcDbVertex
100
AcDb2dVertex
 10
167.9453272098783
 20
188.5845903262641
 30
0.0
  0
VERTEX
  5
24D
330
249
100
AcDbEntity
  8
Visible (ISO)
100
AcDbVertex
100
AcDb2dVertex
 10
167.9480487579588
 20
188.5135737761999
 30
0.0
  0
VERTEX
  5
24E
330
249
100
AcDbEntity
  8
Visible (ISO)
100
AcDbVertex
100
AcDb2dVertex
 10
167.9495519871
 20
188.4426281556631
 30
0.0
  0
VERTEX
  5
24F
330
249
100
AcDbEntity
  8
Visible (ISO)
100
AcDbVertex
100
AcDb2dVertex
 10
167.9498357052091
 20
188.3717486962819
 30
0.0
  0
VERTEX
  5
250
330
249
100
AcDbEntity
  8
Visible (ISO)
100
AcDbVertex
100
AcDb2dVertex
 10
167.9488999122862
 20
188.3009312257313
 30
0.0
  0
VERTEX
  5
251
330
249
100
AcDbEntity
  8
Visible (ISO)
100
AcDbVertex
100
AcDb2dVertex
 10
167.9467446083311
 20
188.2301703795933
 30
0.0
  0
VERTEX
  5
252
330
249
100
AcDbEntity
  8
Visible (ISO)
100
AcDbVertex
100
AcDb2dVertex
 10
167.9433709854368
 20
188.1594607934497
 30
0.0
  0
VERTEX
  5
253
330
249
100
AcDbEntity
  8
Visible (ISO)
100
AcDbVertex
100
AcDb2dVertex
 10
167.9387766594175
 20
188.088798891022
 30
0.0
  0
VERTEX
  5
254
330
249
100
AcDbEntity
  8
Visible (ISO)
100
AcDbVertex
100
AcDb2dVertex
 10
167.9329628223661
 20
188.0181787118456
 30
0.0
  0
VERTEX
  5
255
330
249
100
AcDbEntity
  8
Visible (ISO)
100
AcDbVertex
100
AcDb2dVertex
 10
167.9259282821897
 20
187.9475960835954
 30
0.0
  0
VERTEX
  5
256
330
249
100
AcDbEntity
  8
Visible (ISO)
100
AcDbVertex
100
AcDb2dVertex
 10
167.9176742309812
 20
187.8770462378999
 30
0.0
  0
VERTEX
  5
257
330
249
100
AcDbEntity
  8
Visible (ISO)
100
AcDbVertex
100
AcDb2dVertex
 10
167.9082006687406
 20
187.8065244063873
 30
0.0
  0
VERTEX
  5
258
330
249
100
AcDbEntity
  8
Visible (ISO)
100
AcDbVertex
100
AcDb2dVertex
 10
167.8975052112821
 20
187.7360258206863
 30
0.0
  0
VERTEX
  5
259
330
249
100
AcDbEntity
  8
Visible (ISO)
100
AcDbVertex
100
AcDb2dVertex
 10
167.8855938190702
 20
187.6655683621901
 30
0.0
  0
VERTEX
  5
25A
330
249
100
AcDbEntity
  8
Visible (ISO)
100
AcDbVertex
100
AcDb2dVertex
 10
167.8724664921049
 20
187.5951639518278
 30
0.0
  0
VERTEX
  5
25B
330
249
100
AcDbEntity
  8
Visible (ISO)
100
AcDbVertex
100
AcDb2dVertex
 10
167.8581256145719
 20
187.5248125895994
 30
0.0
  0
VERTEX
  5
25C
330
249
100
AcDbEntity
  8
Visible (ISO)
100
AcDbVertex
100
AcDb2dVertex
 10
167.8425735706571
 20
187.4545154675977
 30
0.0
  0
VERTEX
  5
25D
330
249
100
AcDbEntity
  8
Visible (ISO)
100
AcDbVertex
100
AcDb2dVertex
 10
167.8258091682676
 20
187.3842737779156
 30
0.0
  0
VERTEX
  5
25E
330
249
100
AcDbEntity
  8
Visible (ISO)
100
AcDbVertex
100
AcDb2dVertex
 10
167.8078347915891
 20
187.3140875205532
 30
0.0
  0
VERTEX
  5
25F
330
249
100
AcDbEntity
  8
Visible (ISO)
100
AcDbVertex
100
AcDb2dVertex
 10
167.7886516327146
 20
187.2439590796962
 30
0.0
  0
VERTEX
  5
260
330
249
100
AcDbEntity
  8
Visible (ISO)
100
AcDbVertex
100
AcDb2dVertex
 10
167.768260883737
 20
187.1738908395304
 30
0.0
  0
VERTEX
  5
261
330
249
100
AcDbEntity
  8
Visible (ISO)
100
AcDbVertex
100
AcDb2dVertex
 10
167.7466673130277
 20
187.1038965091242
 30
0.0
  0
VERTEX
  5
262
330
249
100
AcDbEntity
  8
Visible (ISO)
100
AcDbVertex
100
AcDb2dVertex
 10
167.7238733047727
 20
187.0339790687097
 30
0.0
  0
VERTEX
  5
263
330
249
100
AcDbEntity
  8
Visible (ISO)
100
AcDbVertex
100
AcDb2dVertex
 10
167.6998788589719
 20
186.9641450747979
 30
0.0
  0
SEQEND
  5
24C
330
249
100
AcDbEntity
  8
Visible (ISO)
  0
ELLIPSE
  5
264
330
75
100
AcDbEntity
  8
Visible (ISO)
100
AcDbEllipse
 10
155.6998790010787
 20
188.3900516941713
 30
0.0
 11
12.25
 21
-0.0000000000000011
 31
0.0
210
0.0
220
0.0
230
1.0
 40
0.5824247774219362
 41
0.0372394022224967
 42
3.106549796888192
  0
LINE
  5
265
330
75
100
AcDbEntity
  8
Visible (ISO)
100
AcDbLine
 10
167.19777672236
 20
173.6318746909389
 30
0.0
 11
144.19777672236
 21
173.6318746909389
 31
0.0
  0
LINE
  5
266
330
75
100
AcDbEntity
  8
Visible (ISO)
100
AcDbLine
 10
167.19777672236
 20
180.5891587582234
 30
0.0
 11
167.19777672236
 21
173.6318746909389
 31
0.0
  0
LINE
  5
267
330
75
100
AcDbEntity
  8
Visible (ISO)
100
AcDbLine
 10
144.19777672236
 20
180.595120160884
 30
0.0
 11
144.19777672236
 21
173.6318746909389
 31
0.0
  0
LINE
  5
268
330
75
100
AcDbEntity
  8
Visible Narrow (ISO)
100
AcDbLine
 10
163.92777672236
 20
163.6318746909388
 30
0.0
 11
163.92777672236
 21
164.5046428086267
 31
0.0
  0
LINE
  5
269
330
75
100
AcDbEntity
  8
Visible Narrow (ISO)
100
AcDbLine
 10
163.92777672236
 20
165.3046428086268
 30
0.0
 11
163.92777672236
 21
169.5046428086267
 31
0.0
  0
LINE
  5
26A
330
75
100
AcDbEntity
  8
Visible Narrow (ISO)
100
AcDbLine
 10
163.92777672236
 20
170.3046428086267
 30
0.0
 11
163.92777672236
 21
173.6318746909389
 31
0.0
  0
LINE
  5
26B
330
75
100
AcDbEntity
  8
Visible Narrow (ISO)
100
AcDbLine
 10
147.46777672236
 20
173.6318746909389
 30
0.0
 11
147.46777672236
 21
168.559106573256
 31
0.0
  0
LINE
  5
26C
330
75
100
AcDbEntity
  8
Visible Narrow (ISO)
100
AcDbLine
 10
147.46777672236
 20
167.759106573256
 30
0.0
 11
147.46777672236
 21
163.6318746909388
 31
0.0
  0
LINE
  5
26D
330
75
100
AcDbEntity
  8
Visible (ISO)
100
AcDbLine
 10
145.7056335692338
 20
182.9971232392114
 30
0.0
 11
145.7056335692338
 21
182.1841516519193
 31
0.0
  0
ELLIPSE
  5
26E
330
75
100
AcDbEntity
  8
Visible (ISO)
100
AcDbEllipse
 10
145.4319765023766
 20
182.5906374455653
 30
0.0
 11
-1.0
 21
0.0000000000000003
 31
0.0
210
0.0
220
0.0
230
1.0
 40
0.4226182617412366
 41
4.183122235666957
 42
8.131174827462993
  0
LINE
  5
26F
330
75
100
AcDbEntity
  8
Visible (ISO)
100
AcDbLine
 10
165.4628809522647
 20
181.1261650414425
 30
0.0
 11
165.4628809522647
 21
182.9554320301314
 31
0.0
  0
ELLIPSE
  5
270
330
75
100
AcDbEntity
  8
Visible (ISO)
100
AcDbEllipse
 10
165.9677814997809
 20
181.4909596260086
 30
0.0
 11
0.9999999999999998
 21
-0.0000000000000002
 31
0.0
210
0.0
220
0.0
230
1.0
 40
0.4226182617412368
 41
4.183122235666956
 42
8.131174827463009
  0
LINE
  5
271
330
75
100
AcDbEntity
  8
Visible (ISO)
100
AcDbLine
 10
165.6941244329237
 20
182.1841516519193
 30
0.0
 11
165.6941244329237
 21
181.8974454196546
 31
0.0
  0
ELLIPSE
  5
272
330
75
100
AcDbEntity
  8
Visible (ISO)
100
AcDbEllipse
 10
155.6998790010787
 20
182.0407985357869
 30
0.0
 11
-11.99999999999999
 21
0.0000000000000031
 31
0.0
210
0.0
220
0.0
230
1.0
 40
0.4226182617412368
 41
0.000000000000001
 42
6.283185307179585
  0
ELLIPSE
  5
273
330
75
100
AcDbEntity
  8
Visible (ISO)
100
AcDbEllipse
 10
155.6998790010787
 20
182.0407985357869
 30
0.0
 11
-9.999999999999998
 21
0.0000000000000019
 31
0.0
210
0.0
220
0.0
230
1.0
 40
0.4226182617412367
 41
3.107665908513693
 42
6.065038501026414
  0
ELLIPSE
  5
274
330
75
100
AcDbEntity
  8
Visible (ISO)
100
AcDbEllipse
 10
155.6998790010787
 20
182.0407985357869
 30
0.0
 11
9.999999999999998
 21
-0.0000000000000014
 31
0.0
210
0.0
220
0.0
230
1.0
 40
0.4226182617412367
 41
3.107665908513692
 42
6.065038501026413
  0
LINE
  5
275
330
75
100
AcDbEntity
  8
Visible (ISO)
100
AcDbLine
 10
143.6998790010788
 20
182.0407985357869
 30
0.0
 11
143.6998790010788
 21
189.8241063974392
 31
0.0
  0
LINE
  5
276
330
75
100
AcDbEntity
  8
Visible (ISO)
100
AcDbLine
 10
167.6998790010787
 20
182.0407985357869
 30
0.0
 11
167.6998790010787
 21
189.8241063974392
 31
0.0
  0
LINE
  5
277
330
75
100
AcDbEntity
  8
Visible (ISO)
100
AcDbLine
 10
152.6629785411209
 20
208.8318746909445
 30
0.0
 11
145.69777672236
 21
208.8318746909389
 31
0.0
  0
LINE
  5
278
330
75
100
AcDbEntity
  8
Visible (ISO)
100
AcDbLine
 10
165.69777672236
 20
208.8318746909389
 30
0.0
 11
158.7325749035992
 21
208.8318746909445
 31
0.0
  0
LINE
  5
279
330
75
100
AcDbEntity
  8
Visible (ISO)
100
AcDbLine
 10
165.69777672236
 20
208.8318746909389
 30
0.0
 11
165.69777672236
 21
205.4745939732994
 31
0.0
  0
LINE
  5
27A
330
75
100
AcDbEntity
  8
Visible (ISO)
100
AcDbLine
 10
145.69777672236
 20
208.8318746909389
 30
0.0
 11
145.69777672236
 21
205.4745939732995
 31
0.0
  0
LINE
  5
27B
330
75
100
AcDbEntity
  8
Visible (ISO)
100
AcDbLine
 10
159.2990453043951
 20
209.8318746909428
 30
0.0
 11
159.2990453043951
 21
208.8318746909428
 31
0.0
  0
LINE
  5
27C
330
75
100
AcDbEntity
  8
Visible (ISO)
100
AcDbLine
 10
148.3737549025236
 20
209.8318746909399
 30
0.0
 11
148.3737549025236
 21
208.8318746909398
 31
0.0
  0
LINE
  5
27D
330
75
100
AcDbEntity
  8
Visible (ISO)
100
AcDbLine
 10
163.0217985421965
 20
209.8318746909379
 30
0.0
 11
163.0217985421965
 21
208.8318746909379
 31
0.0
  0
LINE
  5
27E
330
75
100
AcDbEntity
  8
Visible (ISO)
100
AcDbLine
 10
165.04777672236
 20
209.8318746909389
 30
0.0
 11
146.3477767223601
 21
209.8318746909389
 31
0.0
  0
LINE
  5
27F
330
75
100
AcDbEntity
  8
Visible (ISO)
100
AcDbLine
 10
165.04777672236
 20
223.8318746909389
 30
0.0
 11
165.04777672236
 21
209.8318746909389
 31
0.0
  0
LINE
  5
280
330
75
100
AcDbEntity
  8
Visible (ISO)
100
AcDbLine
 10
146.34777672236
 20
223.8318746909389
 30
0.0
 11
146.34777672236
 21
209.8318746909389
 31
0.0
  0
LINE
  5
281
330
75
100
AcDbEntity
  8
Visible (ISO)
100
AcDbLine
 10
143.4977767223601
 20
229.8318746909389
 30
0.0
 11
167.89777672236
 21
229.8318746909389
 31
0.0
  0
LINE
  5
282
330
75
100
AcDbEntity
  8
Visible (ISO)
100
AcDbLine
 10
143.4977767223601
 20
223.8318746909389
 30
0.0
 11
167.89777672236
 21
223.8318746909389
 31
0.0
  0
LINE
  5
283
330
75
100
AcDbEntity
  8
Visible (ISO)
100
AcDbLine
 10
143.49777672236
 20
223.8318746909389
 30
0.0
 11
143.49777672236
 21
229.8318746909389
 31
0.0
  0
LINE
  5
284
330
75
100
AcDbEntity
  8
Visible (ISO)
100
AcDbLine
 10
167.89777672236
 20
223.8318746909389
 30
0.0
 11
167.89777672236
 21
229.8318746909389
 31
0.0
  0
ARC
  5
285
330
75
100
AcDbEntity
  8
Visible (ISO)
100
AcDbCircle
 10
266.1275567370369
 20
204.428194520823
 30
0.0
 40
32.19489017534026
100
AcDbArc
 50
276.3668530082518
 51
295.057763918142
  0
ARC
  5
286
330
75
100
AcDbEntity
  8
Visible (ISO)
100
AcDbCircle
 10
266.1275567370369
 20
182.8355548609801
 30
0.0
 40
32.19489017534027
100
AcDbArc
 50
80.93903945649541
 51
83.63314699174813
  0
POLYLINE
  5
287
330
75
100
AcDbEntity
  8
Visible (ISO)
100
AcDb2dPolyline
 66
     1
 10
0.0
 20
0.0
 30
0.0
 70
   128
  0
VERTEX
  5
288
330
287
100
AcDbEntity
  8
Visible (ISO)
100
AcDbVertex
100
AcDb2dVertex
 10
280.1977764839415
 20
215.8354774817376
 30
0.0
  0
VERTEX
  5
289
330
287
100
AcDbEntity
  8
Visible (ISO)
100
AcDbVertex
100
AcDb2dVertex
 10
280.2061741823439
 20
215.8684221609978
 30
0.0
  0
VERTEX
  5
28B
330
287
100
AcDbEntity
  8
Visible (ISO)
100
AcDbVertex
100
AcDb2dVertex
 10
280.2314894670729
 20
215.9010306700615
 30
0.0
  0
VERTEX
  5
28C
330
287
100
AcDbEntity
  8
Visible (ISO)
100
AcDbVertex
100
AcDb2dVertex
 10
280.2739065164809
 20
215.9322396620658
 30
0.0
  0
VERTEX
  5
28D
330
287
100
AcDbEntity
  8
Visible (ISO)
100
AcDbVertex
100
AcDb2dVertex
 10
280.3330557817702
 20
215.9610978468801
 30
0.0
  0
VERTEX
  5
28E
330
287
100
AcDbEntity
  8
Visible (ISO)
100
AcDbVertex
100
AcDb2dVertex
 10
280.4063551897291
 20
215.9870091780568
 30
0.0
  0
VERTEX
  5
28F
330
287
100
AcDbEntity
  8
Visible (ISO)
100
AcDbVertex
100
AcDb2dVertex
 10
280.4906701320891
 20
216.0094443663502
 30
0.0
  0
VERTEX
  5
290
330
287
100
AcDbEntity
  8
Visible (ISO)
100
AcDbVertex
100
AcDb2dVertex
 10
280.586855339456
 20
216.0287848814869
 30
0.0
  0
VERTEX
  5
291
330
287
100
AcDbEntity
  8
Visible (ISO)
100
AcDbVertex
100
AcDb2dVertex
 10
280.6959455484633
 20
216.0453573569202
 30
0.0
  0
VERTEX
  5
292
330
287
100
AcDbEntity
  8
Visible (ISO)
100
AcDbVertex
100
AcDb2dVertex
 10
280.8150713915114
 20
216.0585681303882
 30
0.0
  0
VERTEX
  5
293
330
287
100
AcDbEntity
  8
Visible (ISO)
100
AcDbVertex
100
AcDb2dVertex
 10
280.9411346191648
 20
216.0679546698474
 30
0.0
  0
VERTEX
  5
294
330
287
100
AcDbEntity
  8
Visible (ISO)
100
AcDbVertex
100
AcDb2dVertex
 10
281.0701190704588
 20
216.0735169752978
 30
0.0
  0
VERTEX
  5
295
330
287
100
AcDbEntity
  8
Visible (ISO)
100
AcDbVertex
100
AcDb2dVertex
 10
281.1977767223601
 20
216.0753504141711
 30
0.0
  0
VERTEX
  5
296
330
287
100
AcDbEntity
  8
Visible (ISO)
100
AcDbVertex
100
AcDb2dVertex
 10
281.3254343742613
 20
216.0735169752978
 30
0.0
  0
VERTEX
  5
297
330
287
100
AcDbEntity
  8
Visible (ISO)
100
AcDbVertex
100
AcDb2dVertex
 10
281.4544188255553
 20
216.0679546698474
 30
0.0
  0
VERTEX
  5
298
330
287
100
AcDbEntity
  8
Visible (ISO)
100
AcDbVertex
100
AcDb2dVertex
 10
281.5804826492552
 20
216.0585681303882
 30
0.0
  0
VERTEX
  5
299
330
287
100
AcDbEntity
  8
Visible (ISO)
100
AcDbVertex
100
AcDb2dVertex
 10
281.6996073002104
 20
216.0453573569202
 30
0.0
  0
VERTEX
  5
29A
330
287
100
AcDbEntity
  8
Visible (ISO)
100
AcDbVertex
100
AcDb2dVertex
 10
281.8086981052641
 20
216.0287848814869
 30
0.0
  0
VERTEX
  5
29B
330
287
100
AcDbEntity
  8
Visible (ISO)
100
AcDbVertex
100
AcDb2dVertex
 10
281.9048833126311
 20
216.0094443663502
 30
0.0
  0
VERTEX
  5
29C
330
287
100
AcDbEntity
  8
Visible (ISO)
100
AcDbVertex
100
AcDb2dVertex
 10
281.9891976589445
 20
215.9870091780568
 30
0.0
  0
VERTEX
  5
29D
330
287
100
AcDbEntity
  8
Visible (ISO)
100
AcDbVertex
100
AcDb2dVertex
 10
282.0624982589964
 20
215.9610978468801
 30
0.0
  0
VERTEX
  5
29E
330
287
100
AcDbEntity
  8
Visible (ISO)
100
AcDbVertex
100
AcDb2dVertex
 10
282.1216475242857
 20
215.9322396620658
 30
0.0
  0
VERTEX
  5
29F
330
287
100
AcDbEntity
  8
Visible (ISO)
100
AcDbVertex
100
AcDb2dVertex
 10
282.1640645736937
 20
215.9010306700615
 30
0.0
  0
VERTEX
  5
2A0
330
287
100
AcDbEntity
  8
Visible (ISO)
100
AcDbVertex
100
AcDb2dVertex
 10
282.1893798584227
 20
215.8684221609978
 30
0.0
  0
VERTEX
  5
2A1
330
287
100
AcDbEntity
  8
Visible (ISO)
100
AcDbVertex
100
AcDb2dVertex
 10
282.1977769607786
 20
215.8354774817376
 30
0.0
  0
SEQEND
  5
28A
330
287
100
AcDbEntity
  8
Visible (ISO)
  0
POLYLINE
  5
2A2
330
75
100
AcDbEntity
  8
Visible (ISO)
100
AcDb2dPolyline
 66
     1
 10
0.0
 20
0.0
 30
0.0
 70
   128
  0
VERTEX
  5
2A3
330
2A2
100
AcDbEntity
  8
Visible (ISO)
100
AcDbVertex
100
AcDb2dVertex
 10
282.1977769607786
 20
215.8354774817376
 30
0.0
  0
VERTEX
  5
2A4
330
2A2
100
AcDbEntity
  8
Visible (ISO)
100
AcDbVertex
100
AcDb2dVertex
 10
282.1893798584227
 20
215.8018199309259
 30
0.0
  0
VERTEX
  5
2A6
330
2A2
100
AcDbEntity
  8
Visible (ISO)
100
AcDbVertex
100
AcDb2dVertex
 10
282.1640645736937
 20
215.7671300276667
 30
0.0
  0
VERTEX
  5
2A7
330
2A2
100
AcDbEntity
  8
Visible (ISO)
100
AcDbVertex
100
AcDb2dVertex
 10
282.1216475242857
 20
215.7325688704402
 30
0.0
  0
VERTEX
  5
2A8
330
2A2
100
AcDbEntity
  8
Visible (ISO)
100
AcDbVertex
100
AcDb2dVertex
 10
282.0624982589964
 20
215.6992737158688
 30
0.0
  0
VERTEX
  5
2A9
330
2A2
100
AcDbEntity
  8
Visible (ISO)
100
AcDbVertex
100
AcDb2dVertex
 10
281.9891976589445
 20
215.6682673796566
 30
0.0
  0
VERTEX
  5
2AA
330
2A2
100
AcDbEntity
  8
Visible (ISO)
100
AcDbVertex
100
AcDb2dVertex
 10
281.9048833126311
 20
215.6405202254209
 30
0.0
  0
VERTEX
  5
2AB
330
2A2
100
AcDbEntity
  8
Visible (ISO)
100
AcDbVertex
100
AcDb2dVertex
 10
281.8086981052641
 20
215.6158677443418
 30
0.0
  0
VERTEX
  5
2AC
330
2A2
100
AcDbEntity
  8
Visible (ISO)
100
AcDbVertex
100
AcDb2dVertex
 10
281.6996073002104
 20
215.5941978796873
 30
0.0
  0
VERTEX
  5
2AD
330
2A2
100
AcDbEntity
  8
Visible (ISO)
100
AcDbVertex
100
AcDb2dVertex
 10
281.5804826492552
 20
215.5765477522765
 30
0.0
  0
VERTEX
  5
2AE
330
2A2
100
AcDbEntity
  8
Visible (ISO)
100
AcDbVertex
100
AcDb2dVertex
 10
281.4544188255553
 20
215.5638042792235
 30
0.0
  0
VERTEX
  5
2AF
330
2A2
100
AcDbEntity
  8
Visible (ISO)
100
AcDbVertex
100
AcDb2dVertex
 10
281.3254343742613
 20
215.5561605795775
 30
0.0
  0
VERTEX
  5
2B0
330
2A2
100
AcDbEntity
  8
Visible (ISO)
100
AcDbVertex
100
AcDb2dVertex
 10
281.1977767223601
 20
215.5536118849669
 30
0.0
  0
VERTEX
  5
2B1
330
2A2
100
AcDbEntity
  8
Visible (ISO)
100
AcDbVertex
100
AcDb2dVertex
 10
281.0701190704588
 20
215.5561605795775
 30
0.0
  0
VERTEX
  5
2B2
330
2A2
100
AcDbEntity
  8
Visible (ISO)
100
AcDbVertex
100
AcDb2dVertex
 10
280.9411346191648
 20
215.5638042792235
 30
0.0
  0
VERTEX
  5
2B3
330
2A2
100
AcDbEntity
  8
Visible (ISO)
100
AcDbVertex
100
AcDb2dVertex
 10
280.8150713915114
 20
215.5765477522765
 30
0.0
  0
VERTEX
  5
2B4
330
2A2
100
AcDbEntity
  8
Visible (ISO)
100
AcDbVertex
100
AcDb2dVertex
 10
280.6959455484633
 20
215.5941978796873
 30
0.0
  0
VERTEX
  5
2B5
330
2A2
100
AcDbEntity
  8
Visible (ISO)
100
AcDbVertex
100
AcDb2dVertex
 10
280.586855339456
 20
215.6158677443418
 30
0.0
  0
VERTEX
  5
2B6
330
2A2
100
AcDbEntity
  8
Visible (ISO)
100
AcDbVertex
100
AcDb2dVertex
 10
280.4906701320891
 20
215.6405202254209
 30
0.0
  0
VERTEX
  5
2B7
330
2A2
100
AcDbEntity
  8
Visible (ISO)
100
AcDbVertex
100
AcDb2dVertex
 10
280.4063551897291
 20
215.6682673796566
 30
0.0
  0
VERTEX
  5
2B8
330
2A2
100
AcDbEntity
  8
Visible (ISO)
100
AcDbVertex
100
AcDb2dVertex
 10
280.3330557817702
 20
215.6992737158688
 30
0.0
  0
VERTEX
  5
2B9
330
2A2
100
AcDbEntity
  8
Visible (ISO)
100
AcDbVertex
100
AcDb2dVertex
 10
280.2739065164809
 20
215.7325688704402
 30
0.0
  0
VERTEX
  5
2BA
330
2A2
100
AcDbEntity
  8
Visible (ISO)
100
AcDbVertex
100
AcDb2dVertex
 10
280.2314894670729
 20
215.7671300276667
 30
0.0
  0
VERTEX
  5
2BB
330
2A2
100
AcDbEntity
  8
Visible (ISO)
100
AcDbVertex
100
AcDb2dVertex
 10
280.2061741823439
 20
215.8018199309259
 30
0.0
  0
VERTEX
  5
2BC
330
2A2
100
AcDbEntity
  8
Visible (ISO)
100
AcDbVertex
100
AcDb2dVertex
 10
280.1977764839415
 20
215.8354774817376
 30
0.0
  0
SEQEND
  5
2A5
330
2A2
100
AcDbEntity
  8
Visible (ISO)
  0
LINE
  5
2BD
330
75
100
AcDbEntity
  8
Visible (ISO)
100
AcDbLine
 10
300.19777672236
 20
216.6318746909015
 30
0.0
 11
300.19777672236
 21
170.6318746909015
 31
0.0
  0
LINE
  5
2BE
330
75
100
AcDbEntity
  8
Visible (ISO)
100
AcDbLine
 10
271.1977767223601
 20
216.6318746909015
 30
0.0
 11
271.1977767223601
 21
193.6318746909151
 31
0.0
  0
LINE
  5
2BF
330
75
100
AcDbEntity
  8
Visible (ISO)
100
AcDbLine
 10
271.1977767223601
 20
216.6318746909015
 30
0.0
 11
282.6977767223601
 21
216.6318746909015
 31
0.0
  0
LINE
  5
2C0
330
75
100
AcDbEntity
  8
Visible (ISO)
100
AcDbLine
 10
293.6977767223601
 20
216.6318746909015
 30
0.0
 11
300.1977767223601
 21
216.6318746909015
 31
0.0
  0
LINE
  5
2C1
330
75
100
AcDbEntity
  8
Visible (ISO)
100
AcDbLine
 10
281.922852859925
 20
170.6318746909015
 30
0.0
 11
300.1977767223601
 21
170.6318746909015
 31
0.0
  0
POLYLINE
  5
2C2
330
75
100
AcDbEntity
  8
Visible (ISO)
100
AcDb2dPolyline
 66
     1
 10
0.0
 20
0.0
 30
0.0
 70
   128
  0
VERTEX
  5
2C3
330
2C2
100
AcDbEntity
  8
Visible (ISO)
100
AcDbVertex
100
AcDb2dVertex
 10
293.6977767223601
 20
216.6318742140644
 30
0.0
  0
VERTEX
  5
2C4
330
2C2
100
AcDbEntity
  8
Visible (ISO)
100
AcDbVertex
100
AcDb2dVertex
 10
293.6512898678068
 20
216.6206184729454
 30
0.0
  0
VERTEX
  5
2C6
330
2C2
100
AcDbEntity
  8
Visible (ISO)
100
AcDbVertex
100
AcDb2dVertex
 10
293.5114120716337
 20
216.5878359183194
 30
0.0
  0
VERTEX
  5
2C7
330
2C2
100
AcDbEntity
  8
Visible (ISO)
100
AcDbVertex
100
AcDb2dVertex
 10
293.2775210613493
 20
216.5350142821198
 30
0.0
  0
VERTEX
  5
2C8
330
2C2
100
AcDbEntity
  8
Visible (ISO)
100
AcDbVertex
100
AcDb2dVertex
 10
292.9520367855314
 20
216.4651051863561
 30
0.0
  0
VERTEX
  5
2C9
330
2C2
100
AcDbEntity
  8
Visible (ISO)
100
AcDbVertex
100
AcDb2dVertex
 10
292.549323963571
 20
216.3846794470681
 30
0.0
  0
VERTEX
  5
2CA
330
2C2
100
AcDbEntity
  8
Visible (ISO)
100
AcDbVertex
100
AcDb2dVertex
 10
292.0866941684965
 20
216.3006559714214
 30
0.0
  0
VERTEX
  5
2CB
330
2C2
100
AcDbEntity
  8
Visible (ISO)
100
AcDbVertex
100
AcDb2dVertex
 10
291.5591620678191
 20
216.2162939413924
 30
0.0
  0
VERTEX
  5
2CC
330
2C2
100
AcDbEntity
  8
Visible (ISO)
100
AcDbVertex
100
AcDb2dVertex
 10
290.9605120891813
 20
216.1349979742906
 30
0.0
  0
VERTEX
  5
2CD
330
2C2
100
AcDbEntity
  8
Visible (ISO)
100
AcDbVertex
100
AcDb2dVertex
 10
290.3061472648863
 20
216.063887248888
 30
0.0
  0
VERTEX
  5
2CE
330
2C2
100
AcDbEntity
  8
Visible (ISO)
100
AcDbVertex
100
AcDb2dVertex
 10
289.6127163643125
 20
216.0098592146779
 30
0.0
  0
VERTEX
  5
2CF
330
2C2
100
AcDbEntity
  8
Visible (ISO)
100
AcDbVertex
100
AcDb2dVertex
 10
288.902147936273
 20
215.9761897429373
 30
0.0
  0
VERTEX
  5
2D0
330
2C2
100
AcDbEntity
  8
Visible (ISO)
100
AcDbVertex
100
AcDb2dVertex
 10
288.1977771991972
 20
215.9645859106924
 30
0.0
  0
VERTEX
  5
2D1
330
2C2
100
AcDbEntity
  8
Visible (ISO)
100
AcDbVertex
100
AcDb2dVertex
 10
287.4934052700285
 20
215.9761897429373
 30
0.0
  0
VERTEX
  5
2D2
330
2C2
100
AcDbEntity
  8
Visible (ISO)
100
AcDbVertex
100
AcDb2dVertex
 10
286.7828380340819
 20
216.0098592146779
 30
0.0
  0
VERTEX
  5
2D3
330
2C2
100
AcDbEntity
  8
Visible (ISO)
100
AcDbVertex
100
AcDb2dVertex
 10
286.0894059414152
 20
216.063887248888
 30
0.0
  0
VERTEX
  5
2D4
330
2C2
100
AcDbEntity
  8
Visible (ISO)
100
AcDbVertex
100
AcDb2dVertex
 10
285.4350411171202
 20
216.1349979742906
 30
0.0
  0
VERTEX
  5
2D5
330
2C2
100
AcDbEntity
  8
Visible (ISO)
100
AcDbVertex
100
AcDb2dVertex
 10
284.8363911384825
 20
216.2162939413924
 30
0.0
  0
VERTEX
  5
2D6
330
2C2
100
AcDbEntity
  8
Visible (ISO)
100
AcDbVertex
100
AcDb2dVertex
 10
284.308859037805
 20
216.3006559714214
 30
0.0
  0
VERTEX
  5
2D7
330
2C2
100
AcDbEntity
  8
Visible (ISO)
100
AcDbVertex
100
AcDb2dVertex
 10
283.8462292427305
 20
216.3846794470681
 30
0.0
  0
VERTEX
  5
2D8
330
2C2
100
AcDbEntity
  8
Visible (ISO)
100
AcDbVertex
100
AcDb2dVertex
 10
283.4435164207701
 20
216.4651051863561
 30
0.0
  0
VERTEX
  5
2D9
330
2C2
100
AcDbEntity
  8
Visible (ISO)
100
AcDbVertex
100
AcDb2dVertex
 10
283.1180309528593
 20
216.5350142821198
 30
0.0
  0
VERTEX
  5
2DA
330
2C2
100
AcDbEntity
  8
Visible (ISO)
100
AcDbVertex
100
AcDb2dVertex
 10
282.8841423267607
 20
216.5878359183194
 30
0.0
  0
VERTEX
  5
2DB
330
2C2
100
AcDbEntity
  8
Visible (ISO)
100
AcDbVertex
100
AcDb2dVertex
 10
282.7442645305876
 20
216.6206184729454
 30
0.0
  0
VERTEX
  5
2DC
330
2C2
100
AcDbEntity
  8
Visible (ISO)
100
AcDbVertex
100
AcDb2dVertex
 10
282.6977764839415
 20
216.6318742140644
 30
0.0
  0
SEQEND
  5
2C5
330
2C2
100
AcDbEntity
  8
Visible (ISO)
  0
LINE
  5
2DD
330
75
100
AcDbEntity
  8
Visible (ISO)
100
AcDbLine
 10
281.922852859925
 20
170.6318746909015
 30
0.0
 11
271.1977767223601
 21
193.6318746909151
 31
0.0
  0
LINE
  5
2DE
330
75
100
AcDbEntity
  8
Visible (ISO)
100
AcDbLine
 10
282.6977767223603
 20
264.0318746909001
 30
0.0
 11
293.6977767223599
 21
264.0318746909001
 31
0.0
  0
LINE
  5
2DF
330
75
100
AcDbEntity
  8
Visible (ISO)
100
AcDbLine
 10
282.6977767223602
 20
216.6318746909015
 30
0.0
 11
282.6977767223602
 21
264.0318746909001
 31
0.0
  0
LINE
  5
2E0
330
75
100
AcDbEntity
  8
Visible (ISO)
100
AcDbLine
 10
293.69777672236
 20
216.6318746909015
 30
0.0
 11
293.69777672236
 21
264.0318746909001
 31
0.0
  0
LINE
  5
2E1
330
75
100
AcDbEntity
  8
Visible (ISO)
100
AcDbLine
 10
412.5478495441603
 20
188.5110837363711
 30
0.0
 11
412.5478495441603
 21
198.7526656454319
 31
0.0
  0
LINE
  5
2E2
330
75
100
AcDbEntity
  8
Visible (ISO)
100
AcDbLine
 10
431.8811912108335
 20
177.7818746909015
 30
0.0
 11
412.5478495441647
 21
177.7818746909015
 31
0.0
  0
LINE
  5
2E3
330
75
100
AcDbEntity
  8
Visible (ISO)
100
AcDbLine
 10
431.8811912108335
 20
209.4818746909016
 30
0.0
 11
412.5478495441647
 21
209.4818746909016
 31
0.0
  0
CIRCLE
  5
2E4
330
75
100
AcDbEntity
  8
Visible (ISO)
100
AcDbCircle
 10
448.5478495441532
 20
193.6318746909015
 30
0.0
 40
23.0
  0
LINE
  5
2E5
330
75
100
AcDbEntity
  8
Visible (ISO)
100
AcDbLine
 10
398.8478495441603
 20
199.1996390537315
 30
0.0
 11
412.5478495441603
 21
199.1996390537315
 31
0.0
  0
LINE
  5
2E6
330
75
100
AcDbEntity
  8
Visible (ISO)
100
AcDbLine
 10
412.5478495441603
 20
188.0641103280715
 30
0.0
 11
398.8478495441603
 21
188.0641103280715
 31
0.0
  0
LINE
  5
2E7
330
75
100
AcDbEntity
  8
Visible (ISO)
100
AcDbLine
 10
412.5478495441603
 20
199.1996390537315
 30
0.0
 11
412.5478495441603
 21
198.7526656454318
 31
0.0
  0
LINE
  5
2E8
330
75
100
AcDbEntity
  8
Visible (ISO)
100
AcDbLine
 10
412.5478495441603
 20
188.5110837363712
 30
0.0
 11
412.5478495441603
 21
188.0641103280715
 31
0.0
  0
LINE
  5
2E9
330
75
100
AcDbEntity
  8
Visible (ISO)
100
AcDbLine
 10
412.5478495441647
 20
177.6318746909016
 30
0.0
 11
412.5478495441603
 21
188.0641103280715
 31
0.0
  0
LINE
  5
2EA
330
75
100
AcDbEntity
  8
Visible (ISO)
100
AcDbLine
 10
412.5478495441603
 20
199.1996390537315
 30
0.0
 11
412.5478495441647
 21
209.6318746909014
 31
0.0
  0
LINE
  5
2EB
330
75
100
AcDbEntity
  8
Visible (ISO)
100
AcDbLine
 10
398.8478495441648
 20
177.6318746909016
 30
0.0
 11
398.8478495441603
 21
188.0641103280715
 31
0.0
  0
LINE
  5
2EC
330
75
100
AcDbEntity
  8
Visible (ISO)
100
AcDbLine
 10
398.8478495441603
 20
199.1996390537315
 30
0.0
 11
398.8478495441648
 21
209.6318746909014
 31
0.0
  0
LINE
  5
2ED
330
75
100
AcDbEntity
  8
Visible (ISO)
100
AcDbLine
 10
412.5478495441647
 20
177.6318746909016
 30
0.0
 11
398.8478495441648
 21
177.6318746909016
 31
0.0
  0
LINE
  5
2EE
330
75
100
AcDbEntity
  8
Visible (ISO)
100
AcDbLine
 10
412.5478495441647
 20
209.6318746909014
 30
0.0
 11
398.8478495441648
 21
209.6318746909014
 31
0.0
  0
LINE
  5
2EF
330
75
100
AcDbEntity
  8
Visible (ISO)
100
AcDbLine
 10
398.8478495441602
 20
209.6318746908976
 30
0.0
 11
398.8478495441695
 21
177.6318746908976
 31
0.0
  0
LINE
  5
2F0
330
75
100
AcDbEntity
  8
Visible (ISO)
100
AcDbLine
 10
398.7478495441601
 20
209.6318746908975
 30
0.0
 11
398.8478495441602
 21
209.6318746908975
 31
0.0
  0
LINE
  5
2F1
330
75
100
AcDbEntity
  8
Visible (ISO)
100
AcDbLine
 10
398.7478495441696
 20
177.6318746908976
 30
0.0
 11
398.8478495441695
 21
177.6318746908976
 31
0.0
  0
LINE
  5
2F2
330
75
100
AcDbEntity
  8
Visible (ISO)
100
AcDbLine
 10
398.747849544156
 20
223.6318746908978
 30
0.0
 11
398.7478495441738
 21
163.6318746908976
 31
0.0
  0
LINE
  5
2F3
330
75
100
AcDbEntity
  8
Visible (ISO)
100
AcDbLine
 10
378.547849544156
 20
223.6318746908918
 30
0.0
 11
378.5478495441737
 21
163.6318746908916
 31
0.0
  0
LINE
  5
2F4
330
75
100
AcDbEntity
  8
Visible (ISO)
100
AcDbLine
 10
378.547849544156
 20
223.6318746908918
 30
0.0
 11
398.747849544156
 21
223.6318746908978
 31
0.0
  0
LINE
  5
2F5
330
75
100
AcDbEntity
  8
Visible (ISO)
100
AcDbLine
 10
378.5478495441737
 20
163.6318746908916
 30
0.0
 11
398.7478495441738
 21
163.6318746908976
 31
0.0
  0
LINE
  5
2F6
330
75
100
AcDbEntity
  8
Visible (ISO)
100
AcDbLine
 10
514.4062567421657
 20
172.6318746909405
 30
0.0
 11
514.7616262856963
 21
173.0318746909408
 31
0.0
  0
POLYLINE
  5
2F7
330
75
100
AcDbEntity
  8
Visible (ISO)
100
AcDb2dPolyline
 66
     1
 10
0.0
 20
0.0
 30
0.0
 70
   128
  0
VERTEX
  5
2F8
330
2F7
100
AcDbEntity
  8
Visible (ISO)
100
AcDbVertex
100
AcDb2dVertex
 10
521.9478510700839
 20
164.0318743094753
 30
0.0
  0
VERTEX
  5
2F9
330
2F7
100
AcDbEntity
  8
Visible (ISO)
100
AcDbVertex
100
AcDb2dVertex
 10
521.9474266850132
 20
164.0390554770778
 30
0.0
  0
VERTEX
  5
2FB
330
2F7
100
AcDbEntity
  8
Visible (ISO)
100
AcDbVertex
100
AcDb2dVertex
 10
521.9461582981725
 20
164.0462342604946
 30
0.0
  0
VERTEX
  5
2FC
330
2F7
100
AcDbEntity
  8
Visible (ISO)
100
AcDbVertex
100
AcDb2dVertex
 10
521.94404114119
 20
164.0534130439113
 30
0.0
  0
VERTEX
  5
2FD
330
2F7
100
AcDbEntity
  8
Visible (ISO)
100
AcDbVertex
100
AcDb2dVertex
 10
521.9410752140661
 20
164.0605942115139
 30
0.0
  0
VERTEX
  5
2FE
330
2F7
100
AcDbEntity
  8
Visible (ISO)
100
AcDbVertex
100
AcDb2dVertex
 10
521.9372700535436
 20
164.0677729949306
 30
0.0
  0
VERTEX
  5
2FF
330
2F7
100
AcDbEntity
  8
Visible (ISO)
100
AcDbVertex
100
AcDb2dVertex
 10
521.9326161228796
 20
164.0749541625331
 30
0.0
  0
VERTEX
  5
300
330
2F7
100
AcDbEntity
  8
Visible (ISO)
100
AcDbVertex
100
AcDb2dVertex
 10
521.9271134220739
 20
164.0821329459499
 30
0.0
  0
VERTEX
  5
301
330
2F7
100
AcDbEntity
  8
Visible (ISO)
100
AcDbVertex
100
AcDb2dVertex
 10
521.9207714878698
 20
164.0893117293666
 30
0.0
  0
VERTEX
  5
302
330
2F7
100
AcDbEntity
  8
Visible (ISO)
100
AcDbVertex
100
AcDb2dVertex
 10
521.9135807835241
 20
164.0964928969692
 30
0.0
  0
VERTEX
  5
303
330
2F7
100
AcDbEntity
  8
Visible (ISO)
100
AcDbVertex
100
AcDb2dVertex
 10
521.9055508457801
 20
164.1036716803859
 30
0.0
  0
VERTEX
  5
304
330
2F7
100
AcDbEntity
  8
Visible (ISO)
100
AcDbVertex
100
AcDb2dVertex
 10
521.8966721378944
 20
164.1108528479884
 30
0.0
  0
VERTEX
  5
305
330
2F7
100
AcDbEntity
  8
Visible (ISO)
100
AcDbVertex
100
AcDb2dVertex
 10
521.8869541966101
 20
164.1180316314052
 30
0.0
  0
VERTEX
  5
306
330
2F7
100
AcDbEntity
  8
Visible (ISO)
100
AcDbVertex
100
AcDb2dVertex
 10
521.8763922535559
 20
164.1252127990077
 30
0.0
  0
VERTEX
  5
307
330
2F7
100
AcDbEntity
  8
Visible (ISO)
100
AcDbVertex
100
AcDb2dVertex
 10
521.8649958454749
 20
164.1323915824245
 30
0.0
  0
VERTEX
  5
308
330
2F7
100
AcDbEntity
  8
Visible (ISO)
100
AcDbVertex
100
AcDb2dVertex
 10
521.8527554356239
 20
164.1395703658412
 30
0.0
  0
VERTEX
  5
309
330
2F7
100
AcDbEntity
  8
Visible (ISO)
100
AcDbVertex
100
AcDb2dVertex
 10
521.8396757923743
 20
164.1467515334437
 30
0.0
  0
VERTEX
  5
30A
330
2F7
100
AcDbEntity
  8
Visible (ISO)
100
AcDbVertex
100
AcDb2dVertex
 10
521.8257569157265
 20
164.1539303168605
 30
0.0
  0
VERTEX
  5
30B
330
2F7
100
AcDbEntity
  8
Visible (ISO)
100
AcDbVertex
100
AcDb2dVertex
 10
521.8110035740517
 20
164.161111484463
 30
0.0
  0
VERTEX
  5
30C
330
2F7
100
AcDbEntity
  8
Visible (ISO)
100
AcDbVertex
100
AcDb2dVertex
 10
521.79541576735
 20
164.1682902678798
 30
0.0
  0
VERTEX
  5
30D
330
2F7
100
AcDbEntity
  8
Visible (ISO)
100
AcDbVertex
100
AcDb2dVertex
 10
521.77898872725
 20
164.1754690512965
 30
0.0
  0
VERTEX
  5
30E
330
2F7
100
AcDbEntity
  8
Visible (ISO)
100
AcDbVertex
100
AcDb2dVertex
 10
521.7617319904946
 20
164.182650218899
 30
0.0
  0
VERTEX
  5
30F
330
2F7
100
AcDbEntity
  8
Visible (ISO)
100
AcDbVertex
100
AcDb2dVertex
 10
521.743645557084
 20
164.1898290023158
 30
0.0
  0
VERTEX
  5
310
330
2F7
100
AcDbEntity
  8
Visible (ISO)
100
AcDbVertex
100
AcDb2dVertex
 10
521.7247294270181
 20
164.1970101699183
 30
0.0
  0
VERTEX
  5
311
330
2F7
100
AcDbEntity
  8
Visible (ISO)
100
AcDbVertex
100
AcDb2dVertex
 10
521.7049836002969
 20
164.204188953335
 30
0.0
  0
SEQEND
  5
2FA
330
2F7
100
AcDbEntity
  8
Visible (ISO)
  0
POLYLINE
  5
312
330
75
100
AcDbEntity
  8
Visible (ISO)
100
AcDb2dPolyline
 66
     1
 10
0.0
 20
0.0
 30
0.0
 70
   128
  0
VERTEX
  5
313
330
312
100
AcDbEntity
  8
Visible (ISO)
100
AcDbVertex
100
AcDb2dVertex
 10
501.3907169186246
 20
166.3595596656033
 30
0.0
  0
VERTEX
  5
314
330
312
100
AcDbEntity
  8
Visible (ISO)
100
AcDbVertex
100
AcDb2dVertex
 10
501.2225459896691
 20
166.436442504806
 30
0.0
  0
VERTEX
  5
316
330
312
100
AcDbEntity
  8
Visible (ISO)
100
AcDbVertex
100
AcDb2dVertex
 10
501.1506747089986
 20
166.5133229598231
 30
0.0
  0
VERTEX
  5
317
330
312
100
AcDbEntity
  8
Visible (ISO)
100
AcDbVertex
100
AcDb2dVertex
 10
501.1757778011919
 20
166.590205799026
 30
0.0
  0
VERTEX
  5
318
330
312
100
AcDbEntity
  8
Visible (ISO)
100
AcDbVertex
100
AcDb2dVertex
 10
501.2976168476698
 20
166.6670886382289
 30
0.0
  0
VERTEX
  5
319
330
312
100
AcDbEntity
  8
Visible (ISO)
100
AcDbVertex
100
AcDb2dVertex
 10
501.5150569759959
 20
166.7439690932461
 30
0.0
  0
VERTEX
  5
31A
330
312
100
AcDbEntity
  8
Visible (ISO)
100
AcDbVertex
100
AcDb2dVertex
 10
501.8260692440619
 20
166.8208519324492
 30
0.0
  0
VERTEX
  5
31B
330
312
100
AcDbEntity
  8
Visible (ISO)
100
AcDbVertex
100
AcDb2dVertex
 10
502.2277568661319
 20
166.8977323874665
 30
0.0
  0
VERTEX
  5
31C
330
312
100
AcDbEntity
  8
Visible (ISO)
100
AcDbVertex
100
AcDb2dVertex
 10
502.7163695179566
 20
166.9746152266697
 30
0.0
  0
VERTEX
  5
31D
330
312
100
AcDbEntity
  8
Visible (ISO)
100
AcDbVertex
100
AcDb2dVertex
 10
503.2873486363035
 20
167.051498065873
 30
0.0
  0
VERTEX
  5
31E
330
312
100
AcDbEntity
  8
Visible (ISO)
100
AcDbVertex
100
AcDb2dVertex
 10
503.9353751026729
 20
167.1283785208904
 30
0.0
  0
VERTEX
  5
31F
330
312
100
AcDbEntity
  8
Visible (ISO)
100
AcDbVertex
100
AcDb2dVertex
 10
504.6543978535271
 20
167.2052613600937
 30
0.0
  0
VERTEX
  5
320
330
312
100
AcDbEntity
  8
Visible (ISO)
100
AcDbVertex
100
AcDb2dVertex
 10
505.4377173267934
 20
167.2821418151113
 30
0.0
  0
VERTEX
  5
321
330
312
100
AcDbEntity
  8
Visible (ISO)
100
AcDbVertex
100
AcDb2dVertex
 10
506.2780188404651
 20
167.3590246543146
 30
0.0
  0
VERTEX
  5
322
330
312
100
AcDbEntity
  8
Visible (ISO)
100
AcDbVertex
100
AcDb2dVertex
 10
507.1674774967759
 20
167.435907493518
 30
0.0
  0
VERTEX
  5
323
330
312
100
AcDbEntity
  8
Visible (ISO)
100
AcDbVertex
100
AcDb2dVertex
 10
508.0977867924301
 20
167.5127879485357
 30
0.0
  0
VERTEX
  5
324
330
312
100
AcDbEntity
  8
Visible (ISO)
100
AcDbVertex
100
AcDb2dVertex
 10
509.0602730595198
 20
167.5896707877392
 30
0.0
  0
VERTEX
  5
325
330
312
100
AcDbEntity
  8
Visible (ISO)
100
AcDbVertex
100
AcDb2dVertex
 10
510.0459622227277
 20
167.6665512427568
 30
0.0
  0
VERTEX
  5
326
330
312
100
AcDbEntity
  8
Visible (ISO)
100
AcDbVertex
100
AcDb2dVertex
 10
511.0456608616437
 20
167.7434340819603
 30
0.0
  0
VERTEX
  5
327
330
312
100
AcDbEntity
  8
Visible (ISO)
100
AcDbVertex
100
AcDb2dVertex
 10
512.0500420414531
 20
167.820314536978
 30
0.0
  0
VERTEX
  5
328
330
312
100
AcDbEntity
  8
Visible (ISO)
100
AcDbVertex
100
AcDb2dVertex
 10
513.0497359119975
 20
167.8971973761815
 30
0.0
  0
VERTEX
  5
329
330
312
100
AcDbEntity
  8
Visible (ISO)
100
AcDbVertex
100
AcDb2dVertex
 10
514.0354250752055
 20
167.9740802153849
 30
0.0
  0
VERTEX
  5
32A
330
312
100
AcDbEntity
  8
Visible (ISO)
100
AcDbVertex
100
AcDb2dVertex
 10
514.9979113422955
 20
168.0509606704026
 30
0.0
  0
VERTEX
  5
32B
330
312
100
AcDbEntity
  8
Visible (ISO)
100
AcDbVertex
100
AcDb2dVertex
 10
515.9282206379498
 20
168.1278435096061
 30
0.0
  0
VERTEX
  5
32C
330
312
100
AcDbEntity
  8
Visible (ISO)
100
AcDbVertex
100
AcDb2dVertex
 10
516.817679294261
 20
168.2047239646236
 30
0.0
  0
VERTEX
  5
32D
330
312
100
AcDbEntity
  8
Visible (ISO)
100
AcDbVertex
100
AcDb2dVertex
 10
517.6579855763045
 20
168.281606803827
 30
0.0
  0
VERTEX
  5
32E
330
312
100
AcDbEntity
  8
Visible (ISO)
100
AcDbVertex
100
AcDb2dVertex
 10
518.4413002811997
 20
168.3584896430304
 30
0.0
  0
VERTEX
  5
32F
330
312
100
AcDbEntity
  8
Visible (ISO)
100
AcDbVertex
100
AcDb2dVertex
 10
519.1603230320544
 20
168.4353700980479
 30
0.0
  0
VERTEX
  5
330
330
312
100
AcDbEntity
  8
Visible (ISO)
100
AcDbVertex
100
AcDb2dVertex
 10
519.8083494984241
 20
168.5122529372511
 30
0.0
  0
VERTEX
  5
331
330
312
100
AcDbEntity
  8
Visible (ISO)
100
AcDbVertex
100
AcDb2dVertex
 10
520.3793286167715
 20
168.5891333922686
 30
0.0
  0
VERTEX
  5
332
330
312
100
AcDbEntity
  8
Visible (ISO)
100
AcDbVertex
100
AcDb2dVertex
 10
520.8679436527825
 20
168.6660162314717
 30
0.0
  0
VERTEX
  5
333
330
312
100
AcDbEntity
  8
Visible (ISO)
100
AcDbVertex
100
AcDb2dVertex
 10
521.269631274853
 20
168.7428990706749
 30
0.0
  0
VERTEX
  5
334
330
312
100
AcDbEntity
  8
Visible (ISO)
100
AcDbVertex
100
AcDb2dVertex
 10
521.5806435429197
 20
168.8197795256921
 30
0.0
  0
VERTEX
  5
335
330
312
100
AcDbEntity
  8
Visible (ISO)
100
AcDbVertex
100
AcDb2dVertex
 10
521.7980812870605
 20
168.8966623648951
 30
0.0
  0
VERTEX
  5
336
330
312
100
AcDbEntity
  8
Visible (ISO)
100
AcDbVertex
100
AcDb2dVertex
 10
521.9199227177249
 20
168.9735428199123
 30
0.0
  0
VERTEX
  5
337
330
312
100
AcDbEntity
  8
Visible (ISO)
100
AcDbVertex
100
AcDb2dVertex
 10
521.945023425733
 20
169.0504256591152
 30
0.0
  0
VERTEX
  5
338
330
312
100
AcDbEntity
  8
Visible (ISO)
100
AcDbVertex
100
AcDb2dVertex
 10
521.8731545292488
 20
169.1273061141322
 30
0.0
  0
VERTEX
  5
339
330
312
100
AcDbEntity
  8
Visible (ISO)
100
AcDbVertex
100
AcDb2dVertex
 10
521.704983600294
 20
169.204188953335
 30
0.0
  0
SEQEND
  5
315
330
312
100
AcDbEntity
  8
Visible (ISO)
  0
POLYLINE
  5
33A
330
75
100
AcDbEntity
  8
Visible (ISO)
100
AcDb2dPolyline
 66
     1
 10
0.0
 20
0.0
 30
0.0
 70
   128
  0
VERTEX
  5
33B
330
33A
100
AcDbEntity
  8
Visible (ISO)
100
AcDbVertex
100
AcDb2dVertex
 10
501.3907169186215
 20
171.3595596656032
 30
0.0
  0
VERTEX
  5
33C
330
33A
100
AcDbEntity
  8
Visible (ISO)
100
AcDbVertex
100
AcDb2dVertex
 10
501.2342285000421
 20
171.4292398795314
 30
0.0
  0
VERTEX
  5
33E
330
33A
100
AcDbEntity
  8
Visible (ISO)
100
AcDbVertex
100
AcDb2dVertex
 10
501.1567663036918
 20
171.4989200934596
 30
0.0
  0
VERTEX
  5
33F
330
33A
100
AcDbEntity
  8
Visible (ISO)
100
AcDbVertex
100
AcDb2dVertex
 10
501.1589216076465
 20
171.5686003073878
 30
0.0
  0
VERTEX
  5
340
330
33A
100
AcDbEntity
  8
Visible (ISO)
100
AcDbVertex
100
AcDb2dVertex
 10
501.2406824909775
 20
171.6382781371303
 30
0.0
  0
VERTEX
  5
341
330
33A
100
AcDbEntity
  8
Visible (ISO)
100
AcDbVertex
100
AcDb2dVertex
 10
501.40141714445
 20
171.7079583510586
 30
0.0
  0
VERTEX
  5
342
330
33A
100
AcDbEntity
  8
Visible (ISO)
100
AcDbVertex
100
AcDb2dVertex
 10
501.6398953281961
 20
171.777638564987
 30
0.0
  0
VERTEX
  5
343
330
33A
100
AcDbEntity
  8
Visible (ISO)
100
AcDbVertex
100
AcDb2dVertex
 10
501.9542907558997
 20
171.8473187789153
 30
0.0
  0
VERTEX
  5
344
330
33A
100
AcDbEntity
  8
Visible (ISO)
100
AcDbVertex
100
AcDb2dVertex
 10
502.3421953999118
 20
171.9169989928438
 30
0.0
  0
VERTEX
  5
345
330
33A
100
AcDbEntity
  8
Visible (ISO)
100
AcDbVertex
100
AcDb2dVertex
 10
502.8006361805512
 20
171.9866792067723
 30
0.0
  0
VERTEX
  5
346
330
33A
100
AcDbEntity
  8
Visible (ISO)
100
AcDbVertex
100
AcDb2dVertex
 10
503.3260988079619
 20
172.056357036515
 30
0.0
  0
VERTEX
  5
347
330
33A
100
AcDbEntity
  8
Visible (ISO)
100
AcDbVertex
100
AcDb2dVertex
 10
503.9145611607143
 20
172.1260372504436
 30
0.0
  0
VERTEX
  5
348
330
33A
100
AcDbEntity
  8
Visible (ISO)
100
AcDbVertex
100
AcDb2dVertex
 10
504.5615099751062
 20
172.1957174643722
 30
0.0
  0
VERTEX
  5
349
330
33A
100
AcDbEntity
  8
Visible (ISO)
100
AcDbVertex
100
AcDb2dVertex
 10
505.261988528878
 20
172.2653976783009
 30
0.0
  0
VERTEX
  5
34A
330
33A
100
AcDbEntity
  8
Visible (ISO)
100
AcDbVertex
100
AcDb2dVertex
 10
506.0106324039998
 20
172.3350778922295
 30
0.0
  0
VERTEX
  5
34B
330
33A
100
AcDbEntity
  8
Visible (ISO)
100
AcDbVertex
100
AcDb2dVertex
 10
506.8017004810871
 20
172.4047557219724
 30
0.0
  0
VERTEX
  5
34C
330
33A
100
AcDbEntity
  8
Visible (ISO)
100
AcDbVertex
100
AcDb2dVertex
 10
507.629141696602
 20
172.4744359359011
 30
0.0
  0
VERTEX
  5
34D
330
33A
100
AcDbEntity
  8
Visible (ISO)
100
AcDbVertex
100
AcDb2dVertex
 10
508.4866045795974
 20
172.5441161498299
 30
0.0
  0
VERTEX
  5
34E
330
33A
100
AcDbEntity
  8
Visible (ISO)
100
AcDbVertex
100
AcDb2dVertex
 10
509.3675230824049
 20
172.6137963637586
 30
0.0
  0
VERTEX
  5
34F
330
33A
100
AcDbEntity
  8
Visible (ISO)
100
AcDbVertex
100
AcDb2dVertex
 10
510.2651451908644
 20
172.6834765776874
 30
0.0
  0
VERTEX
  5
350
330
33A
100
AcDbEntity
  8
Visible (ISO)
100
AcDbVertex
100
AcDb2dVertex
 10
511.1725996815259
 20
172.7531567916161
 30
0.0
  0
VERTEX
  5
351
330
33A
100
AcDbEntity
  8
Visible (ISO)
100
AcDbVertex
100
AcDb2dVertex
 10
512.0829295002514
 20
172.8228346213591
 30
0.0
  0
VERTEX
  5
352
330
33A
100
AcDbEntity
  8
Visible (ISO)
100
AcDbVertex
100
AcDb2dVertex
 10
512.9891585194164
 20
172.8925148352879
 30
0.0
  0
VERTEX
  5
353
330
33A
100
AcDbEntity
  8
Visible (ISO)
100
AcDbVertex
100
AcDb2dVertex
 10
513.8843439899975
 20
172.9621950492166
 30
0.0
  0
VERTEX
  5
354
330
33A
100
AcDbEntity
  8
Visible (ISO)
100
AcDbVertex
100
AcDb2dVertex
 10
514.7616242252881
 20
173.0318752631453
 30
0.0
  0
SEQEND
  5
33D
330
33A
100
AcDbEntity
  8
Visible (ISO)
  0
LINE
  5
355
330
75
100
AcDbEntity
  8
Visible (ISO)
100
AcDbLine
 10
521.9478495442051
 20
164.031874690945
 30
0.0
 11
520.7978495442053
 21
163.6318746909443
 31
0.0
  0
POLYLINE
  5
356
330
75
100
AcDbEntity
  8
Visible (ISO)
100
AcDb2dPolyline
 66
     1
 10
0.0
 20
0.0
 30
0.0
 70
   128
  0
VERTEX
  5
357
330
356
100
AcDbEntity
  8
Visible (ISO)
100
AcDbVertex
100
AcDb2dVertex
 10
514.4062565647662
 20
172.6318756446149
 30
0.0
  0
VERTEX
  5
358
330
356
100
AcDbEntity
  8
Visible (ISO)
100
AcDbVertex
100
AcDb2dVertex
 10
513.7072180592119
 20
172.569374214103
 30
0.0
  0
VERTEX
  5
35A
330
356
100
AcDbEntity
  8
Visible (ISO)
100
AcDbVertex
100
AcDb2dVertex
 10
512.9948662602007
 20
172.5068751677769
 30
0.0
  0
VERTEX
  5
35B
330
356
100
AcDbEntity
  8
Visible (ISO)
100
AcDbVertex
100
AcDb2dVertex
 10
512.2735976063311
 20
172.444373737265
 30
0.0
  0
VERTEX
  5
35C
330
356
100
AcDbEntity
  8
Visible (ISO)
100
AcDbVertex
100
AcDb2dVertex
 10
511.547851451546
 20
172.3818746909389
 30
0.0
  0
VERTEX
  5
35D
330
356
100
AcDbEntity
  8
Visible (ISO)
100
AcDbVertex
100
AcDb2dVertex
 10
510.8221005283893
 20
172.3193756446127
 30
0.0
  0
VERTEX
  5
35E
330
356
100
AcDbEntity
  8
Visible (ISO)
100
AcDbVertex
100
AcDb2dVertex
 10
510.1008318745197
 20
172.2568742141008
 30
0.0
  0
VERTEX
  5
35F
330
356
100
AcDbEntity
  8
Visible (ISO)
100
AcDbVertex
100
AcDb2dVertex
 10
509.3884800755086
 20
172.1943751677747
 30
0.0
  0
VERTEX
  5
360
330
356
100
AcDbEntity
  8
Visible (ISO)
100
AcDbVertex
100
AcDb2dVertex
 10
508.6894415699545
 20
172.1318737372629
 30
0.0
  0
VERTEX
  5
361
330
356
100
AcDbEntity
  8
Visible (ISO)
100
AcDbVertex
100
AcDb2dVertex
 10
508.0080269657676
 20
172.0693746909367
 30
0.0
  0
VERTEX
  5
362
330
356
100
AcDbEntity
  8
Visible (ISO)
100
AcDbVertex
100
AcDb2dVertex
 10
507.3484371983116
 20
172.0068756446107
 30
0.0
  0
VERTEX
  5
363
330
356
100
AcDbEntity
  8
Visible (ISO)
100
AcDbVertex
100
AcDb2dVertex
 10
506.7147396885462
 20
171.9443742140988
 30
0.0
  0
VERTEX
  5
364
330
356
100
AcDbEntity
  8
Visible (ISO)
100
AcDbVertex
100
AcDb2dVertex
 10
506.1108349644252
 20
171.8818751677728
 30
0.0
  0
VERTEX
  5
365
330
356
100
AcDbEntity
  8
Visible (ISO)
100
AcDbVertex
100
AcDb2dVertex
 10
505.5404566608976
 20
171.819373737261
 30
0.0
  0
VERTEX
  5
366
330
356
100
AcDbEntity
  8
Visible (ISO)
100
AcDbVertex
100
AcDb2dVertex
 10
505.007109531076
 20
171.756874690935
 30
0.0
  0
VERTEX
  5
367
330
356
100
AcDbEntity
  8
Visible (ISO)
100
AcDbVertex
100
AcDb2dVertex
 10
504.5140932880952
 20
171.694375644609
 30
0.0
  0
VERTEX
  5
368
330
356
100
AcDbEntity
  8
Visible (ISO)
100
AcDbVertex
100
AcDb2dVertex
 10
504.0644406162814
 20
171.6318742140973
 30
0.0
  0
VERTEX
  5
369
330
356
100
AcDbEntity
  8
Visible (ISO)
100
AcDbVertex
100
AcDb2dVertex
 10
503.6609267078954
 20
171.5693751677713
 30
0.0
  0
VERTEX
  5
36A
330
356
100
AcDbEntity
  8
Visible (ISO)
100
AcDbVertex
100
AcDb2dVertex
 10
503.3060382687172
 20
171.5068737372597
 30
0.0
  0
VERTEX
  5
36B
330
356
100
AcDbEntity
  8
Visible (ISO)
100
AcDbVertex
100
AcDb2dVertex
 10
503.0019639813028
 20
171.4443746909338
 30
0.0
  0
VERTEX
  5
36C
330
356
100
AcDbEntity
  8
Visible (ISO)
100
AcDbVertex
100
AcDb2dVertex
 10
502.7505778156842
 20
171.381875644608
 30
0.0
  0
VERTEX
  5
36D
330
356
100
AcDbEntity
  8
Visible (ISO)
100
AcDbVertex
100
AcDb2dVertex
 10
502.5534271084396
 20
171.3193742140964
 30
0.0
  0
VERTEX
  5
36E
330
356
100
AcDbEntity
  8
Visible (ISO)
100
AcDbVertex
100
AcDb2dVertex
 10
502.411732562694
 20
171.2568751677706
 30
0.0
  0
VERTEX
  5
36F
330
356
100
AcDbEntity
  8
Visible (ISO)
100
AcDbVertex
100
AcDb2dVertex
 10
502.3263644062612
 20
171.1943737372591
 30
0.0
  0
VERTEX
  5
370
330
356
100
AcDbEntity
  8
Visible (ISO)
100
AcDbVertex
100
AcDb2dVertex
 10
502.2978495442009
 20
171.1318746909334
 30
0.0
  0
SEQEND
  5
359
330
356
100
AcDbEntity
  8
Visible (ISO)
  0
POLYLINE
  5
371
330
75
100
AcDbEntity
  8
Visible (ISO)
100
AcDb2dPolyline
 66
     1
 10
0.0
 20
0.0
 30
0.0
 70
   128
  0
VERTEX
  5
372
330
371
100
AcDbEntity
  8
Visible (ISO)
100
AcDbVertex
100
AcDb2dVertex
 10
520.5272673451052
 20
168.4389249190631
 30
0.0
  0
VERTEX
  5
373
330
371
100
AcDbEntity
  8
Visible (ISO)
100
AcDbVertex
100
AcDb2dVertex
 10
520.2243756138427
 20
168.3501902922929
 30
0.0
  0
VERTEX
  5
375
330
371
100
AcDbEntity
  8
Visible (ISO)
100
AcDbVertex
100
AcDb2dVertex
 10
519.8137139164548
 20
168.2614580497084
 30
0.0
  0
VERTEX
  5
376
330
371
100
AcDbEntity
  8
Visible (ISO)
100
AcDbVertex
100
AcDb2dVertex
 10
519.3003844105341
 20
168.1727258071239
 30
0.0
  0
VERTEX
  5
377
330
371
100
AcDbEntity
  8
Visible (ISO)
100
AcDbVertex
100
AcDb2dVertex
 10
518.6907671772575
 20
168.0839935645393
 30
0.0
  0
VERTEX
  5
378
330
371
100
AcDbEntity
  8
Visible (ISO)
100
AcDbVertex
100
AcDb2dVertex
 10
517.9924343906973
 20
167.9952613219547
 30
0.0
  0
VERTEX
  5
379
330
371
100
AcDbEntity
  8
Visible (ISO)
100
AcDbVertex
100
AcDb2dVertex
 10
517.2140549503896
 20
167.9065266951842
 30
0.0
  0
VERTEX
  5
37A
330
371
100
AcDbEntity
  8
Visible (ISO)
100
AcDbVertex
100
AcDb2dVertex
 10
516.3652991139026
 20
167.8177944525994
 30
0.0
  0
VERTEX
  5
37B
330
371
100
AcDbEntity
  8
Visible (ISO)
100
AcDbVertex
100
AcDb2dVertex
 10
515.4567049824328
 20
167.7290622100147
 30
0.0
  0
VERTEX
  5
37C
330
371
100
AcDbEntity
  8
Visible (ISO)
100
AcDbVertex
100
AcDb2dVertex
 10
514.4995640598863
 20
167.6403299674299
 30
0.0
  0
VERTEX
  5
37D
330
371
100
AcDbEntity
  8
Visible (ISO)
100
AcDbVertex
100
AcDb2dVertex
 10
513.5057638966173
 20
167.551597724845
 30
0.0
  0
VERTEX
  5
37E
330
371
100
AcDbEntity
  8
Visible (ISO)
100
AcDbVertex
100
AcDb2dVertex
 10
512.4876450382799
 20
167.4628654822602
 30
0.0
  0
VERTEX
  5
37F
330
371
100
AcDbEntity
  8
Visible (ISO)
100
AcDbVertex
100
AcDb2dVertex
 10
511.4578484379381
 20
167.3741308554896
 30
0.0
  0
VERTEX
  5
380
330
371
100
AcDbEntity
  8
Visible (ISO)
100
AcDbVertex
100
AcDb2dVertex
 10
510.4291724049182
 20
167.2853986129047
 30
0.0
  0
VERTEX
  5
381
330
371
100
AcDbEntity
  8
Visible (ISO)
100
AcDbVertex
100
AcDb2dVertex
 10
509.4143914066883
 20
167.1966663703199
 30
0.0
  0
VERTEX
  5
382
330
371
100
AcDbEntity
  8
Visible (ISO)
100
AcDbVertex
100
AcDb2dVertex
 10
508.4261130177114
 20
167.1079341277351
 30
0.0
  0
VERTEX
  5
383
330
371
100
AcDbEntity
  8
Visible (ISO)
100
AcDbVertex
100
AcDb2dVertex
 10
507.4766014896964
 20
167.0192018851503
 30
0.0
  0
VERTEX
  5
384
330
371
100
AcDbEntity
  8
Visible (ISO)
100
AcDbVertex
100
AcDb2dVertex
 10
506.5776585423089
 20
166.9304696425656
 30
0.0
  0
VERTEX
  5
385
330
371
100
AcDbEntity
  8
Visible (ISO)
100
AcDbVertex
100
AcDb2dVertex
 10
505.7404469334224
 20
166.8417350157951
 30
0.0
  0
VERTEX
  5
386
330
371
100
AcDbEntity
  8
Visible (ISO)
100
AcDbVertex
100
AcDb2dVertex
 10
504.9753712498289
 20
166.7530027732104
 30
0.0
  0
VERTEX
  5
387
330
371
100
AcDbEntity
  8
Visible (ISO)
100
AcDbVertex
100
AcDb2dVertex
 10
504.2919205509767
 20
166.6642705306257
 30
0.0
  0
VERTEX
  5
388
330
371
100
AcDbEntity
  8
Visible (ISO)
100
AcDbVertex
100
AcDb2dVertex
 10
503.6985968433964
 20
166.5755382880411
 30
0.0
  0
VERTEX
  5
389
330
371
100
AcDbEntity
  8
Visible (ISO)
100
AcDbVertex
100
AcDb2dVertex
 10
503.2027624928108
 20
166.4868060454566
 30
0.0
  0
VERTEX
  5
38A
330
371
100
AcDbEntity
  8
Visible (ISO)
100
AcDbVertex
100
AcDb2dVertex
 10
502.8105782353038
 20
166.3980738028722
 30
0.0
  0
VERTEX
  5
38B
330
371
100
AcDbEntity
  8
Visible (ISO)
100
AcDbVertex
100
AcDb2dVertex
 10
502.5269149624466
 20
166.309339176102
 30
0.0
  0
VERTEX
  5
38C
330
371
100
AcDbEntity
  8
Visible (ISO)
100
AcDbVertex
100
AcDb2dVertex
 10
502.3552941166522
 20
166.2206069335177
 30
0.0
  0
VERTEX
  5
38D
330
371
100
AcDbEntity
  8
Visible (ISO)
100
AcDbVertex
100
AcDb2dVertex
 10
502.2978495442038
 20
166.1318746909334
 30
0.0
  0
SEQEND
  5
374
330
371
100
AcDbEntity
  8
Visible (ISO)
  0
LINE
  5
38E
330
75
100
AcDbEntity
  8
Visible (ISO)
100
AcDbLine
 10
514.7616262856963
 20
173.0318746909408
 30
0.0
 11
514.4062567421651
 21
173.4318746909406
 31
0.0
  0
POLYLINE
  5
38F
330
75
100
AcDbEntity
  8
Visible (ISO)
100
AcDb2dPolyline
 66
     1
 10
0.0
 20
0.0
 30
0.0
 70
   128
  0
VERTEX
  5
390
330
38F
100
AcDbEntity
  8
Visible (ISO)
100
AcDbVertex
100
AcDb2dVertex
 10
502.5684307896249
 20
167.124826084061
 30
0.0
  0
VERTEX
  5
391
330
38F
100
AcDbEntity
  8
Visible (ISO)
100
AcDbVertex
100
AcDb2dVertex
 10
502.8713249050725
 20
167.2135583266454
 30
0.0
  0
VERTEX
  5
393
330
38F
100
AcDbEntity
  8
Visible (ISO)
100
AcDbVertex
100
AcDb2dVertex
 10
503.28198660246
 20
167.3022905692298
 30
0.0
  0
VERTEX
  5
394
330
38F
100
AcDbEntity
  8
Visible (ISO)
100
AcDbVertex
100
AcDb2dVertex
 10
503.7953137241943
 20
167.3910228118144
 30
0.0
  0
VERTEX
  5
395
330
38F
100
AcDbEntity
  8
Visible (ISO)
100
AcDbVertex
100
AcDb2dVertex
 10
504.4049309574703
 20
167.479755054399
 30
0.0
  0
VERTEX
  5
396
330
38F
100
AcDbEntity
  8
Visible (ISO)
100
AcDbVertex
100
AcDb2dVertex
 10
505.1032637440301
 20
167.5684896811694
 30
0.0
  0
VERTEX
  5
397
330
38F
100
AcDbEntity
  8
Visible (ISO)
100
AcDbVertex
100
AcDb2dVertex
 10
505.8816431843374
 20
167.6572219237541
 30
0.0
  0
VERTEX
  5
398
330
38F
100
AcDbEntity
  8
Visible (ISO)
100
AcDbVertex
100
AcDb2dVertex
 10
506.7304037891956
 20
167.7459541663388
 30
0.0
  0
VERTEX
  5
399
330
38F
100
AcDbEntity
  8
Visible (ISO)
100
AcDbVertex
100
AcDb2dVertex
 10
507.6389931522935
 20
167.8346864089236
 30
0.0
  0
VERTEX
  5
39A
330
38F
100
AcDbEntity
  8
Visible (ISO)
100
AcDbVertex
100
AcDb2dVertex
 10
508.5961340748398
 20
167.9234186515084
 30
0.0
  0
VERTEX
  5
39B
330
38F
100
AcDbEntity
  8
Visible (ISO)
100
AcDbVertex
100
AcDb2dVertex
 10
509.5899342381087
 20
168.012153278279
 30
0.0
  0
VERTEX
  5
39C
330
38F
100
AcDbEntity
  8
Visible (ISO)
100
AcDbVertex
100
AcDb2dVertex
 10
510.6080578648175
 20
168.1008855208638
 30
0.0
  0
VERTEX
  5
39D
330
38F
100
AcDbEntity
  8
Visible (ISO)
100
AcDbVertex
100
AcDb2dVertex
 10
511.6378496967877
 20
168.1896177634487
 30
0.0
  0
VERTEX
  5
39E
330
38F
100
AcDbEntity
  8
Visible (ISO)
100
AcDbVertex
100
AcDb2dVertex
 10
512.6665257298077
 20
168.2783500060335
 30
0.0
  0
VERTEX
  5
39F
330
38F
100
AcDbEntity
  8
Visible (ISO)
100
AcDbVertex
100
AcDb2dVertex
 10
513.6813067280377
 20
168.3670822486184
 30
0.0
  0
VERTEX
  5
3A0
330
38F
100
AcDbEntity
  8
Visible (ISO)
100
AcDbVertex
100
AcDb2dVertex
 10
514.6695898853864
 20
168.4558144912032
 30
0.0
  0
VERTEX
  5
3A1
330
38F
100
AcDbEntity
  8
Visible (ISO)
100
AcDbVertex
100
AcDb2dVertex
 10
515.61909664503
 20
168.5445491179737
 30
0.0
  0
VERTEX
  5
3A2
330
38F
100
AcDbEntity
  8
Visible (ISO)
100
AcDbVertex
100
AcDb2dVertex
 10
516.5180395924178
 20
168.6332813605585
 30
0.0
  0
VERTEX
  5
3A3
330
38F
100
AcDbEntity
  8
Visible (ISO)
100
AcDbVertex
100
AcDb2dVertex
 10
517.3552512013047
 20
168.7220136031433
 30
0.0
  0
VERTEX
  5
3A4
330
38F
100
AcDbEntity
  8
Visible (ISO)
100
AcDbVertex
100
AcDb2dVertex
 10
518.1203316532701
 20
168.8107458457279
 30
0.0
  0
VERTEX
  5
3A5
330
38F
100
AcDbEntity
  8
Visible (ISO)
100
AcDbVertex
100
AcDb2dVertex
 10
518.8037775837512
 20
168.8994780883126
 30
0.0
  0
VERTEX
  5
3A6
330
38F
100
AcDbEntity
  8
Visible (ISO)
100
AcDbVertex
100
AcDb2dVertex
 10
519.3971012913321
 20
168.9882103308971
 30
0.0
  0
VERTEX
  5
3A7
330
38F
100
AcDbEntity
  8
Visible (ISO)
100
AcDbVertex
100
AcDb2dVertex
 10
519.8929356419181
 20
169.0769449576674
 30
0.0
  0
VERTEX
  5
3A8
330
38F
100
AcDbEntity
  8
Visible (ISO)
100
AcDbVertex
100
AcDb2dVertex
 10
520.2851198994258
 20
169.1656772002519
 30
0.0
  0
VERTEX
  5
3A9
330
38F
100
AcDbEntity
  8
Visible (ISO)
100
AcDbVertex
100
AcDb2dVertex
 10
520.5687855564694
 20
169.2544094428363
 30
0.0
  0
VERTEX
  5
3AA
330
38F
100
AcDbEntity
  8
Visible (ISO)
100
AcDbVertex
100
AcDb2dVertex
 10
520.7404040180786
 20
169.3431416854207
 30
0.0
  0
VERTEX
  5
3AB
330
38F
100
AcDbEntity
  8
Visible (ISO)
100
AcDbVertex
100
AcDb2dVertex
 10
520.7978485905275
 20
169.4318739280049
 30
0.0
  0
SEQEND
  5
392
330
38F
100
AcDbEntity
  8
Visible (ISO)
  0
POLYLINE
  5
3AC
330
75
100
AcDbEntity
  8
Visible (ISO)
100
AcDb2dPolyline
 66
     1
 10
0.0
 20
0.0
 30
0.0
 70
   128
  0
VERTEX
  5
3AD
330
3AC
100
AcDbEntity
  8
Visible (ISO)
100
AcDbVertex
100
AcDb2dVertex
 10
502.5684307896219
 20
172.124826084061
 30
0.0
  0
VERTEX
  5
3AE
330
3AC
100
AcDbEntity
  8
Visible (ISO)
100
AcDbVertex
100
AcDb2dVertex
 10
502.7413247906288
 20
172.1792856558995
 30
0.0
  0
VERTEX
  5
3B0
330
3AC
100
AcDbEntity
  8
Visible (ISO)
100
AcDbVertex
100
AcDb2dVertex
 10
502.9554485165197
 20
172.2337452277379
 30
0.0
  0
VERTEX
  5
3B1
330
3AC
100
AcDbEntity
  8
Visible (ISO)
100
AcDbVertex
100
AcDb2dVertex
 10
503.2098029934482
 20
172.2882071837623
 30
0.0
  0
VERTEX
  5
3B2
330
3AC
100
AcDbEntity
  8
Visible (ISO)
100
AcDbVertex
100
AcDb2dVertex
 10
503.5031913601472
 20
172.3426667556009
 30
0.0
  0
VERTEX
  5
3B3
330
3AC
100
AcDbEntity
  8
Visible (ISO)
100
AcDbVertex
100
AcDb2dVertex
 10
503.8342474781585
 20
172.3971263274394
 30
0.0
  0
VERTEX
  5
3B4
330
3AC
100
AcDbEntity
  8
Visible (ISO)
100
AcDbVertex
100
AcDb2dVertex
 10
504.2014120899747
 20
172.4515882834638
 30
0.0
  0
VERTEX
  5
3B5
330
3AC
100
AcDbEntity
  8
Visible (ISO)
100
AcDbVertex
100
AcDb2dVertex
 10
504.6029709660122
 20
172.5060478553024
 30
0.0
  0
VERTEX
  5
3B6
330
3AC
100
AcDbEntity
  8
Visible (ISO)
100
AcDbVertex
100
AcDb2dVertex
 10
505.0370501362391
 20
172.5605074271411
 30
0.0
  0
VERTEX
  5
3B7
330
3AC
100
AcDbEntity
  8
Visible (ISO)
100
AcDbVertex
100
AcDb2dVertex
 10
505.5016039692467
 20
172.6149693831655
 30
0.0
  0
VERTEX
  5
3B8
330
3AC
100
AcDbEntity
  8
Visible (ISO)
100
AcDbVertex
100
AcDb2dVertex
 10
505.9944723927085
 20
172.6694289550042
 30
0.0
  0
VERTEX
  5
3B9
330
3AC
100
AcDbEntity
  8
Visible (ISO)
100
AcDbVertex
100
AcDb2dVertex
 10
506.5133332096639
 20
172.7238909110286
 30
0.0
  0
VERTEX
  5
3BA
330
3AC
100
AcDbEntity
  8
Visible (ISO)
100
AcDbVertex
100
AcDb2dVertex
 10
507.0557688557209
 20
172.7783504828674
 30
0.0
  0
VERTEX
  5
3BB
330
3AC
100
AcDbEntity
  8
Visible (ISO)
100
AcDbVertex
100
AcDb2dVertex
 10
507.6192377888263
 20
172.8328100547061
 30
0.0
  0
VERTEX
  5
3BC
330
3AC
100
AcDbEntity
  8
Visible (ISO)
100
AcDbVertex
100
AcDb2dVertex
 10
508.2010935627519
 20
172.8872720107306
 30
0.0
  0
VERTEX
  5
3BD
330
3AC
100
AcDbEntity
  8
Visible (ISO)
100
AcDbVertex
100
AcDb2dVertex
 10
508.7986229740677
 20
172.9417315825693
 30
0.0
  0
VERTEX
  5
3BE
330
3AC
100
AcDbEntity
  8
Visible (ISO)
100
AcDbVertex
100
AcDb2dVertex
 10
509.4090222202835
 20
172.996191154408
 30
0.0
  0
VERTEX
  5
3BF
330
3AC
100
AcDbEntity
  8
Visible (ISO)
100
AcDbVertex
100
AcDb2dVertex
 10
510.0294350468216
 20
173.0506531104326
 30
0.0
  0
VERTEX
  5
3C0
330
3AC
100
AcDbEntity
  8
Visible (ISO)
100
AcDbVertex
100
AcDb2dVertex
 10
510.6569575153883
 20
173.1051126822714
 30
0.0
  0
VERTEX
  5
3C1
330
3AC
100
AcDbEntity
  8
Visible (ISO)
100
AcDbVertex
100
AcDb2dVertex
 10
511.2886475407178
 20
173.1595722541101
 30
0.0
  0
VERTEX
  5
3C2
330
3AC
100
AcDbEntity
  8
Visible (ISO)
100
AcDbVertex
100
AcDb2dVertex
 10
511.9215535008009
 20
173.2140342101347
 30
0.0
  0
VERTEX
  5
3C3
330
3AC
100
AcDbEntity
  8
Visible (ISO)
100
AcDbVertex
100
AcDb2dVertex
 10
512.5527094685132
 20
173.2684937819734
 30
0.0
  0
VERTEX
  5
3C4
330
3AC
100
AcDbEntity
  8
Visible (ISO)
100
AcDbVertex
100
AcDb2dVertex
 10
513.1791638218458
 20
173.3229533538121
 30
0.0
  0
VERTEX
  5
3C5
330
3AC
100
AcDbEntity
  8
Visible (ISO)
100
AcDbVertex
100
AcDb2dVertex
 10
513.7979792439039
 20
173.3774153098367
 30
0.0
  0
VERTEX
  5
3C6
330
3AC
100
AcDbEntity
  8
Visible (ISO)
100
AcDbVertex
100
AcDb2dVertex
 10
514.4062565647657
 20
173.4318748816754
 30
0.0
  0
SEQEND
  5
3AF
330
3AC
100
AcDbEntity
  8
Visible (ISO)
  0
LINE
  5
3C7
330
75
100
AcDbEntity
  8
Visible (ISO)
100
AcDbLine
 10
520.7978495442048
 20
164.4318746909443
 30
0.0
 11
521.9478495442051
 21
164.031874690945
 31
0.0
  0
LINE
  5
3C8
330
75
100
AcDbEntity
  8
Visible (ISO)
100
AcDbLine
 10
520.7978495442053
 20
163.6318746909443
 30
0.0
 11
520.7978495442048
 21
164.4318746909443
 31
0.0
  0
LINE
  5
3C9
330
75
100
AcDbEntity
  8
Visible (ISO)
100
AcDbLine
 10
521.7049836002928
 20
168.8595596656153
 30
0.0
 11
520.5272673451052
 21
168.4389249190631
 31
0.0
  0
LINE
  5
3CA
330
75
100
AcDbEntity
  8
Visible (ISO)
100
AcDbLine
 10
502.2978495442016
 20
171.035796771927
 30
0.0
 11
501.3907169186215
 21
171.3595596656032
 31
0.0
  0
LINE
  5
3CB
330
75
100
AcDbEntity
  8
Visible (ISO)
100
AcDbLine
 10
502.2978495442045
 20
166.035796771927
 30
0.0
 11
501.3907169186246
 21
166.3595596656033
 31
0.0
  0
LINE
  5
3CC
330
75
100
AcDbEntity
  8
Visible (ISO)
100
AcDbLine
 10
520.7978485905311
 20
164.5279518470113
 30
0.0
 11
521.7049836002969
 21
164.204188953335
 31
0.0
  0
LINE
  5
3CD
330
75
100
AcDbEntity
  8
Visible (ISO)
100
AcDbLine
 10
520.7978485905282
 20
169.5279518470113
 30
0.0
 11
521.704983600294
 21
169.204188953335
 31
0.0
  0
LINE
  5
3CE
330
75
100
AcDbEntity
  8
Visible (ISO)
100
AcDbLine
 10
501.390716918623
 20
166.704188953323
 30
0.0
 11
502.5684307896249
 21
167.124826084061
 31
0.0
  0
LINE
  5
3CF
330
75
100
AcDbEntity
  8
Visible (ISO)
100
AcDbLine
 10
501.39071691862
 20
171.704188953323
 30
0.0
 11
502.5684307896219
 21
172.124826084061
 31
0.0
  0
LINE
  5
3D0
330
75
100
AcDbEntity
  8
Visible (ISO)
100
AcDbLine
 10
520.7978495442053
 20
163.6318746909443
 30
0.0
 11
502.2978495442053
 21
163.6318746909334
 31
0.0
  0
LINE
  5
3D1
330
75
100
AcDbEntity
  8
Visible (ISO)
100
AcDbLine
 10
520.7978495441993
 20
173.6318746909444
 30
0.0
 11
520.7978495442018
 21
169.4318746909444
 31
0.0
  0
LINE
  5
3D2
330
75
100
AcDbEntity
  8
Visible (ISO)
100
AcDbLine
 10
520.7978495442024
 20
168.5357977344978
 30
0.0
 11
520.7978495442048
 21
164.4318746909443
 31
0.0
  0
LINE
  5
3D3
330
75
100
AcDbEntity
  8
Visible (ISO)
100
AcDbLine
 10
502.2978495441994
 20
173.6318746909334
 30
0.0
 11
502.2978495442004
 21
172.0279516473799
 31
0.0
  0
LINE
  5
3D4
330
75
100
AcDbEntity
  8
Visible (ISO)
100
AcDbLine
 10
502.2978495442009
 20
171.1318746909334
 30
0.0
 11
502.2978495442033
 21
167.0279516473799
 31
0.0
  0
LINE
  5
3D5
330
75
100
AcDbEntity
  8
Visible (ISO)
100
AcDbLine
 10
502.2978495442038
 20
166.1318746909334
 30
0.0
 11
502.2978495442053
 21
163.6318746909334
 31
0.0
  0
LINE
  5
3D6
330
75
100
AcDbEntity
  8
Visible (ISO)
100
AcDbLine
 10
569.7542475544346
 20
200.0609413489934
 30
0.0
 11
569.9272536121726
 21
202.0384839877722
 31
0.0
  0
ARC
  5
3D7
330
75
100
AcDbEntity
  8
Visible (ISO)
100
AcDbCircle
 10
567.7618562933287
 20
200.2352526099348
 30
0.0
 40
2.000000000000015
100
AcDbArc
 50
305.0000000000342
 51
355.0000000000332
  0
LINE
  5
3D8
330
75
100
AcDbEntity
  8
Visible (ISO)
100
AcDbLine
 10
570.3576219382246
 20
206.9575632054784
 30
0.0
 11
569.9272582920598
 21
202.0384842206108
 31
0.0
  0
POLYLINE
  5
3D9
330
75
100
AcDbEntity
  8
Visible (ISO)
100
AcDb2dPolyline
 66
     1
 10
0.0
 20
0.0
 30
0.0
 70
   128
  0
VERTEX
  5
3DA
330
3D9
100
AcDbEntity
  8
Visible (ISO)
100
AcDbVertex
100
AcDb2dVertex
 10
549.8912047230223
 20
185.2805361852167
 30
0.0
  0
VERTEX
  5
3DB
330
3D9
100
AcDbEntity
  8
Visible (ISO)
100
AcDbVertex
100
AcDb2dVertex
 10
550.0780295216061
 20
185.4116026267528
 30
0.0
  0
VERTEX
  5
3DD
330
3D9
100
AcDbEntity
  8
Visible (ISO)
100
AcDbVertex
100
AcDb2dVertex
 10
550.2663801990962
 20
185.5441568002224
 30
0.0
  0
VERTEX
  5
3DE
330
3D9
100
AcDbEntity
  8
Visible (ISO)
100
AcDbVertex
100
AcDb2dVertex
 10
550.4562281452631
 20
185.6780759200574
 30
0.0
  0
VERTEX
  5
3DF
330
3D9
100
AcDbEntity
  8
Visible (ISO)
100
AcDbVertex
100
AcDb2dVertex
 10
550.647535213134
 20
185.8132360085966
 30
0.0
  0
VERTEX
  5
3E0
330
3D9
100
AcDbEntity
  8
Visible (ISO)
100
AcDbVertex
100
AcDb2dVertex
 10
550.8402823292228
 20
185.9495136842254
 30
0.0
  0
VERTEX
  5
3E1
330
3D9
100
AcDbEntity
  8
Visible (ISO)
100
AcDbVertex
100
AcDb2dVertex
 10
551.0344313465567
 20
186.0867849692826
 30
0.0
  0
VERTEX
  5
3E2
330
3D9
100
AcDbEntity
  8
Visible (ISO)
100
AcDbVertex
100
AcDb2dVertex
 10
551.2299345814199
 20
186.2249276742464
 30
0.0
  0
VERTEX
  5
3E3
330
3D9
100
AcDbEntity
  8
Visible (ISO)
100
AcDbVertex
100
AcDb2dVertex
 10
551.4267252766102
 20
186.3638512000568
 30
0.0
  0
VERTEX
  5
3E4
330
3D9
100
AcDbEntity
  8
Visible (ISO)
100
AcDbVertex
100
AcDb2dVertex
 10
551.624765285155
 20
186.5034685239323
 30
0.0
  0
VERTEX
  5
3E5
330
3D9
100
AcDbEntity
  8
Visible (ISO)
100
AcDbVertex
100
AcDb2dVertex
 10
551.8240069233386
 20
186.6436914309988
 30
0.0
  0
VERTEX
  5
3E6
330
3D9
100
AcDbEntity
  8
Visible (ISO)
100
AcDbVertex
100
AcDb2dVertex
 10
552.024354823729
 20
186.7844376668464
 30
0.0
  0
VERTEX
  5
3E7
330
3D9
100
AcDbEntity
  8
Visible (ISO)
100
AcDbVertex
100
AcDb2dVertex
 10
552.2257613026108
 20
186.9256374940407
 30
0.0
  0
VERTEX
  5
3E8
330
3D9
100
AcDbEntity
  8
Visible (ISO)
100
AcDbVertex
100
AcDb2dVertex
 10
552.4281309925521
 20
187.0672283277048
 30
0.0
  0
VERTEX
  5
3E9
330
3D9
100
AcDbEntity
  8
Visible (ISO)
100
AcDbVertex
100
AcDb2dVertex
 10
552.6313971363508
 20
187.2091541394725
 30
0.0
  0
VERTEX
  5
3EA
330
3D9
100
AcDbEntity
  8
Visible (ISO)
100
AcDbVertex
100
AcDb2dVertex
 10
552.835445293089
 20
187.3513612851635
 30
0.0
  0
VERTEX
  5
3EB
330
3D9
100
AcDbEntity
  8
Visible (ISO)
100
AcDbVertex
100
AcDb2dVertex
 10
553.0401896320781
 20
187.4938145980374
 30
0.0
  0
VERTEX
  5
3EC
330
3D9
100
AcDbEntity
  8
Visible (ISO)
100
AcDbVertex
100
AcDb2dVertex
 10
553.2455633961161
 20
187.6365027532118
 30
0.0
  0
VERTEX
  5
3ED
330
3D9
100
AcDbEntity
  8
Visible (ISO)
100
AcDbVertex
100
AcDb2dVertex
 10
553.4513853870829
 20
187.7793387279052
 30
0.0
  0
VERTEX
  5
3EE
330
3D9
100
AcDbEntity
  8
Visible (ISO)
100
AcDbVertex
100
AcDb2dVertex
 10
553.6575030170877
 20
187.9222897395631
 30
0.0
  0
VERTEX
  5
3EF
330
3D9
100
AcDbEntity
  8
Visible (ISO)
100
AcDbVertex
100
AcDb2dVertex
 10
553.8638113819557
 20
188.0653915509722
 30
0.0
  0
VERTEX
  5
3F0
330
3D9
100
AcDbEntity
  8
Visible (ISO)
100
AcDbVertex
100
AcDb2dVertex
 10
554.0702246509986
 20
188.2086799249195
 30
0.0
  0
VERTEX
  5
3F1
330
3D9
100
AcDbEntity
  8
Visible (ISO)
100
AcDbVertex
100
AcDb2dVertex
 10
554.2766379200416
 20
188.3521906241918
 30
0.0
  0
VERTEX
  5
3F2
330
3D9
100
AcDbEntity
  8
Visible (ISO)
100
AcDbVertex
100
AcDb2dVertex
 10
554.4829367481664
 20
188.4959594115759
 30
0.0
  0
VERTEX
  5
3F3
330
3D9
100
AcDbEntity
  8
Visible (ISO)
100
AcDbVertex
100
AcDb2dVertex
 10
554.6890448414281
 20
188.6400208577659
 30
0.0
  0
SEQEND
  5
3DC
330
3D9
100
AcDbEntity
  8
Visible (ISO)
  0
LINE
  5
3F4
330
75
100
AcDbEntity
  8
Visible (ISO)
100
AcDbLine
 10
568.9090091660317
 20
198.5969485213574
 30
0.0
 11
554.6890428582908
 21
188.6400209195769
 31
0.0
  0
LINE
  5
3F5
330
75
100
AcDbEntity
  8
Visible (ISO)
100
AcDbLine
 10
549.89120149692
 20
185.2805362312063
 30
0.0
 11
540.4566877097689
 21
178.674418558089
 31
0.0
  0
ARC
  5
3F6
330
75
100
AcDbEntity
  8
Visible (ISO)
100
AcDbCircle
 10
568.365232542041
 20
207.1318746909725
 30
0.0
 40
2.000000000000071
100
AcDbArc
 50
355.0000000000343
 51
90.00000000003252
  0
ARC
  5
3F7
330
75
100
AcDbEntity
  8
Visible (ISO)
100
AcDbCircle
 10
538.7359584007142
 20
181.1318746909551
 30
0.0
 40
3.000000000000036
100
AcDbArc
 50
270.0000000000352
 51
305.0000000000345
  0
POLYLINE
  5
3F8
330
75
100
AcDbEntity
  8
Visible (ISO)
100
AcDb2dPolyline
 66
     1
 10
0.0
 20
0.0
 30
0.0
 70
   128
  0
VERTEX
  5
3F9
330
3F8
100
AcDbEntity
  8
Visible (ISO)
100
AcDbVertex
100
AcDb2dVertex
 10
500.047850497871
 20
178.1318751677692
 30
0.0
  0
VERTEX
  5
3FA
330
3F8
100
AcDbEntity
  8
Visible (ISO)
100
AcDbVertex
100
AcDb2dVertex
 10
500.0912998997262
 20
178.1641332015217
 30
0.0
  0
VERTEX
  5
3FC
330
3F8
100
AcDbEntity
  8
Visible (ISO)
100
AcDbVertex
100
AcDb2dVertex
 10
500.2224444233465
 20
178.2609776362599
 30
0.0
  0
VERTEX
  5
3FD
330
3F8
100
AcDbEntity
  8
Visible (ISO)
100
AcDbVertex
100
AcDb2dVertex
 10
500.4420684658571
 20
178.4220973357382
 30
0.0
  0
VERTEX
  5
3FE
330
3F8
100
AcDbEntity
  8
Visible (ISO)
100
AcDbVertex
100
AcDb2dVertex
 10
500.7471464954892
 20
178.6433998450462
 30
0.0
  0
VERTEX
  5
3FF
330
3F8
100
AcDbEntity
  8
Visible (ISO)
100
AcDbVertex
100
AcDb2dVertex
 10
501.1327837788139
 20
178.9188412532038
 30
0.0
  0
VERTEX
  5
400
330
3F8
100
AcDbEntity
  8
Visible (ISO)
100
AcDbVertex
100
AcDb2dVertex
 10
501.5932511173755
 20
179.2411354884336
 30
0.0
  0
VERTEX
  5
401
330
3F8
100
AcDbEntity
  8
Visible (ISO)
100
AcDbVertex
100
AcDb2dVertex
 10
502.1179841839339
 20
179.5989528998566
 30
0.0
  0
VERTEX
  5
402
330
3F8
100
AcDbEntity
  8
Visible (ISO)
100
AcDbVertex
100
AcDb2dVertex
 10
502.6957534634134
 20
179.9804750785069
 30
0.0
  0
VERTEX
  5
403
330
3F8
100
AcDbEntity
  8
Visible (ISO)
100
AcDbVertex
100
AcDb2dVertex
 10
503.3153294407384
 20
180.3738788470466
 30
0.0
  0
VERTEX
  5
404
330
3F8
100
AcDbEntity
  8
Visible (ISO)
100
AcDbVertex
100
AcDb2dVertex
 10
503.9802597843658
 20
180.7766667708599
 30
0.0
  0
VERTEX
  5
405
330
3F8
100
AcDbEntity
  8
Visible (ISO)
100
AcDbVertex
100
AcDb2dVertex
 10
504.7085331760891
 20
181.1921552523819
 30
0.0
  0
VERTEX
  5
406
330
3F8
100
AcDbEntity
  8
Visible (ISO)
100
AcDbVertex
100
AcDb2dVertex
 10
505.4944657169823
 20
181.6062334880086
 30
0.0
  0
VERTEX
  5
407
330
3F8
100
AcDbEntity
  8
Visible (ISO)
100
AcDbVertex
100
AcDb2dVertex
 10
506.331877597475
 20
182.0044521197535
 30
0.0
  0
VERTEX
  5
408
330
3F8
100
AcDbEntity
  8
Visible (ISO)
100
AcDbVertex
100
AcDb2dVertex
 10
507.2145985447403
 20
182.3723319873078
 30
0.0
  0
VERTEX
  5
409
330
3F8
100
AcDbEntity
  8
Visible (ISO)
100
AcDbVertex
100
AcDb2dVertex
 10
508.136434444093
 20
182.6938096389044
 30
0.0
  0
VERTEX
  5
40A
330
3F8
100
AcDbEntity
  8
Visible (ISO)
100
AcDbVertex
100
AcDb2dVertex
 10
509.0894268833628
 20
182.9527310237164
 30
0.0
  0
VERTEX
  5
40B
330
3F8
100
AcDbEntity
  8
Visible (ISO)
100
AcDbVertex
100
AcDb2dVertex
 10
510.0649546467294
 20
183.1339017256975
 30
0.0
  0
VERTEX
  5
40C
330
3F8
100
AcDbEntity
  8
Visible (ISO)
100
AcDbVertex
100
AcDb2dVertex
 10
511.0527943455208
 20
183.2275620803123
 30
0.0
  0
VERTEX
  5
40D
330
3F8
100
AcDbEntity
  8
Visible (ISO)
100
AcDbVertex
100
AcDb2dVertex
 10
512.042908557557
 20
183.2275620803129
 30
0.0
  0
VERTEX
  5
40E
330
3F8
100
AcDbEntity
  8
Visible (ISO)
100
AcDbVertex
100
AcDb2dVertex
 10
513.0307482563486
 20
183.1339017256992
 30
0.0
  0
VERTEX
  5
40F
330
3F8
100
AcDbEntity
  8
Visible (ISO)
100
AcDbVertex
100
AcDb2dVertex
 10
514.0062712513438
 20
182.9527310237193
 30
0.0
  0
VERTEX
  5
410
330
3F8
100
AcDbEntity
  8
Visible (ISO)
100
AcDbVertex
100
AcDb2dVertex
 10
514.9592636906141
 20
182.6938096389085
 30
0.0
  0
VERTEX
  5
411
330
3F8
100
AcDbEntity
  8
Visible (ISO)
100
AcDbVertex
100
AcDb2dVertex
 10
515.8810995899673
 20
182.3723319873129
 30
0.0
  0
VERTEX
  5
412
330
3F8
100
AcDbEntity
  8
Visible (ISO)
100
AcDbVertex
100
AcDb2dVertex
 10
516.7638205372334
 20
182.0044521197597
 30
0.0
  0
VERTEX
  5
413
330
3F8
100
AcDbEntity
  8
Visible (ISO)
100
AcDbVertex
100
AcDb2dVertex
 10
517.6012324177269
 20
181.6062334880158
 30
0.0
  0
VERTEX
  5
414
330
3F8
100
AcDbEntity
  8
Visible (ISO)
100
AcDbVertex
100
AcDb2dVertex
 10
518.3871697269924
 20
181.1921552523901
 30
0.0
  0
VERTEX
  5
415
330
3F8
100
AcDbEntity
  8
Visible (ISO)
100
AcDbVertex
100
AcDb2dVertex
 10
519.1154383503449
 20
180.7766667708689
 30
0.0
  0
VERTEX
  5
416
330
3F8
100
AcDbEntity
  8
Visible (ISO)
100
AcDbVertex
100
AcDb2dVertex
 10
519.7803686939733
 20
180.3738788470564
 30
0.0
  0
VERTEX
  5
417
330
3F8
100
AcDbEntity
  8
Visible (ISO)
100
AcDbVertex
100
AcDb2dVertex
 10
520.3999470554849
 20
179.9804750785173
 30
0.0
  0
VERTEX
  5
418
330
3F8
100
AcDbEntity
  8
Visible (ISO)
100
AcDbVertex
100
AcDb2dVertex
 10
520.9777115665938
 20
179.5989528998678
 30
0.0
  0
VERTEX
  5
419
330
3F8
100
AcDbEntity
  8
Visible (ISO)
100
AcDbVertex
100
AcDb2dVertex
 10
521.5024470173388
 20
179.2411354884454
 30
0.0
  0
VERTEX
  5
41A
330
3F8
100
AcDbEntity
  8
Visible (ISO)
100
AcDbVertex
100
AcDb2dVertex
 10
521.9629143559013
 20
178.9188412532161
 30
0.0
  0
VERTEX
  5
41B
330
3F8
100
AcDbEntity
  8
Visible (ISO)
100
AcDbVertex
100
AcDb2dVertex
 10
522.348551639227
 20
178.643399845059
 30
0.0
  0
VERTEX
  5
41C
330
3F8
100
AcDbEntity
  8
Visible (ISO)
100
AcDbVertex
100
AcDb2dVertex
 10
522.6536320530458
 20
178.4220973357514
 30
0.0
  0
VERTEX
  5
41D
330
3F8
100
AcDbEntity
  8
Visible (ISO)
100
AcDbVertex
100
AcDb2dVertex
 10
522.8732537113713
 20
178.2609776362733
 30
0.0
  0
VERTEX
  5
41E
330
3F8
100
AcDbEntity
  8
Visible (ISO)
100
AcDbVertex
100
AcDb2dVertex
 10
523.0043982349923
 20
178.1641332015353
 30
0.0
  0
VERTEX
  5
41F
330
3F8
100
AcDbEntity
  8
Visible (ISO)
100
AcDbVertex
100
AcDb2dVertex
 10
523.047847636848
 20
178.1318751677829
 30
0.0
  0
SEQEND
  5
3FB
330
3F8
100
AcDbEntity
  8
Visible (ISO)
  0
LINE
  5
420
330
75
100
AcDbEntity
  8
Visible (ISO)
100
AcDbLine
 10
523.0478495441993
 20
173.6318746909457
 30
0.0
 11
500.0478495441994
 21
173.631874690932
 31
0.0
  0
LINE
  5
421
330
75
100
AcDbEntity
  8
Visible (ISO)
100
AcDbLine
 10
523.0478495441968
 20
178.1318746909457
 30
0.0
 11
523.0478495441993
 21
173.6318746909457
 31
0.0
  0
LINE
  5
422
330
75
100
AcDbEntity
  8
Visible (ISO)
100
AcDbLine
 10
500.0478495441967
 20
178.131874690932
 30
0.0
 11
500.0478495441994
 21
173.6318746909321
 31
0.0
  0
POLYLINE
  5
423
330
75
100
AcDbEntity
  8
Visible (ISO)
100
AcDb2dPolyline
 66
     1
 10
0.0
 20
0.0
 30
0.0
 70
   128
  0
VERTEX
  5
424
330
423
100
AcDbEntity
  8
Visible (ISO)
100
AcDbVertex
100
AcDb2dVertex
 10
521.7978476368297
 20
209.1318742141078
 30
0.0
  0
VERTEX
  5
425
330
423
100
AcDbEntity
  8
Visible (ISO)
100
AcDbVertex
100
AcDb2dVertex
 10
521.7491053425179
 20
209.0992585524867
 30
0.0
  0
VERTEX
  5
427
330
423
100
AcDbEntity
  8
Visible (ISO)
100
AcDbVertex
100
AcDb2dVertex
 10
521.6040276371343
 20
209.0035990580866
 30
0.0
  0
VERTEX
  5
428
330
423
100
AcDbEntity
  8
Visible (ISO)
100
AcDbVertex
100
AcDb2dVertex
 10
521.3643359028202
 20
208.848175178463
 30
0.0
  0
VERTEX
  5
429
330
423
100
AcDbEntity
  8
Visible (ISO)
100
AcDbVertex
100
AcDb2dVertex
 10
521.0317610584597
 20
208.6362675532645
 30
0.0
  0
VERTEX
  5
42A
330
423
100
AcDbEntity
  8
Visible (ISO)
100
AcDbVertex
100
AcDb2dVertex
 10
520.6097220264771
 20
208.3731631144825
 30
0.0
  0
VERTEX
  5
42B
330
423
100
AcDbEntity
  8
Visible (ISO)
100
AcDbVertex
100
AcDb2dVertex
 10
520.1094578586914
 20
208.0711058482469
 30
0.0
  0
VERTEX
  5
42C
330
423
100
AcDbEntity
  8
Visible (ISO)
100
AcDbVertex
100
AcDb2dVertex
 10
519.5444058262206
 20
207.7434090480145
 30
0.0
  0
VERTEX
  5
42D
330
423
100
AcDbEntity
  8
Visible (ISO)
100
AcDbVertex
100
AcDb2dVertex
 10
518.9279984318114
 20
207.4033788546854
 30
0.0
  0
VERTEX
  5
42E
330
423
100
AcDbEntity
  8
Visible (ISO)
100
AcDbVertex
100
AcDb2dVertex
 10
518.2589863621094
 20
207.056562076502
 30
0.0
  0
VERTEX
  5
42F
330
423
100
AcDbEntity
  8
Visible (ISO)
100
AcDbVertex
100
AcDb2dVertex
 10
517.517270930896
 20
206.7013756140992
 30
0.0
  0
VERTEX
  5
430
330
423
100
AcDbEntity
  8
Visible (ISO)
100
AcDbVertex
100
AcDb2dVertex
 10
516.710500606189
 20
206.3532928332607
 30
0.0
  0
VERTEX
  5
431
330
423
100
AcDbEntity
  8
Visible (ISO)
100
AcDbVertex
100
AcDb2dVertex
 10
515.8472727619509
 20
206.0283271178518
 30
0.0
  0
VERTEX
  5
432
330
423
100
AcDbEntity
  8
Visible (ISO)
100
AcDbVertex
100
AcDb2dVertex
 10
514.936284907947
 20
205.7426992759018
 30
0.0
  0
VERTEX
  5
433
330
423
100
AcDbEntity
  8
Visible (ISO)
100
AcDbVertex
100
AcDb2dVertex
 10
513.9884804569582
 20
205.512365470817
 30
0.0
  0
VERTEX
  5
434
330
423
100
AcDbEntity
  8
Visible (ISO)
100
AcDbVertex
100
AcDb2dVertex
 10
513.01698673595
 20
205.3515533313054
 30
0.0
  0
VERTEX
  5
435
330
423
100
AcDbEntity
  8
Visible (ISO)
100
AcDbVertex
100
AcDb2dVertex
 10
512.0364617191653
 20
205.2693346843016
 30
0.0
  0
VERTEX
  5
436
330
423
100
AcDbEntity
  8
Visible (ISO)
100
AcDbVertex
100
AcDb2dVertex
 10
511.0592364155155
 20
205.269334684301
 30
0.0
  0
VERTEX
  5
437
330
423
100
AcDbEntity
  8
Visible (ISO)
100
AcDbVertex
100
AcDb2dVertex
 10
510.0787113987307
 20
205.3515533313036
 30
0.0
  0
VERTEX
  5
438
330
423
100
AcDbEntity
  8
Visible (ISO)
100
AcDbVertex
100
AcDb2dVertex
 10
509.1072176777224
 20
205.5123654708141
 30
0.0
  0
VERTEX
  5
439
330
423
100
AcDbEntity
  8
Visible (ISO)
100
AcDbVertex
100
AcDb2dVertex
 10
508.1594179951053
 20
205.7426992758978
 30
0.0
  0
VERTEX
  5
43A
330
423
100
AcDbEntity
  8
Visible (ISO)
100
AcDbVertex
100
AcDb2dVertex
 10
507.2484253727297
 20
206.0283271178467
 30
0.0
  0
VERTEX
  5
43B
330
423
100
AcDbEntity
  8
Visible (ISO)
100
AcDbVertex
100
AcDb2dVertex
 10
506.3852022968629
 20
206.3532928332545
 30
0.0
  0
VERTEX
  5
43C
330
423
100
AcDbEntity
  8
Visible (ISO)
100
AcDbVertex
100
AcDb2dVertex
 10
505.5784272037842
 20
206.7013756140921
 30
0.0
  0
VERTEX
  5
43D
330
423
100
AcDbEntity
  8
Visible (ISO)
100
AcDbVertex
100
AcDb2dVertex
 10
504.8367117725709
 20
207.056562076494
 30
0.0
  0
VERTEX
  5
43E
330
423
100
AcDbEntity
  8
Visible (ISO)
100
AcDbVertex
100
AcDb2dVertex
 10
504.1676997028686
 20
207.4033788546766
 30
0.0
  0
VERTEX
  5
43F
330
423
100
AcDbEntity
  8
Visible (ISO)
100
AcDbVertex
100
AcDb2dVertex
 10
503.5512923084594
 20
207.7434090480051
 30
0.0
  0
VERTEX
  5
440
330
423
100
AcDbEntity
  8
Visible (ISO)
100
AcDbVertex
100
AcDb2dVertex
 10
502.9862426601746
 20
208.0711058482367
 30
0.0
  0
VERTEX
  5
441
330
423
100
AcDbEntity
  8
Visible (ISO)
100
AcDbVertex
100
AcDb2dVertex
 10
502.485978492389
 20
208.3731631144717
 30
0.0
  0
VERTEX
  5
442
330
423
100
AcDbEntity
  8
Visible (ISO)
100
AcDbVertex
100
AcDb2dVertex
 10
502.0639394604067
 20
208.6362675532532
 30
0.0
  0
VERTEX
  5
443
330
423
100
AcDbEntity
  8
Visible (ISO)
100
AcDbVertex
100
AcDb2dVertex
 10
501.7313646160466
 20
208.8481751784514
 30
0.0
  0
VERTEX
  5
444
330
423
100
AcDbEntity
  8
Visible (ISO)
100
AcDbVertex
100
AcDb2dVertex
 10
501.4916728817326
 20
209.0035990580747
 30
0.0
  0
VERTEX
  5
445
330
423
100
AcDbEntity
  8
Visible (ISO)
100
AcDbVertex
100
AcDb2dVertex
 10
501.346592792164
 20
209.0992585524745
 30
0.0
  0
VERTEX
  5
446
330
423
100
AcDbEntity
  8
Visible (ISO)
100
AcDbVertex
100
AcDb2dVertex
 10
501.2978504978526
 20
209.1318742140956
 30
0.0
  0
SEQEND
  5
426
330
423
100
AcDbEntity
  8
Visible (ISO)
  0
LINE
  5
447
330
75
100
AcDbEntity
  8
Visible (ISO)
100
AcDbLine
 10
465.5404950121442
 20
209.1318746909116
 30
0.0
 11
501.2978495441783
 21
209.1318746909328
 31
0.0
  0
LINE
  5
448
330
75
100
AcDbEntity
  8
Visible (ISO)
100
AcDbLine
 10
521.7978495441783
 20
209.131874690945
 30
0.0
 11
568.3652325420398
 21
209.1318746909726
 31
0.0
  0
LINE
  5
449
330
75
100
AcDbEntity
  8
Visible (ISO)
100
AcDbLine
 10
465.5404950121627
 20
178.1318746909116
 30
0.0
 11
500.0478495441967
 21
178.131874690932
 31
0.0
  0
LINE
  5
44A
330
75
100
AcDbEntity
  8
Visible (ISO)
100
AcDbLine
 10
523.0478495441968
 20
178.1318746909457
 30
0.0
 11
538.7359584007161
 21
178.131874690955
 31
0.0
  0
LINE
  5
44B
330
75
100
AcDbEntity
  8
Visible Narrow (ISO)
100
AcDbLine
 10
519.7778495442053
 20
163.6318746909438
 30
0.0
 11
519.7778495442025
 21
168.2546428086291
 31
0.0
  0
LINE
  5
44C
330
75
100
AcDbEntity
  8
Visible Narrow (ISO)
100
AcDbLine
 10
519.7778495442021
 20
169.0546428086291
 30
0.0
 11
519.7778495441993
 21
173.6318746909438
 31
0.0
  0
LINE
  5
44D
330
75
100
AcDbEntity
  8
Visible Narrow (ISO)
100
AcDbLine
 10
503.3178495441994
 20
173.631874690934
 30
0.0
 11
503.3178495442001
 21
172.3091065732486
 31
0.0
  0
LINE
  5
44E
330
75
100
AcDbEntity
  8
Visible Narrow (ISO)
100
AcDbLine
 10
503.3178495442006
 20
171.5091065732486
 30
0.0
 11
503.317849544203
 21
167.3091065732486
 31
0.0
  0
LINE
  5
44F
330
75
100
AcDbEntity
  8
Visible Narrow (ISO)
100
AcDbLine
 10
503.3178495442036
 20
166.5091065732486
 30
0.0
 11
503.3178495442053
 21
163.631874690934
 31
0.0
  0
LINE
  5
450
330
75
100
AcDbEntity
  8
Visible (ISO)
100
AcDbLine
 10
546.4170617341721
 20
176.9693793948921
 30
0.0
 11
568.1684486230456
 21
187.1122176766818
 31
0.0
  0
LINE
  5
451
330
75
100
AcDbEntity
  8
Visible (ISO)
100
AcDbLine
 10
546.4170617341721
 20
176.9693793948921
 30
0.0
 11
544.3505843878691
 21
181.400954365108
 31
0.0
  0
LINE
  5
452
330
75
100
AcDbEntity
  8
Visible (ISO)
100
AcDbLine
 10
568.1684486230456
 20
187.1122176766818
 30
0.0
 11
564.3135152267005
 21
195.3791490232345
 31
0.0
  0
LINE
  5
453
330
75
100
AcDbEntity
  8
Visible (ISO)
100
AcDbLine
 10
521.3382785439716
 20
208.8318746909447
 30
0.0
 11
501.7574205443843
 21
208.8318746909331
 31
0.0
  0
LINE
  5
454
330
75
100
AcDbEntity
  8
Visible (ISO)
100
AcDbLine
 10
513.1629979530099
 20
209.8318746909399
 30
0.0
 11
513.1629979530105
 21
208.8318746909398
 31
0.0
  0
LINE
  5
455
330
75
100
AcDbEntity
  8
Visible (ISO)
100
AcDbLine
 10
504.9690301516074
 20
209.831874690935
 30
0.0
 11
504.969030151608
 21
208.831874690935
 31
0.0
  0
LINE
  5
456
330
75
100
AcDbEntity
  8
Visible (ISO)
100
AcDbLine
 10
519.0478495441779
 20
209.8318746909434
 30
0.0
 11
519.0478495441785
 21
208.8318746909433
 31
0.0
  0
LINE
  5
457
330
75
100
AcDbEntity
  8
Visible (ISO)
100
AcDbLine
 10
504.047849544178
 20
209.8318746909344
 30
0.0
 11
504.0478495441785
 21
208.8318746909344
 31
0.0
  0
LINE
  5
458
330
75
100
AcDbEntity
  8
Visible (ISO)
100
AcDbLine
 10
520.897849544178
 20
209.8318746909444
 30
0.0
 11
502.1978495441779
 21
209.8318746909334
 31
0.0
  0
LINE
  5
459
330
75
100
AcDbEntity
  8
Visible (ISO)
100
AcDbLine
 10
520.8978495441697
 20
223.8318746909444
 30
0.0
 11
520.8978495441779
 21
209.8318746909444
 31
0.0
  0
LINE
  5
45A
330
75
100
AcDbEntity
  8
Visible (ISO)
100
AcDbLine
 10
502.1978495441697
 20
223.8318746909334
 30
0.0
 11
502.1978495441779
 21
209.8318746909333
 31
0.0
  0
LINE
  5
45B
330
75
100
AcDbEntity
  8
Visible (ISO)
100
AcDbLine
 10
499.3478495441661
 20
229.8318746909317
 30
0.0
 11
523.7478495441661
 21
229.8318746909462
 31
0.0
  0
LINE
  5
45C
330
75
100
AcDbEntity
  8
Visible (ISO)
100
AcDbLine
 10
499.3478495441697
 20
223.8318746909317
 30
0.0
 11
523.7478495441696
 21
223.8318746909462
 31
0.0
  0
LINE
  5
45D
330
75
100
AcDbEntity
  8
Visible (ISO)
100
AcDbLine
 10
499.3478495441697
 20
223.8318746909317
 30
0.0
 11
499.3478495441661
 21
229.8318746909317
 31
0.0
  0
LINE
  5
45E
330
75
100
AcDbEntity
  8
Visible (ISO)
100
AcDbLine
 10
523.7478495441696
 20
223.8318746909462
 30
0.0
 11
523.7478495441661
 21
229.8318746909461
 31
0.0
  0
LINE
  5
45F
330
75
100
AcDbEntity
  8
Visible (ISO)
100
AcDbLine
 10
443.0478495441846
 20
264.0318746908968
 30
0.0
 11
454.0478495441846
 21
264.0318746909033
 31
0.0
  0
LINE
  5
460
330
75
100
AcDbEntity
  8
Visible (ISO)
100
AcDbLine
 10
443.0478495442132
 20
215.9645861250255
 30
0.0
 11
443.0478495441846
 21
264.0318746908968
 31
0.0
  0
LINE
  5
461
330
75
100
AcDbEntity
  8
Visible (ISO)
100
AcDbLine
 10
454.0478495442131
 20
215.964586125032
 30
0.0
 11
454.0478495441845
 21
264.0318746909033
 31
0.0
  0
LINE
  5
462
330
75
100
AcDbEntity
  8
Visible (ISO)
100
AcDbLine
 10
372.7453429488901
 20
196.1509786655349
 30
0.0
 11
373.1453429488902
 21
195.5444196148447
 31
0.0
  0
POLYLINE
  5
463
330
75
100
AcDbEntity
  8
Visible (ISO)
100
AcDb2dPolyline
 66
     1
 10
0.0
 20
0.0
 30
0.0
 70
   128
  0
VERTEX
  5
464
330
463
100
AcDbEntity
  8
Visible (ISO)
100
AcDbVertex
100
AcDb2dVertex
 10
356.1453429399459
 20
213.6318725572139
 30
0.0
  0
VERTEX
  5
465
330
463
100
AcDbEntity
  8
Visible (ISO)
100
AcDbVertex
100
AcDb2dVertex
 10
356.2246833531584
 20
213.5826709414904
 30
0.0
  0
VERTEX
  5
467
330
463
100
AcDbEntity
  8
Visible (ISO)
100
AcDbVertex
100
AcDb2dVertex
 10
356.304023766371
 20
213.434635500323
 30
0.0
  0
VERTEX
  5
468
330
463
100
AcDbEntity
  8
Visible (ISO)
100
AcDbVertex
100
AcDb2dVertex
 10
356.3833641795835
 20
213.1892357349602
 30
0.0
  0
VERTEX
  5
469
330
463
100
AcDbEntity
  8
Visible (ISO)
100
AcDbVertex
100
AcDb2dVertex
 10
356.4627045927961
 20
212.8489098127438
 30
0.0
  0
VERTEX
  5
46A
330
463
100
AcDbEntity
  8
Visible (ISO)
100
AcDbVertex
100
AcDb2dVertex
 10
356.5420450060087
 20
212.4170377880751
 30
0.0
  0
VERTEX
  5
46B
330
463
100
AcDbEntity
  8
Visible (ISO)
100
AcDbVertex
100
AcDb2dVertex
 10
356.6213854937272
 20
211.8979088635371
 30
0.0
  0
VERTEX
  5
46C
330
463
100
AcDbEntity
  8
Visible (ISO)
100
AcDbVertex
100
AcDb2dVertex
 10
356.7007259069399
 20
211.2966797062939
 30
0.0
  0
VERTEX
  5
46D
330
463
100
AcDbEntity
  8
Visible (ISO)
100
AcDbVertex
100
AcDb2dVertex
 10
356.7800663201527
 20
210.619321440573
 30
0.0
  0
VERTEX
  5
46E
330
463
100
AcDbEntity
  8
Visible (ISO)
100
AcDbVertex
100
AcDb2dVertex
 10
356.8594067333655
 20
209.8725618655811
 30
0.0
  0
VERTEX
  5
46F
330
463
100
AcDbEntity
  8
Visible (ISO)
100
AcDbVertex
100
AcDb2dVertex
 10
356.9387471465783
 20
209.0638181361276
 30
0.0
  0
VERTEX
  5
470
330
463
100
AcDbEntity
  8
Visible (ISO)
100
AcDbVertex
100
AcDb2dVertex
 10
357.0180874852854
 20
208.2011225854107
 30
0.0
  0
VERTEX
  5
471
330
463
100
AcDbEntity
  8
Visible (ISO)
100
AcDbVertex
100
AcDb2dVertex
 10
357.0974279730041
 20
207.2930443713486
 30
0.0
  0
VERTEX
  5
472
330
463
100
AcDbEntity
  8
Visible (ISO)
100
AcDbVertex
100
AcDb2dVertex
 10
357.1767683117113
 20
206.3486018797874
 30
0.0
  0
VERTEX
  5
473
330
463
100
AcDbEntity
  8
Visible (ISO)
100
AcDbVertex
100
AcDb2dVertex
 10
357.2561087994301
 20
205.3771764657836
 30
0.0
  0
VERTEX
  5
474
330
463
100
AcDbEntity
  8
Visible (ISO)
100
AcDbVertex
100
AcDb2dVertex
 10
357.3354492871489
 20
204.3884160579696
 30
0.0
  0
VERTEX
  5
475
330
463
100
AcDbEntity
  8
Visible (ISO)
100
AcDbVertex
100
AcDb2dVertex
 10
357.4147896258562
 20
203.3921414774239
 30
0.0
  0
VERTEX
  5
476
330
463
100
AcDbEntity
  8
Visible (ISO)
100
AcDbVertex
100
AcDb2dVertex
 10
357.4941301135751
 20
202.3982479834902
 30
0.0
  0
VERTEX
  5
477
330
463
100
AcDbEntity
  8
Visible (ISO)
100
AcDbVertex
100
AcDb2dVertex
 10
357.5734704522824
 20
201.4166072263499
 30
0.0
  0
VERTEX
  5
478
330
463
100
AcDbEntity
  8
Visible (ISO)
100
AcDbVertex
100
AcDb2dVertex
 10
357.6528109400014
 20
200.4569691182055
 30
0.0
  0
VERTEX
  5
479
330
463
100
AcDbEntity
  8
Visible (ISO)
100
AcDbVertex
100
AcDb2dVertex
 10
357.7321512787087
 20
199.5288648571016
 30
0.0
  0
VERTEX
  5
47A
330
463
100
AcDbEntity
  8
Visible (ISO)
100
AcDbVertex
100
AcDb2dVertex
 10
357.8114917664277
 20
198.6415130742073
 30
0.0
  0
VERTEX
  5
47B
330
463
100
AcDbEntity
  8
Visible (ISO)
100
AcDbVertex
100
AcDb2dVertex
 10
357.890832105135
 20
197.8037269085665
 30
0.0
  0
VERTEX
  5
47C
330
463
100
AcDbEntity
  8
Visible (ISO)
100
AcDbVertex
100
AcDb2dVertex
 10
357.970172592854
 20
197.0238275597231
 30
0.0
  0
VERTEX
  5
47D
330
463
100
AcDbEntity
  8
Visible (ISO)
100
AcDbVertex
100
AcDb2dVertex
 10
358.0495129315614
 20
196.3095608161731
 30
0.0
  0
VERTEX
  5
47E
330
463
100
AcDbEntity
  8
Visible (ISO)
100
AcDbVertex
100
AcDb2dVertex
 10
358.1288534192804
 20
195.6680216282397
 30
0.0
  0
VERTEX
  5
47F
330
463
100
AcDbEntity
  8
Visible (ISO)
100
AcDbVertex
100
AcDb2dVertex
 10
358.2081937579878
 20
195.1055816559493
 30
0.0
  0
VERTEX
  5
480
330
463
100
AcDbEntity
  8
Visible (ISO)
100
AcDbVertex
100
AcDb2dVertex
 10
358.2875340966952
 20
194.6278272453798
 30
0.0
  0
VERTEX
  5
481
330
463
100
AcDbEntity
  8
Visible (ISO)
100
AcDbVertex
100
AcDb2dVertex
 10
358.3668747334258
 20
194.2395033632688
 30
0.0
  0
VERTEX
  5
482
330
463
100
AcDbEntity
  8
Visible (ISO)
100
AcDbVertex
100
AcDb2dVertex
 10
358.4462150721331
 20
193.9444670649926
 30
0.0
  0
VERTEX
  5
483
330
463
100
AcDbEntity
  8
Visible (ISO)
100
AcDbVertex
100
AcDb2dVertex
 10
358.5255554108404
 20
193.7456493065052
 30
0.0
  0
VERTEX
  5
484
330
463
100
AcDbEntity
  8
Visible (ISO)
100
AcDbVertex
100
AcDb2dVertex
 10
358.604896047571
 20
193.6450239057889
 30
0.0
  0
VERTEX
  5
485
330
463
100
AcDbEntity
  8
Visible (ISO)
100
AcDbVertex
100
AcDb2dVertex
 10
358.6842363862782
 20
193.64359021344
 30
0.0
  0
VERTEX
  5
486
330
463
100
AcDbEntity
  8
Visible (ISO)
100
AcDbVertex
100
AcDb2dVertex
 10
358.7635767249854
 20
193.7413635306359
 30
0.0
  0
SEQEND
  5
466
330
463
100
AcDbEntity
  8
Visible (ISO)
  0
POLYLINE
  5
487
330
75
100
AcDbEntity
  8
Visible (ISO)
100
AcDb2dPolyline
 66
     1
 10
0.0
 20
0.0
 30
0.0
 70
   128
  0
VERTEX
  5
488
330
487
100
AcDbEntity
  8
Visible (ISO)
100
AcDbVertex
100
AcDb2dVertex
 10
361.0278445272181
 20
213.5223835404171
 30
0.0
  0
VERTEX
  5
489
330
487
100
AcDbEntity
  8
Visible (ISO)
100
AcDbVertex
100
AcDb2dVertex
 10
361.1083072213858
 20
213.6208292814154
 30
0.0
  0
VERTEX
  5
48B
330
487
100
AcDbEntity
  8
Visible (ISO)
100
AcDbVertex
100
AcDb2dVertex
 10
361.1887699155536
 20
213.6172376529428
 30
0.0
  0
VERTEX
  5
48C
330
487
100
AcDbEntity
  8
Visible (ISO)
100
AcDbVertex
100
AcDb2dVertex
 10
361.2692326097214
 20
213.5116456093573
 30
0.0
  0
VERTEX
  5
48D
330
487
100
AcDbEntity
  8
Visible (ISO)
100
AcDbVertex
100
AcDb2dVertex
 10
361.3496953038893
 20
213.3051314242745
 30
0.0
  0
VERTEX
  5
48E
330
487
100
AcDbEntity
  8
Visible (ISO)
100
AcDbVertex
100
AcDb2dVertex
 10
361.4301579980572
 20
212.9998046064252
 30
0.0
  0
VERTEX
  5
48F
330
487
100
AcDbEntity
  8
Visible (ISO)
100
AcDbVertex
100
AcDb2dVertex
 10
361.5106206922251
 20
212.5987838934154
 30
0.0
  0
VERTEX
  5
490
330
487
100
AcDbEntity
  8
Visible (ISO)
100
AcDbVertex
100
AcDb2dVertex
 10
361.5910833863931
 20
212.1061668999246
 30
0.0
  0
VERTEX
  5
491
330
487
100
AcDbEntity
  8
Visible (ISO)
100
AcDbVertex
100
AcDb2dVertex
 10
361.6715460805611
 20
211.5269842665989
 30
0.0
  0
VERTEX
  5
492
330
487
100
AcDbEntity
  8
Visible (ISO)
100
AcDbVertex
100
AcDb2dVertex
 10
361.7520087747292
 20
210.8671526150619
 30
0.0
  0
VERTEX
  5
493
330
487
100
AcDbEntity
  8
Visible (ISO)
100
AcDbVertex
100
AcDb2dVertex
 10
361.8324714688973
 20
210.1334131956094
 30
0.0
  0
VERTEX
  5
494
330
487
100
AcDbEntity
  8
Visible (ISO)
100
AcDbVertex
100
AcDb2dVertex
 10
361.9129341630654
 20
209.3332598011136
 30
0.0
  0
VERTEX
  5
495
330
487
100
AcDbEntity
  8
Visible (ISO)
100
AcDbVertex
100
AcDb2dVertex
 10
361.9933968572336
 20
208.4748672766987
 30
0.0
  0
VERTEX
  5
496
330
487
100
AcDbEntity
  8
Visible (ISO)
100
AcDbVertex
100
AcDb2dVertex
 10
362.0738595514018
 20
207.5670030352107
 30
0.0
  0
VERTEX
  5
497
330
487
100
AcDbEntity
  8
Visible (ISO)
100
AcDbVertex
100
AcDb2dVertex
 10
362.1543222455701
 20
206.6189415501666
 30
0.0
  0
VERTEX
  5
498
330
487
100
AcDbEntity
  8
Visible (ISO)
100
AcDbVertex
100
AcDb2dVertex
 10
362.2347849397385
 20
205.6403672233208
 30
0.0
  0
VERTEX
  5
499
330
487
100
AcDbEntity
  8
Visible (ISO)
100
AcDbVertex
100
AcDb2dVertex
 10
362.3152476339067
 20
204.6412759028678
 30
0.0
  0
VERTEX
  5
49A
330
487
100
AcDbEntity
  8
Visible (ISO)
100
AcDbVertex
100
AcDb2dVertex
 10
362.3957103280751
 20
203.6318736240847
 30
0.0
  0
VERTEX
  5
49B
330
487
100
AcDbEntity
  8
Visible (ISO)
100
AcDbVertex
100
AcDb2dVertex
 10
362.4761730222435
 20
202.6224712862
 30
0.0
  0
VERTEX
  5
49C
330
487
100
AcDbEntity
  8
Visible (ISO)
100
AcDbVertex
100
AcDb2dVertex
 10
362.556635716412
 20
201.6233800074651
 30
0.0
  0
VERTEX
  5
49D
330
487
100
AcDbEntity
  8
Visible (ISO)
100
AcDbVertex
100
AcDb2dVertex
 10
362.6370984105804
 20
200.6448055138947
 30
0.0
  0
VERTEX
  5
49E
330
487
100
AcDbEntity
  8
Visible (ISO)
100
AcDbVertex
100
AcDb2dVertex
 10
362.7175617007953
 20
199.6967441024824
 30
0.0
  0
VERTEX
  5
49F
330
487
100
AcDbEntity
  8
Visible (ISO)
100
AcDbVertex
100
AcDb2dVertex
 10
362.7980243949639
 20
198.7888799034078
 30
0.0
  0
VERTEX
  5
4A0
330
487
100
AcDbEntity
  8
Visible (ISO)
100
AcDbVertex
100
AcDb2dVertex
 10
362.8784870891323
 20
197.9304871119099
 30
0.0
  0
VERTEX
  5
4A1
330
487
100
AcDbEntity
  8
Visible (ISO)
100
AcDbVertex
100
AcDb2dVertex
 10
362.9589497833008
 20
197.130334301367
 30
0.0
  0
VERTEX
  5
4A2
330
487
100
AcDbEntity
  8
Visible (ISO)
100
AcDbVertex
100
AcDb2dVertex
 10
363.0394124774694
 20
196.3965940969404
 30
0.0
  0
VERTEX
  5
4A3
330
487
100
AcDbEntity
  8
Visible (ISO)
100
AcDbVertex
100
AcDb2dVertex
 10
363.1198751716379
 20
195.7367632750727
 30
0.0
  0
VERTEX
  5
4A4
330
487
100
AcDbEntity
  8
Visible (ISO)
100
AcDbVertex
100
AcDb2dVertex
 10
363.2003378658064
 20
195.1575807735209
 30
0.0
  0
VERTEX
  5
4A5
330
487
100
AcDbEntity
  8
Visible (ISO)
100
AcDbVertex
100
AcDb2dVertex
 10
363.2808005599749
 20
194.6649632822796
 30
0.0
  0
VERTEX
  5
4A6
330
487
100
AcDbEntity
  8
Visible (ISO)
100
AcDbVertex
100
AcDb2dVertex
 10
363.3612632541434
 20
194.2639426175497
 30
0.0
  0
VERTEX
  5
4A7
330
487
100
AcDbEntity
  8
Visible (ISO)
100
AcDbVertex
100
AcDb2dVertex
 10
363.4417259483119
 20
193.9586162081773
 30
0.0
  0
VERTEX
  5
4A8
330
487
100
AcDbEntity
  8
Visible (ISO)
100
AcDbVertex
100
AcDb2dVertex
 10
363.5221886424803
 20
193.7521017513882
 30
0.0
  0
VERTEX
  5
4A9
330
487
100
AcDbEntity
  8
Visible (ISO)
100
AcDbVertex
100
AcDb2dVertex
 10
363.6026513366487
 20
193.6465091515966
 30
0.0
  0
VERTEX
  5
4AA
330
487
100
AcDbEntity
  8
Visible (ISO)
100
AcDbVertex
100
AcDb2dVertex
 10
363.683114030817
 20
193.6429178235621
 30
0.0
  0
VERTEX
  5
4AB
330
487
100
AcDbEntity
  8
Visible (ISO)
100
AcDbVertex
100
AcDb2dVertex
 10
363.7635767249855
 20
193.7413635306374
 30
0.0
  0
SEQEND
  5
48A
330
487
100
AcDbEntity
  8
Visible (ISO)
  0
POLYLINE
  5
4AC
330
75
100
AcDbEntity
  8
Visible (ISO)
100
AcDb2dPolyline
 66
     1
 10
0.0
 20
0.0
 30
0.0
 70
   128
  0
VERTEX
  5
4AD
330
4AC
100
AcDbEntity
  8
Visible (ISO)
100
AcDbVertex
100
AcDb2dVertex
 10
366.0278439311716
 20
213.5223835404186
 30
0.0
  0
VERTEX
  5
4AE
330
4AC
100
AcDbEntity
  8
Visible (ISO)
100
AcDbVertex
100
AcDb2dVertex
 10
366.1083066253393
 20
213.6208292814169
 30
0.0
  0
VERTEX
  5
4B0
330
4AC
100
AcDbEntity
  8
Visible (ISO)
100
AcDbVertex
100
AcDb2dVertex
 10
366.1887693195072
 20
213.6172376529443
 30
0.0
  0
VERTEX
  5
4B1
330
4AC
100
AcDbEntity
  8
Visible (ISO)
100
AcDbVertex
100
AcDb2dVertex
 10
366.269232013675
 20
213.5116456093588
 30
0.0
  0
VERTEX
  5
4B2
330
4AC
100
AcDbEntity
  8
Visible (ISO)
100
AcDbVertex
100
AcDb2dVertex
 10
366.3496947078428
 20
213.305131424276
 30
0.0
  0
VERTEX
  5
4B3
330
4AC
100
AcDbEntity
  8
Visible (ISO)
100
AcDbVertex
100
AcDb2dVertex
 10
366.4301574020107
 20
212.9998046064267
 30
0.0
  0
VERTEX
  5
4B4
330
4AC
100
AcDbEntity
  8
Visible (ISO)
100
AcDbVertex
100
AcDb2dVertex
 10
366.5106200961787
 20
212.5987838934169
 30
0.0
  0
VERTEX
  5
4B5
330
4AC
100
AcDbEntity
  8
Visible (ISO)
100
AcDbVertex
100
AcDb2dVertex
 10
366.5910827903466
 20
212.1061668999261
 30
0.0
  0
VERTEX
  5
4B6
330
4AC
100
AcDbEntity
  8
Visible (ISO)
100
AcDbVertex
100
AcDb2dVertex
 10
366.6715454845146
 20
211.5269842666005
 30
0.0
  0
VERTEX
  5
4B7
330
4AC
100
AcDbEntity
  8
Visible (ISO)
100
AcDbVertex
100
AcDb2dVertex
 10
366.7520093707756
 20
210.8671526150634
 30
0.0
  0
VERTEX
  5
4B8
330
4AC
100
AcDbEntity
  8
Visible (ISO)
100
AcDbVertex
100
AcDb2dVertex
 10
366.8324720649437
 20
210.1334131956108
 30
0.0
  0
VERTEX
  5
4B9
330
4AC
100
AcDbEntity
  8
Visible (ISO)
100
AcDbVertex
100
AcDb2dVertex
 10
366.9129347591119
 20
209.3332598011151
 30
0.0
  0
VERTEX
  5
4BA
330
4AC
100
AcDbEntity
  8
Visible (ISO)
100
AcDbVertex
100
AcDb2dVertex
 10
366.9933974532801
 20
208.4748672767001
 30
0.0
  0
VERTEX
  5
4BB
330
4AC
100
AcDbEntity
  8
Visible (ISO)
100
AcDbVertex
100
AcDb2dVertex
 10
367.0738601474483
 20
207.5670030352122
 30
0.0
  0
VERTEX
  5
4BC
330
4AC
100
AcDbEntity
  8
Visible (ISO)
100
AcDbVertex
100
AcDb2dVertex
 10
367.1543228416165
 20
206.6189415501681
 30
0.0
  0
VERTEX
  5
4BD
330
4AC
100
AcDbEntity
  8
Visible (ISO)
100
AcDbVertex
100
AcDb2dVertex
 10
367.2347855357848
 20
205.6403672233223
 30
0.0
  0
VERTEX
  5
4BE
330
4AC
100
AcDbEntity
  8
Visible (ISO)
100
AcDbVertex
100
AcDb2dVertex
 10
367.3152482299532
 20
204.6412759028692
 30
0.0
  0
VERTEX
  5
4BF
330
4AC
100
AcDbEntity
  8
Visible (ISO)
100
AcDbVertex
100
AcDb2dVertex
 10
367.3957109241215
 20
203.6318736240863
 30
0.0
  0
VERTEX
  5
4C0
330
4AC
100
AcDbEntity
  8
Visible (ISO)
100
AcDbVertex
100
AcDb2dVertex
 10
367.4761736182899
 20
202.6224712862014
 30
0.0
  0
VERTEX
  5
4C1
330
4AC
100
AcDbEntity
  8
Visible (ISO)
100
AcDbVertex
100
AcDb2dVertex
 10
367.5566363124584
 20
201.6233800074666
 30
0.0
  0
VERTEX
  5
4C2
330
4AC
100
AcDbEntity
  8
Visible (ISO)
100
AcDbVertex
100
AcDb2dVertex
 10
367.6370990066268
 20
200.6448055138962
 30
0.0
  0
VERTEX
  5
4C3
330
4AC
100
AcDbEntity
  8
Visible (ISO)
100
AcDbVertex
100
AcDb2dVertex
 10
367.7175617007953
 20
199.6967441024839
 30
0.0
  0
VERTEX
  5
4C4
330
4AC
100
AcDbEntity
  8
Visible (ISO)
100
AcDbVertex
100
AcDb2dVertex
 10
367.7980243949638
 20
198.7888799034093
 30
0.0
  0
VERTEX
  5
4C5
330
4AC
100
AcDbEntity
  8
Visible (ISO)
100
AcDbVertex
100
AcDb2dVertex
 10
367.8784870891323
 20
197.9304871119113
 30
0.0
  0
VERTEX
  5
4C6
330
4AC
100
AcDbEntity
  8
Visible (ISO)
100
AcDbVertex
100
AcDb2dVertex
 10
367.9589497833008
 20
197.1303343013685
 30
0.0
  0
VERTEX
  5
4C7
330
4AC
100
AcDbEntity
  8
Visible (ISO)
100
AcDbVertex
100
AcDb2dVertex
 10
368.0394124774693
 20
196.3965940969419
 30
0.0
  0
VERTEX
  5
4C8
330
4AC
100
AcDbEntity
  8
Visible (ISO)
100
AcDbVertex
100
AcDb2dVertex
 10
368.1198751716379
 20
195.7367632750741
 30
0.0
  0
VERTEX
  5
4C9
330
4AC
100
AcDbEntity
  8
Visible (ISO)
100
AcDbVertex
100
AcDb2dVertex
 10
368.2003378658064
 20
195.1575807735224
 30
0.0
  0
VERTEX
  5
4CA
330
4AC
100
AcDbEntity
  8
Visible (ISO)
100
AcDbVertex
100
AcDb2dVertex
 10
368.2808005599749
 20
194.6649632822811
 30
0.0
  0
VERTEX
  5
4CB
330
4AC
100
AcDbEntity
  8
Visible (ISO)
100
AcDbVertex
100
AcDb2dVertex
 10
368.3612632541434
 20
194.2639426175512
 30
0.0
  0
VERTEX
  5
4CC
330
4AC
100
AcDbEntity
  8
Visible (ISO)
100
AcDbVertex
100
AcDb2dVertex
 10
368.4417259483118
 20
193.9586162081788
 30
0.0
  0
VERTEX
  5
4CD
330
4AC
100
AcDbEntity
  8
Visible (ISO)
100
AcDbVertex
100
AcDb2dVertex
 10
368.5221886424803
 20
193.7521017513897
 30
0.0
  0
VERTEX
  5
4CE
330
4AC
100
AcDbEntity
  8
Visible (ISO)
100
AcDbVertex
100
AcDb2dVertex
 10
368.6026513366487
 20
193.6465091515981
 30
0.0
  0
VERTEX
  5
4CF
330
4AC
100
AcDbEntity
  8
Visible (ISO)
100
AcDbVertex
100
AcDb2dVertex
 10
368.683114030817
 20
193.6429178235636
 30
0.0
  0
VERTEX
  5
4D0
330
4AC
100
AcDbEntity
  8
Visible (ISO)
100
AcDbVertex
100
AcDb2dVertex
 10
368.7635767249854
 20
193.7413635306389
 30
0.0
  0
SEQEND
  5
4AF
330
4AC
100
AcDbEntity
  8
Visible (ISO)
  0
POLYLINE
  5
4D1
330
75
100
AcDbEntity
  8
Visible (ISO)
100
AcDb2dPolyline
 66
     1
 10
0.0
 20
0.0
 30
0.0
 70
   128
  0
VERTEX
  5
4D2
330
4D1
100
AcDbEntity
  8
Visible (ISO)
100
AcDbVertex
100
AcDb2dVertex
 10
371.0278439311716
 20
213.5223835404201
 30
0.0
  0
VERTEX
  5
4D3
330
4D1
100
AcDbEntity
  8
Visible (ISO)
100
AcDbVertex
100
AcDb2dVertex
 10
371.1092865256995
 20
213.6214000132205
 30
0.0
  0
VERTEX
  5
4D5
330
4D1
100
AcDbEntity
  8
Visible (ISO)
100
AcDbVertex
100
AcDb2dVertex
 10
371.1907291202274
 20
213.61587631207
 30
0.0
  0
VERTEX
  5
4D6
330
4D1
100
AcDbEntity
  8
Visible (ISO)
100
AcDbVertex
100
AcDb2dVertex
 10
371.2721705226624
 20
213.5058694808172
 30
0.0
  0
VERTEX
  5
4D7
330
4D1
100
AcDbEntity
  8
Visible (ISO)
100
AcDbVertex
100
AcDb2dVertex
 10
371.3536131171904
 20
213.2925309331746
 30
0.0
  0
VERTEX
  5
4D8
330
4D1
100
AcDbEntity
  8
Visible (ISO)
100
AcDbVertex
100
AcDb2dVertex
 10
371.4350557117183
 20
212.9780933916995
 30
0.0
  0
VERTEX
  5
4D9
330
4D1
100
AcDbEntity
  8
Visible (ISO)
100
AcDbVertex
100
AcDb2dVertex
 10
371.5164983062464
 20
212.5658470954625
 30
0.0
  0
VERTEX
  5
4DA
330
4D1
100
AcDbEntity
  8
Visible (ISO)
100
AcDbVertex
100
AcDb2dVertex
 10
371.5979397086816
 20
212.0601070678119
 30
0.0
  0
VERTEX
  5
4DB
330
4D1
100
AcDbEntity
  8
Visible (ISO)
100
AcDbVertex
100
AcDb2dVertex
 10
371.6793823032097
 20
211.4661654800872
 30
0.0
  0
VERTEX
  5
4DC
330
4D1
100
AcDbEntity
  8
Visible (ISO)
100
AcDbVertex
100
AcDb2dVertex
 10
371.7608248977379
 20
210.7902374544861
 30
0.0
  0
VERTEX
  5
4DD
330
4D1
100
AcDbEntity
  8
Visible (ISO)
100
AcDbVertex
100
AcDb2dVertex
 10
371.8422663001732
 20
210.0393973321167
 30
0.0
  0
VERTEX
  5
4DE
330
4D1
100
AcDbEntity
  8
Visible (ISO)
100
AcDbVertex
100
AcDb2dVertex
 10
371.9237088947015
 20
209.221501819357
 30
0.0
  0
VERTEX
  5
4DF
330
4D1
100
AcDbEntity
  8
Visible (ISO)
100
AcDbVertex
100
AcDb2dVertex
 10
372.0051514892298
 20
208.345111346625
 30
0.0
  0
VERTEX
  5
4E0
330
4D1
100
AcDbEntity
  8
Visible (ISO)
100
AcDbVertex
100
AcDb2dVertex
 10
372.0865940837581
 20
207.419396220533
 30
0.0
  0
VERTEX
  5
4E1
330
4D1
100
AcDbEntity
  8
Visible (ISO)
100
AcDbVertex
100
AcDb2dVertex
 10
372.1680354861936
 20
206.4540448608275
 30
0.0
  0
VERTEX
  5
4E2
330
4D1
100
AcDbEntity
  8
Visible (ISO)
100
AcDbVertex
100
AcDb2dVertex
 10
372.249478080722
 20
205.4591593644601
 30
0.0
  0
VERTEX
  5
4E3
330
4D1
100
AcDbEntity
  8
Visible (ISO)
100
AcDbVertex
100
AcDb2dVertex
 10
372.3309206752505
 20
204.4451512148155
 30
0.0
  0
VERTEX
  5
4E4
330
4D1
100
AcDbEntity
  8
Visible (ISO)
100
AcDbVertex
100
AcDb2dVertex
 10
372.4123620776861
 20
203.4226321431072
 30
0.0
  0
VERTEX
  5
4E5
330
4D1
100
AcDbEntity
  8
Visible (ISO)
100
AcDbVertex
100
AcDb2dVertex
 10
372.4938046722146
 20
202.4023027479911
 30
0.0
  0
VERTEX
  5
4E6
330
4D1
100
AcDbEntity
  8
Visible (ISO)
100
AcDbVertex
100
AcDb2dVertex
 10
372.5752472667431
 20
201.3948408883582
 30
0.0
  0
VERTEX
  5
4E7
330
4D1
100
AcDbEntity
  8
Visible (ISO)
100
AcDbVertex
100
AcDb2dVertex
 10
372.6566898612717
 20
200.4107897714957
 30
0.0
  0
VERTEX
  5
4E8
330
4D1
100
AcDbEntity
  8
Visible (ISO)
100
AcDbVertex
100
AcDb2dVertex
 10
372.7381312637074
 20
199.4604470056944
 30
0.0
  0
VERTEX
  5
4E9
330
4D1
100
AcDbEntity
  8
Visible (ISO)
100
AcDbVertex
100
AcDb2dVertex
 10
372.819573858236
 20
198.5537588605524
 30
0.0
  0
VERTEX
  5
4EA
330
4D1
100
AcDbEntity
  8
Visible (ISO)
100
AcDbVertex
100
AcDb2dVertex
 10
372.9010164527647
 20
197.7002125147967
 30
0.0
  0
VERTEX
  5
4EB
330
4D1
100
AcDbEntity
  8
Visible (ISO)
100
AcDbVertex
100
AcDb2dVertex
 10
372.9824578552004
 20
196.908741854523
 30
0.0
  0
VERTEX
  5
4EC
330
4D1
100
AcDbEntity
  8
Visible (ISO)
100
AcDbVertex
100
AcDb2dVertex
 10
373.063900449729
 20
196.1876285030654
 30
0.0
  0
VERTEX
  5
4ED
330
4D1
100
AcDbEntity
  8
Visible (ISO)
100
AcDbVertex
100
AcDb2dVertex
 10
373.1453430442576
 20
195.5444195327304
 30
0.0
  0
SEQEND
  5
4D4
330
4D1
100
AcDbEntity
  8
Visible (ISO)
  0
LINE
  5
4EE
330
75
100
AcDbEntity
  8
Visible (ISO)
100
AcDbLine
 10
355.7453429488868
 20
212.881872637226
 30
0.0
 11
356.1453429488866
 21
213.6318725572139
 31
0.0
  0
POLYLINE
  5
4EF
330
75
100
AcDbEntity
  8
Visible (ISO)
100
AcDb2dPolyline
 66
     1
 10
0.0
 20
0.0
 30
0.0
 70
   128
  0
VERTEX
  5
4F0
330
4EF
100
AcDbEntity
  8
Visible (ISO)
100
AcDbVertex
100
AcDb2dVertex
 10
372.7453434257273
 20
196.1509786044803
 30
0.0
  0
VERTEX
  5
4F1
330
4EF
100
AcDbEntity
  8
Visible (ISO)
100
AcDbVertex
100
AcDb2dVertex
 10
372.6620244769811
 20
196.7605242569715
 30
0.0
  0
VERTEX
  5
4F3
330
4EF
100
AcDbEntity
  8
Visible (ISO)
100
AcDbVertex
100
AcDb2dVertex
 10
372.5787067203279
 20
197.4453270044378
 30
0.0
  0
VERTEX
  5
4F4
330
4EF
100
AcDbEntity
  8
Visible (ISO)
100
AcDbVertex
100
AcDb2dVertex
 10
372.4953889636747
 20
198.1978851206278
 30
0.0
  0
VERTEX
  5
4F5
330
4EF
100
AcDbEntity
  8
Visible (ISO)
100
AcDbVertex
100
AcDb2dVertex
 10
372.4120712070214
 20
199.0099575664988
 30
0.0
  0
VERTEX
  5
4F6
330
4EF
100
AcDbEntity
  8
Visible (ISO)
100
AcDbVertex
100
AcDb2dVertex
 10
372.3287534503683
 20
199.8726501522339
 30
0.0
  0
VERTEX
  5
4F7
330
4EF
100
AcDbEntity
  8
Visible (ISO)
100
AcDbVertex
100
AcDb2dVertex
 10
372.2454345016222
 20
200.7765142132043
 30
0.0
  0
VERTEX
  5
4F8
330
4EF
100
AcDbEntity
  8
Visible (ISO)
100
AcDbVertex
100
AcDb2dVertex
 10
372.1621167449689
 20
201.7116509414883
 30
0.0
  0
VERTEX
  5
4F9
330
4EF
100
AcDbEntity
  8
Visible (ISO)
100
AcDbVertex
100
AcDb2dVertex
 10
372.0787989883158
 20
202.6678182475606
 30
0.0
  0
VERTEX
  5
4FA
330
4EF
100
AcDbEntity
  8
Visible (ISO)
100
AcDbVertex
100
AcDb2dVertex
 10
371.9954812316627
 20
203.6345440734598
 30
0.0
  0
VERTEX
  5
4FB
330
4EF
100
AcDbEntity
  8
Visible (ISO)
100
AcDbVertex
100
AcDb2dVertex
 10
371.9121622829167
 20
204.6012406569055
 30
0.0
  0
VERTEX
  5
4FC
330
4EF
100
AcDbEntity
  8
Visible (ISO)
100
AcDbVertex
100
AcDb2dVertex
 10
371.8288445262636
 20
205.5573204662215
 30
0.0
  0
VERTEX
  5
4FD
330
4EF
100
AcDbEntity
  8
Visible (ISO)
100
AcDbVertex
100
AcDb2dVertex
 10
371.7455267696106
 20
206.4923124983326
 30
0.0
  0
VERTEX
  5
4FE
330
4EF
100
AcDbEntity
  8
Visible (ISO)
100
AcDbVertex
100
AcDb2dVertex
 10
371.6622090129576
 20
207.395976527235
 30
0.0
  0
VERTEX
  5
4FF
330
4EF
100
AcDbEntity
  8
Visible (ISO)
100
AcDbVertex
100
AcDb2dVertex
 10
371.5788912563046
 20
208.2584154666874
 30
0.0
  0
VERTEX
  5
500
330
4EF
100
AcDbEntity
  8
Visible (ISO)
100
AcDbVertex
100
AcDb2dVertex
 10
371.4955723075588
 20
209.0701833098393
 30
0.0
  0
VERTEX
  5
501
330
4EF
100
AcDbEntity
  8
Visible (ISO)
100
AcDbVertex
100
AcDb2dVertex
 10
371.4122545509059
 20
209.8223903063638
 30
0.0
  0
VERTEX
  5
502
330
4EF
100
AcDbEntity
  8
Visible (ISO)
100
AcDbVertex
100
AcDb2dVertex
 10
371.3289367942531
 20
210.50679681168
 30
0.0
  0
VERTEX
  5
503
330
4EF
100
AcDbEntity
  8
Visible (ISO)
100
AcDbVertex
100
AcDb2dVertex
 10
371.2456190376003
 20
211.1159086205098
 30
0.0
  0
VERTEX
  5
504
330
4EF
100
AcDbEntity
  8
Visible (ISO)
100
AcDbVertex
100
AcDb2dVertex
 10
371.1623000888546
 20
211.643053817903
 30
0.0
  0
VERTEX
  5
505
330
4EF
100
AcDbEntity
  8
Visible (ISO)
100
AcDbVertex
100
AcDb2dVertex
 10
371.078982332202
 20
212.0824584365182
 30
0.0
  0
VERTEX
  5
506
330
4EF
100
AcDbEntity
  8
Visible (ISO)
100
AcDbVertex
100
AcDb2dVertex
 10
370.9956645755493
 20
212.4293113803879
 30
0.0
  0
VERTEX
  5
507
330
4EF
100
AcDbEntity
  8
Visible (ISO)
100
AcDbVertex
100
AcDb2dVertex
 10
370.9123468188967
 20
212.6798126566318
 30
0.0
  0
VERTEX
  5
508
330
4EF
100
AcDbEntity
  8
Visible (ISO)
100
AcDbVertex
100
AcDb2dVertex
 10
370.8290290622441
 20
212.831219817482
 30
0.0
  0
VERTEX
  5
509
330
4EF
100
AcDbEntity
  8
Visible (ISO)
100
AcDbVertex
100
AcDb2dVertex
 10
370.7457101134986
 20
212.8818735379823
 30
0.0
  0
SEQEND
  5
4F2
330
4EF
100
AcDbEntity
  8
Visible (ISO)
  0
POLYLINE
  5
50A
330
75
100
AcDbEntity
  8
Visible (ISO)
100
AcDb2dPolyline
 66
     1
 10
0.0
 20
0.0
 30
0.0
 70
   128
  0
VERTEX
  5
50B
330
50A
100
AcDbEntity
  8
Visible (ISO)
100
AcDbVertex
100
AcDb2dVertex
 10
368.1184434680722
 20
194.4999150908386
 30
0.0
  0
VERTEX
  5
50C
330
50A
100
AcDbEntity
  8
Visible (ISO)
100
AcDbVertex
100
AcDb2dVertex
 10
368.0305647640007
 20
194.7178821362394
 30
0.0
  0
VERTEX
  5
50E
330
50A
100
AcDbEntity
  8
Visible (ISO)
100
AcDbVertex
100
AcDb2dVertex
 10
367.9426860599293
 20
195.0444462784028
 30
0.0
  0
VERTEX
  5
50F
330
50A
100
AcDbEntity
  8
Visible (ISO)
100
AcDbVertex
100
AcDb2dVertex
 10
367.8548073558579
 20
195.4756300198474
 30
0.0
  0
VERTEX
  5
510
330
50A
100
AcDbEntity
  8
Visible (ISO)
100
AcDbVertex
100
AcDb2dVertex
 10
367.7669274596935
 20
196.0061799627721
 30
0.0
  0
VERTEX
  5
511
330
50A
100
AcDbEntity
  8
Visible (ISO)
100
AcDbVertex
100
AcDb2dVertex
 10
367.679048755622
 20
196.6296324388584
 30
0.0
  0
VERTEX
  5
512
330
50A
100
AcDbEntity
  8
Visible (ISO)
100
AcDbVertex
100
AcDb2dVertex
 10
367.5911700515505
 20
197.3383922452115
 30
0.0
  0
VERTEX
  5
513
330
50A
100
AcDbEntity
  8
Visible (ISO)
100
AcDbVertex
100
AcDb2dVertex
 10
367.5032901553862
 20
198.1238238974123
 30
0.0
  0
VERTEX
  5
514
330
50A
100
AcDbEntity
  8
Visible (ISO)
100
AcDbVertex
100
AcDb2dVertex
 10
367.4154114513147
 20
198.976360157866
 30
0.0
  0
VERTEX
  5
515
330
50A
100
AcDbEntity
  8
Visible (ISO)
100
AcDbVertex
100
AcDb2dVertex
 10
367.3275327472433
 20
199.8856132455324
 30
0.0
  0
VERTEX
  5
516
330
50A
100
AcDbEntity
  8
Visible (ISO)
100
AcDbVertex
100
AcDb2dVertex
 10
367.2396540431719
 20
200.8405065982443
 30
0.0
  0
VERTEX
  5
517
330
50A
100
AcDbEntity
  8
Visible (ISO)
100
AcDbVertex
100
AcDb2dVertex
 10
367.1517741470075
 20
201.8294069316727
 30
0.0
  0
VERTEX
  5
518
330
50A
100
AcDbEntity
  8
Visible (ISO)
100
AcDbVertex
100
AcDb2dVertex
 10
367.0638954429362
 20
202.8402662696786
 30
0.0
  0
VERTEX
  5
519
330
50A
100
AcDbEntity
  8
Visible (ISO)
100
AcDbVertex
100
AcDb2dVertex
 10
366.9760167388647
 20
203.8607696143496
 30
0.0
  0
VERTEX
  5
51A
330
50A
100
AcDbEntity
  8
Visible (ISO)
100
AcDbVertex
100
AcDb2dVertex
 10
366.8881380347934
 20
204.8784843600398
 30
0.0
  0
VERTEX
  5
51B
330
50A
100
AcDbEntity
  8
Visible (ISO)
100
AcDbVertex
100
AcDb2dVertex
 10
366.8002581386293
 20
205.8810118011852
 30
0.0
  0
VERTEX
  5
51C
330
50A
100
AcDbEntity
  8
Visible (ISO)
100
AcDbVertex
100
AcDb2dVertex
 10
366.712379434558
 20
206.8561385601073
 30
0.0
  0
VERTEX
  5
51D
330
50A
100
AcDbEntity
  8
Visible (ISO)
100
AcDbVertex
100
AcDb2dVertex
 10
366.6245007304868
 20
207.7919844508317
 30
0.0
  0
VERTEX
  5
51E
330
50A
100
AcDbEntity
  8
Visible (ISO)
100
AcDbVertex
100
AcDb2dVertex
 10
366.5366220264156
 20
208.6771482076536
 30
0.0
  0
VERTEX
  5
51F
330
50A
100
AcDbEntity
  8
Visible (ISO)
100
AcDbVertex
100
AcDb2dVertex
 10
366.4487421302516
 20
209.5008466363629
 30
0.0
  0
VERTEX
  5
520
330
50A
100
AcDbEntity
  8
Visible (ISO)
100
AcDbVertex
100
AcDb2dVertex
 10
366.3608634261806
 20
210.2530436227701
 30
0.0
  0
VERTEX
  5
521
330
50A
100
AcDbEntity
  8
Visible (ISO)
100
AcDbVertex
100
AcDb2dVertex
 10
366.2729847221096
 20
210.9245764518643
 30
0.0
  0
VERTEX
  5
522
330
50A
100
AcDbEntity
  8
Visible (ISO)
100
AcDbVertex
100
AcDb2dVertex
 10
366.1851060180386
 20
211.5072633490332
 30
0.0
  0
VERTEX
  5
523
330
50A
100
AcDbEntity
  8
Visible (ISO)
100
AcDbVertex
100
AcDb2dVertex
 10
366.0972261218748
 20
211.994005349755
 30
0.0
  0
VERTEX
  5
524
330
50A
100
AcDbEntity
  8
Visible (ISO)
100
AcDbVertex
100
AcDb2dVertex
 10
366.009347417804
 20
212.3788732655177
 30
0.0
  0
VERTEX
  5
525
330
50A
100
AcDbEntity
  8
Visible (ISO)
100
AcDbVertex
100
AcDb2dVertex
 10
365.9214687137331
 20
212.6571773595722
 30
0.0
  0
VERTEX
  5
526
330
50A
100
AcDbEntity
  8
Visible (ISO)
100
AcDbVertex
100
AcDb2dVertex
 10
365.8335900096623
 20
212.8255280789982
 30
0.0
  0
VERTEX
  5
527
330
50A
100
AcDbEntity
  8
Visible (ISO)
100
AcDbVertex
100
AcDb2dVertex
 10
365.7457101134986
 20
212.8818735379808
 30
0.0
  0
SEQEND
  5
50D
330
50A
100
AcDbEntity
  8
Visible (ISO)
  0
POLYLINE
  5
528
330
75
100
AcDbEntity
  8
Visible (ISO)
100
AcDb2dPolyline
 66
     1
 10
0.0
 20
0.0
 30
0.0
 70
   128
  0
VERTEX
  5
529
330
528
100
AcDbEntity
  8
Visible (ISO)
100
AcDbVertex
100
AcDb2dVertex
 10
363.1184440641186
 20
194.4999150908371
 30
0.0
  0
VERTEX
  5
52A
330
528
100
AcDbEntity
  8
Visible (ISO)
100
AcDbVertex
100
AcDb2dVertex
 10
363.0305647640007
 20
194.7178821362379
 30
0.0
  0
VERTEX
  5
52C
330
528
100
AcDbEntity
  8
Visible (ISO)
100
AcDbVertex
100
AcDb2dVertex
 10
362.9426860599293
 20
195.0444462784013
 30
0.0
  0
VERTEX
  5
52D
330
528
100
AcDbEntity
  8
Visible (ISO)
100
AcDbVertex
100
AcDb2dVertex
 10
362.8548067598114
 20
195.4756300198459
 30
0.0
  0
VERTEX
  5
52E
330
528
100
AcDbEntity
  8
Visible (ISO)
100
AcDbVertex
100
AcDb2dVertex
 10
362.7669274596935
 20
196.0061799627706
 30
0.0
  0
VERTEX
  5
52F
330
528
100
AcDbEntity
  8
Visible (ISO)
100
AcDbVertex
100
AcDb2dVertex
 10
362.679048755622
 20
196.6296324388569
 30
0.0
  0
VERTEX
  5
530
330
528
100
AcDbEntity
  8
Visible (ISO)
100
AcDbVertex
100
AcDb2dVertex
 10
362.5911694555041
 20
197.33839224521
 30
0.0
  0
VERTEX
  5
531
330
528
100
AcDbEntity
  8
Visible (ISO)
100
AcDbVertex
100
AcDb2dVertex
 10
362.5032907514326
 20
198.1238238974109
 30
0.0
  0
VERTEX
  5
532
330
528
100
AcDbEntity
  8
Visible (ISO)
100
AcDbVertex
100
AcDb2dVertex
 10
362.4154114513147
 20
198.9763601578646
 30
0.0
  0
VERTEX
  5
533
330
528
100
AcDbEntity
  8
Visible (ISO)
100
AcDbVertex
100
AcDb2dVertex
 10
362.3275327472433
 20
199.8856132455309
 30
0.0
  0
VERTEX
  5
534
330
528
100
AcDbEntity
  8
Visible (ISO)
100
AcDbVertex
100
AcDb2dVertex
 10
362.2396534471254
 20
200.8405065982428
 30
0.0
  0
VERTEX
  5
535
330
528
100
AcDbEntity
  8
Visible (ISO)
100
AcDbVertex
100
AcDb2dVertex
 10
362.1517747430539
 20
201.8294069316712
 30
0.0
  0
VERTEX
  5
536
330
528
100
AcDbEntity
  8
Visible (ISO)
100
AcDbVertex
100
AcDb2dVertex
 10
362.0638954429361
 20
202.8402662696771
 30
0.0
  0
VERTEX
  5
537
330
528
100
AcDbEntity
  8
Visible (ISO)
100
AcDbVertex
100
AcDb2dVertex
 10
361.9760167388648
 20
203.8607696143481
 30
0.0
  0
VERTEX
  5
538
330
528
100
AcDbEntity
  8
Visible (ISO)
100
AcDbVertex
100
AcDb2dVertex
 10
361.888137438747
 20
204.8784843600383
 30
0.0
  0
VERTEX
  5
539
330
528
100
AcDbEntity
  8
Visible (ISO)
100
AcDbVertex
100
AcDb2dVertex
 10
361.8002587346757
 20
205.8810118011837
 30
0.0
  0
VERTEX
  5
53A
330
528
100
AcDbEntity
  8
Visible (ISO)
100
AcDbVertex
100
AcDb2dVertex
 10
361.712379434558
 20
206.8561385601058
 30
0.0
  0
VERTEX
  5
53B
330
528
100
AcDbEntity
  8
Visible (ISO)
100
AcDbVertex
100
AcDb2dVertex
 10
361.6245007304868
 20
207.7919844508302
 30
0.0
  0
VERTEX
  5
53C
330
528
100
AcDbEntity
  8
Visible (ISO)
100
AcDbVertex
100
AcDb2dVertex
 10
361.5366214303691
 20
208.6771482076521
 30
0.0
  0
VERTEX
  5
53D
330
528
100
AcDbEntity
  8
Visible (ISO)
100
AcDbVertex
100
AcDb2dVertex
 10
361.4487427262981
 20
209.5008466363614
 30
0.0
  0
VERTEX
  5
53E
330
528
100
AcDbEntity
  8
Visible (ISO)
100
AcDbVertex
100
AcDb2dVertex
 10
361.3608634261806
 20
210.2530436227686
 30
0.0
  0
VERTEX
  5
53F
330
528
100
AcDbEntity
  8
Visible (ISO)
100
AcDbVertex
100
AcDb2dVertex
 10
361.2729847221096
 20
210.9245764518629
 30
0.0
  0
VERTEX
  5
540
330
528
100
AcDbEntity
  8
Visible (ISO)
100
AcDbVertex
100
AcDb2dVertex
 10
361.1851054219922
 20
211.5072633490317
 30
0.0
  0
VERTEX
  5
541
330
528
100
AcDbEntity
  8
Visible (ISO)
100
AcDbVertex
100
AcDb2dVertex
 10
361.0972267179212
 20
211.9940053497536
 30
0.0
  0
VERTEX
  5
542
330
528
100
AcDbEntity
  8
Visible (ISO)
100
AcDbVertex
100
AcDb2dVertex
 10
361.0093474178039
 20
212.3788732655162
 30
0.0
  0
VERTEX
  5
543
330
528
100
AcDbEntity
  8
Visible (ISO)
100
AcDbVertex
100
AcDb2dVertex
 10
360.9214687137331
 20
212.6571773595707
 30
0.0
  0
VERTEX
  5
544
330
528
100
AcDbEntity
  8
Visible (ISO)
100
AcDbVertex
100
AcDb2dVertex
 10
360.8335894136158
 20
212.8255280789967
 30
0.0
  0
VERTEX
  5
545
330
528
100
AcDbEntity
  8
Visible (ISO)
100
AcDbVertex
100
AcDb2dVertex
 10
360.745710709545
 20
212.8818735379792
 30
0.0
  0
SEQEND
  5
52B
330
528
100
AcDbEntity
  8
Visible (ISO)
  0
POLYLINE
  5
546
330
75
100
AcDbEntity
  8
Visible (ISO)
100
AcDb2dPolyline
 66
     1
 10
0.0
 20
0.0
 30
0.0
 70
   128
  0
VERTEX
  5
547
330
546
100
AcDbEntity
  8
Visible (ISO)
100
AcDbVertex
100
AcDb2dVertex
 10
358.1184437660954
 20
194.4999150908356
 30
0.0
  0
VERTEX
  5
548
330
546
100
AcDbEntity
  8
Visible (ISO)
100
AcDbVertex
100
AcDb2dVertex
 10
358.0305647640007
 20
194.7178821362365
 30
0.0
  0
VERTEX
  5
54A
330
546
100
AcDbEntity
  8
Visible (ISO)
100
AcDbVertex
100
AcDb2dVertex
 10
357.942685761906
 20
195.0444462783998
 30
0.0
  0
VERTEX
  5
54B
330
546
100
AcDbEntity
  8
Visible (ISO)
100
AcDbVertex
100
AcDb2dVertex
 10
357.8548067598114
 20
195.4756300198445
 30
0.0
  0
VERTEX
  5
54C
330
546
100
AcDbEntity
  8
Visible (ISO)
100
AcDbVertex
100
AcDb2dVertex
 10
357.7669277577167
 20
196.0061799627691
 30
0.0
  0
VERTEX
  5
54D
330
546
100
AcDbEntity
  8
Visible (ISO)
100
AcDbVertex
100
AcDb2dVertex
 10
357.679048755622
 20
196.6296324388554
 30
0.0
  0
VERTEX
  5
54E
330
546
100
AcDbEntity
  8
Visible (ISO)
100
AcDbVertex
100
AcDb2dVertex
 10
357.5911697535273
 20
197.3383922452085
 30
0.0
  0
VERTEX
  5
54F
330
546
100
AcDbEntity
  8
Visible (ISO)
100
AcDbVertex
100
AcDb2dVertex
 10
357.5032907514327
 20
198.1238238974094
 30
0.0
  0
VERTEX
  5
550
330
546
100
AcDbEntity
  8
Visible (ISO)
100
AcDbVertex
100
AcDb2dVertex
 10
357.4154117493379
 20
198.9763601578631
 30
0.0
  0
VERTEX
  5
551
330
546
100
AcDbEntity
  8
Visible (ISO)
100
AcDbVertex
100
AcDb2dVertex
 10
357.3275327472432
 20
199.8856132455294
 30
0.0
  0
VERTEX
  5
552
330
546
100
AcDbEntity
  8
Visible (ISO)
100
AcDbVertex
100
AcDb2dVertex
 10
357.2396537451486
 20
200.8405065982413
 30
0.0
  0
VERTEX
  5
553
330
546
100
AcDbEntity
  8
Visible (ISO)
100
AcDbVertex
100
AcDb2dVertex
 10
357.151774743054
 20
201.8294069316697
 30
0.0
  0
VERTEX
  5
554
330
546
100
AcDbEntity
  8
Visible (ISO)
100
AcDbVertex
100
AcDb2dVertex
 10
357.0638957409594
 20
202.8402662696756
 30
0.0
  0
VERTEX
  5
555
330
546
100
AcDbEntity
  8
Visible (ISO)
100
AcDbVertex
100
AcDb2dVertex
 10
356.976016664359
 20
203.8607696143467
 30
0.0
  0
VERTEX
  5
556
330
546
100
AcDbEntity
  8
Visible (ISO)
100
AcDbVertex
100
AcDb2dVertex
 10
356.8881376622644
 20
204.8784843600369
 30
0.0
  0
VERTEX
  5
557
330
546
100
AcDbEntity
  8
Visible (ISO)
100
AcDbVertex
100
AcDb2dVertex
 10
356.8002586601699
 20
205.8810118011823
 30
0.0
  0
VERTEX
  5
558
330
546
100
AcDbEntity
  8
Visible (ISO)
100
AcDbVertex
100
AcDb2dVertex
 10
356.7123796580754
 20
206.8561385601043
 30
0.0
  0
VERTEX
  5
559
330
546
100
AcDbEntity
  8
Visible (ISO)
100
AcDbVertex
100
AcDb2dVertex
 10
356.624500655981
 20
207.7919844508287
 30
0.0
  0
VERTEX
  5
55A
330
546
100
AcDbEntity
  8
Visible (ISO)
100
AcDbVertex
100
AcDb2dVertex
 10
356.5366216538866
 20
208.6771482076506
 30
0.0
  0
VERTEX
  5
55B
330
546
100
AcDbEntity
  8
Visible (ISO)
100
AcDbVertex
100
AcDb2dVertex
 10
356.4487425772865
 20
209.5008466363599
 30
0.0
  0
VERTEX
  5
55C
330
546
100
AcDbEntity
  8
Visible (ISO)
100
AcDbVertex
100
AcDb2dVertex
 10
356.3608636124451
 20
210.2530436227671
 30
0.0
  0
VERTEX
  5
55D
330
546
100
AcDbEntity
  8
Visible (ISO)
100
AcDbVertex
100
AcDb2dVertex
 10
356.272984573098
 20
210.9245764518614
 30
0.0
  0
VERTEX
  5
55E
330
546
100
AcDbEntity
  8
Visible (ISO)
100
AcDbVertex
100
AcDb2dVertex
 10
356.1851055710038
 20
211.5072633490302
 30
0.0
  0
VERTEX
  5
55F
330
546
100
AcDbEntity
  8
Visible (ISO)
100
AcDbVertex
100
AcDb2dVertex
 10
356.0972265689096
 20
211.9940053497521
 30
0.0
  0
VERTEX
  5
560
330
546
100
AcDbEntity
  8
Visible (ISO)
100
AcDbVertex
100
AcDb2dVertex
 10
356.0093475668156
 20
212.3788732655147
 30
0.0
  0
VERTEX
  5
561
330
546
100
AcDbEntity
  8
Visible (ISO)
100
AcDbVertex
100
AcDb2dVertex
 10
355.921468546095
 20
212.6571773595692
 30
0.0
  0
VERTEX
  5
562
330
546
100
AcDbEntity
  8
Visible (ISO)
100
AcDbVertex
100
AcDb2dVertex
 10
355.833589544001
 20
212.8255280789952
 30
0.0
  0
VERTEX
  5
563
330
546
100
AcDbEntity
  8
Visible (ISO)
100
AcDbVertex
100
AcDb2dVertex
 10
355.7457105296106
 20
212.8818735379778
 30
0.0
  0
SEQEND
  5
549
330
546
100
AcDbEntity
  8
Visible (ISO)
  0
LINE
  5
564
330
75
100
AcDbEntity
  8
Visible (ISO)
100
AcDbLine
 10
373.1453429488902
 20
195.5444196148447
 30
0.0
 11
373.5453429488901
 21
196.1509786655352
 31
0.0
  0
POLYLINE
  5
565
330
75
100
AcDbEntity
  8
Visible (ISO)
100
AcDb2dPolyline
 66
     1
 10
0.0
 20
0.0
 30
0.0
 70
   128
  0
VERTEX
  5
566
330
565
100
AcDbEntity
  8
Visible (ISO)
100
AcDbVertex
100
AcDb2dVertex
 10
356.672977262589
 20
212.7638322204004
 30
0.0
  0
VERTEX
  5
567
330
565
100
AcDbEntity
  8
Visible (ISO)
100
AcDbVertex
100
AcDb2dVertex
 10
356.760856264683
 20
212.5458651525451
 30
0.0
  0
VERTEX
  5
569
330
565
100
AcDbEntity
  8
Visible (ISO)
100
AcDbVertex
100
AcDb2dVertex
 10
356.8487352667771
 20
212.2193011971567
 30
0.0
  0
VERTEX
  5
56A
330
565
100
AcDbEntity
  8
Visible (ISO)
100
AcDbVertex
100
AcDb2dVertex
 10
356.9366142688713
 20
211.7881170973338
 30
0.0
  0
VERTEX
  5
56B
330
565
100
AcDbEntity
  8
Visible (ISO)
100
AcDbVertex
100
AcDb2dVertex
 10
357.0244933454712
 20
211.2575677556433
 30
0.0
  0
VERTEX
  5
56C
330
565
100
AcDbEntity
  8
Visible (ISO)
100
AcDbVertex
100
AcDb2dVertex
 10
357.1123723475654
 20
210.6341147716725
 30
0.0
  0
VERTEX
  5
56D
330
565
100
AcDbEntity
  8
Visible (ISO)
100
AcDbVertex
100
AcDb2dVertex
 10
357.2002513496597
 20
209.9253549767585
 30
0.0
  0
VERTEX
  5
56E
330
565
100
AcDbEntity
  8
Visible (ISO)
100
AcDbVertex
100
AcDb2dVertex
 10
357.288130351754
 20
209.1399233334918
 30
0.0
  0
VERTEX
  5
56F
330
565
100
AcDbEntity
  8
Visible (ISO)
100
AcDbVertex
100
AcDb2dVertex
 10
357.3760093538483
 20
208.2873871880058
 30
0.0
  0
VERTEX
  5
570
330
565
100
AcDbEntity
  8
Visible (ISO)
100
AcDbVertex
100
AcDb2dVertex
 10
357.4638883559428
 20
207.3781339598348
 30
0.0
  0
VERTEX
  5
571
330
565
100
AcDbEntity
  8
Visible (ISO)
100
AcDbVertex
100
AcDb2dVertex
 10
357.5517673580372
 20
206.4232406463019
 30
0.0
  0
VERTEX
  5
572
330
565
100
AcDbEntity
  8
Visible (ISO)
100
AcDbVertex
100
AcDb2dVertex
 10
357.6396463601317
 20
205.4343403397903
 30
0.0
  0
VERTEX
  5
573
330
565
100
AcDbEntity
  8
Visible (ISO)
100
AcDbVertex
100
AcDb2dVertex
 10
357.7275253622262
 20
204.4234809895303
 30
0.0
  0
VERTEX
  5
574
330
565
100
AcDbEntity
  8
Visible (ISO)
100
AcDbVertex
100
AcDb2dVertex
 10
357.8154043643207
 20
203.4029776375192
 30
0.0
  0
VERTEX
  5
575
330
565
100
AcDbEntity
  8
Visible (ISO)
100
AcDbVertex
100
AcDb2dVertex
 10
357.9032833664154
 20
202.3852629303475
 30
0.0
  0
VERTEX
  5
576
330
565
100
AcDbEntity
  8
Visible (ISO)
100
AcDbVertex
100
AcDb2dVertex
 10
357.99116236851
 20
201.3827353558436
 30
0.0
  0
VERTEX
  5
577
330
565
100
AcDbEntity
  8
Visible (ISO)
100
AcDbVertex
100
AcDb2dVertex
 10
358.0790413706046
 20
200.4076088076083
 30
0.0
  0
VERTEX
  5
578
330
565
100
AcDbEntity
  8
Visible (ISO)
100
AcDbVertex
100
AcDb2dVertex
 10
358.1669203726993
 20
199.4717628543249
 30
0.0
  0
VERTEX
  5
579
330
565
100
AcDbEntity
  8
Visible (ISO)
100
AcDbVertex
100
AcDb2dVertex
 10
358.2547995238056
 20
198.5865987350038
 30
0.0
  0
VERTEX
  5
57A
330
565
100
AcDbEntity
  8
Visible (ISO)
100
AcDbVertex
100
AcDb2dVertex
 10
358.3426785259003
 20
197.7629009005036
 30
0.0
  0
VERTEX
  5
57B
330
565
100
AcDbEntity
  8
Visible (ISO)
100
AcDbVertex
100
AcDb2dVertex
 10
358.430557527995
 20
197.0107033140613
 30
0.0
  0
VERTEX
  5
57C
330
565
100
AcDbEntity
  8
Visible (ISO)
100
AcDbVertex
100
AcDb2dVertex
 10
358.5184365300897
 20
196.3391710958889
 30
0.0
  0
VERTEX
  5
57D
330
565
100
AcDbEntity
  8
Visible (ISO)
100
AcDbVertex
100
AcDb2dVertex
 10
358.6063155321844
 20
195.7564839472346
 30
0.0
  0
VERTEX
  5
57E
330
565
100
AcDbEntity
  8
Visible (ISO)
100
AcDbVertex
100
AcDb2dVertex
 10
358.694194534279
 20
195.2697419239821
 30
0.0
  0
VERTEX
  5
57F
330
565
100
AcDbEntity
  8
Visible (ISO)
100
AcDbVertex
100
AcDb2dVertex
 10
358.7820735363737
 20
194.8848741829099
 30
0.0
  0
VERTEX
  5
580
330
565
100
AcDbEntity
  8
Visible (ISO)
100
AcDbVertex
100
AcDb2dVertex
 10
358.8699525384683
 20
194.6065697791891
 30
0.0
  0
VERTEX
  5
581
330
565
100
AcDbEntity
  8
Visible (ISO)
100
AcDbVertex
100
AcDb2dVertex
 10
358.9578315405629
 20
194.4382191887235
 30
0.0
  0
VERTEX
  5
582
330
565
100
AcDbEntity
  8
Visible (ISO)
100
AcDbVertex
100
AcDb2dVertex
 10
359.0457105426576
 20
194.381873710111
 30
0.0
  0
SEQEND
  5
568
330
565
100
AcDbEntity
  8
Visible (ISO)
  0
POLYLINE
  5
583
330
75
100
AcDbEntity
  8
Visible (ISO)
100
AcDb2dPolyline
 66
     1
 10
0.0
 20
0.0
 30
0.0
 70
   128
  0
VERTEX
  5
584
330
583
100
AcDbEntity
  8
Visible (ISO)
100
AcDbVertex
100
AcDb2dVertex
 10
361.6729771880832
 20
212.7638322204018
 30
0.0
  0
VERTEX
  5
585
330
583
100
AcDbEntity
  8
Visible (ISO)
100
AcDbVertex
100
AcDb2dVertex
 10
361.7608564882004
 20
212.5458651525466
 30
0.0
  0
VERTEX
  5
587
330
583
100
AcDbEntity
  8
Visible (ISO)
100
AcDbVertex
100
AcDb2dVertex
 10
361.8487351922713
 20
212.2193011971582
 30
0.0
  0
VERTEX
  5
588
330
583
100
AcDbEntity
  8
Visible (ISO)
100
AcDbVertex
100
AcDb2dVertex
 10
361.9366144923887
 20
211.7881170973352
 30
0.0
  0
VERTEX
  5
589
330
583
100
AcDbEntity
  8
Visible (ISO)
100
AcDbVertex
100
AcDb2dVertex
 10
362.0244931964596
 20
211.2575677556448
 30
0.0
  0
VERTEX
  5
58A
330
583
100
AcDbEntity
  8
Visible (ISO)
100
AcDbVertex
100
AcDb2dVertex
 10
362.112372496577
 20
210.6341147716741
 30
0.0
  0
VERTEX
  5
58B
330
583
100
AcDbEntity
  8
Visible (ISO)
100
AcDbVertex
100
AcDb2dVertex
 10
362.200251200648
 20
209.9253549767599
 30
0.0
  0
VERTEX
  5
58C
330
583
100
AcDbEntity
  8
Visible (ISO)
100
AcDbVertex
100
AcDb2dVertex
 10
362.2881305007656
 20
209.1399233334933
 30
0.0
  0
VERTEX
  5
58D
330
583
100
AcDbEntity
  8
Visible (ISO)
100
AcDbVertex
100
AcDb2dVertex
 10
362.3760092048367
 20
208.2873871880073
 30
0.0
  0
VERTEX
  5
58E
330
583
100
AcDbEntity
  8
Visible (ISO)
100
AcDbVertex
100
AcDb2dVertex
 10
362.4638885049543
 20
207.3781339598363
 30
0.0
  0
VERTEX
  5
58F
330
583
100
AcDbEntity
  8
Visible (ISO)
100
AcDbVertex
100
AcDb2dVertex
 10
362.5517672090256
 20
206.4232406463033
 30
0.0
  0
VERTEX
  5
590
330
583
100
AcDbEntity
  8
Visible (ISO)
100
AcDbVertex
100
AcDb2dVertex
 10
362.6396465091432
 20
205.4343403397918
 30
0.0
  0
VERTEX
  5
591
330
583
100
AcDbEntity
  8
Visible (ISO)
100
AcDbVertex
100
AcDb2dVertex
 10
362.7275252132146
 20
204.4234809895317
 30
0.0
  0
VERTEX
  5
592
330
583
100
AcDbEntity
  8
Visible (ISO)
100
AcDbVertex
100
AcDb2dVertex
 10
362.8154045133324
 20
203.4029776375207
 30
0.0
  0
VERTEX
  5
593
330
583
100
AcDbEntity
  8
Visible (ISO)
100
AcDbVertex
100
AcDb2dVertex
 10
362.9032832174038
 20
202.385262930349
 30
0.0
  0
VERTEX
  5
594
330
583
100
AcDbEntity
  8
Visible (ISO)
100
AcDbVertex
100
AcDb2dVertex
 10
362.9911625175216
 20
201.3827353558451
 30
0.0
  0
VERTEX
  5
595
330
583
100
AcDbEntity
  8
Visible (ISO)
100
AcDbVertex
100
AcDb2dVertex
 10
363.079041221593
 20
200.4076088076097
 30
0.0
  0
VERTEX
  5
596
330
583
100
AcDbEntity
  8
Visible (ISO)
100
AcDbVertex
100
AcDb2dVertex
 10
363.166920521711
 20
199.4717628543263
 30
0.0
  0
VERTEX
  5
597
330
583
100
AcDbEntity
  8
Visible (ISO)
100
AcDbVertex
100
AcDb2dVertex
 10
363.2547992257824
 20
198.5865987350053
 30
0.0
  0
VERTEX
  5
598
330
583
100
AcDbEntity
  8
Visible (ISO)
100
AcDbVertex
100
AcDb2dVertex
 10
363.3426785259002
 20
197.7629009005051
 30
0.0
  0
VERTEX
  5
599
330
583
100
AcDbEntity
  8
Visible (ISO)
100
AcDbVertex
100
AcDb2dVertex
 10
363.4305572299718
 20
197.0107033140628
 30
0.0
  0
VERTEX
  5
59A
330
583
100
AcDbEntity
  8
Visible (ISO)
100
AcDbVertex
100
AcDb2dVertex
 10
363.5184365300897
 20
196.3391710958904
 30
0.0
  0
VERTEX
  5
59B
330
583
100
AcDbEntity
  8
Visible (ISO)
100
AcDbVertex
100
AcDb2dVertex
 10
363.6063152341611
 20
195.7564839472361
 30
0.0
  0
VERTEX
  5
59C
330
583
100
AcDbEntity
  8
Visible (ISO)
100
AcDbVertex
100
AcDb2dVertex
 10
363.694194534279
 20
195.2697419239836
 30
0.0
  0
VERTEX
  5
59D
330
583
100
AcDbEntity
  8
Visible (ISO)
100
AcDbVertex
100
AcDb2dVertex
 10
363.7820732383505
 20
194.8848741829114
 30
0.0
  0
VERTEX
  5
59E
330
583
100
AcDbEntity
  8
Visible (ISO)
100
AcDbVertex
100
AcDb2dVertex
 10
363.8699525384684
 20
194.6065697791905
 30
0.0
  0
VERTEX
  5
59F
330
583
100
AcDbEntity
  8
Visible (ISO)
100
AcDbVertex
100
AcDb2dVertex
 10
363.9578312425397
 20
194.438219188725
 30
0.0
  0
VERTEX
  5
5A0
330
583
100
AcDbEntity
  8
Visible (ISO)
100
AcDbVertex
100
AcDb2dVertex
 10
364.0457105426575
 20
194.3818737101125
 30
0.0
  0
SEQEND
  5
586
330
583
100
AcDbEntity
  8
Visible (ISO)
  0
POLYLINE
  5
5A1
330
75
100
AcDbEntity
  8
Visible (ISO)
100
AcDb2dPolyline
 66
     1
 10
0.0
 20
0.0
 30
0.0
 70
   128
  0
VERTEX
  5
5A2
330
5A1
100
AcDbEntity
  8
Visible (ISO)
100
AcDbVertex
100
AcDb2dVertex
 10
366.6729771880831
 20
212.7638322204033
 30
0.0
  0
VERTEX
  5
5A3
330
5A1
100
AcDbEntity
  8
Visible (ISO)
100
AcDbVertex
100
AcDb2dVertex
 10
366.760855892154
 20
212.5458651525481
 30
0.0
  0
VERTEX
  5
5A5
330
5A1
100
AcDbEntity
  8
Visible (ISO)
100
AcDbVertex
100
AcDb2dVertex
 10
366.8487357883177
 20
212.2193011971597
 30
0.0
  0
VERTEX
  5
5A6
330
5A1
100
AcDbEntity
  8
Visible (ISO)
100
AcDbVertex
100
AcDb2dVertex
 10
366.9366144923886
 20
211.7881170973368
 30
0.0
  0
VERTEX
  5
5A7
330
5A1
100
AcDbEntity
  8
Visible (ISO)
100
AcDbVertex
100
AcDb2dVertex
 10
367.0244931964596
 20
211.2575677556463
 30
0.0
  0
VERTEX
  5
5A8
330
5A1
100
AcDbEntity
  8
Visible (ISO)
100
AcDbVertex
100
AcDb2dVertex
 10
367.1123719005306
 20
210.6341147716755
 30
0.0
  0
VERTEX
  5
5A9
330
5A1
100
AcDbEntity
  8
Visible (ISO)
100
AcDbVertex
100
AcDb2dVertex
 10
367.2002517966945
 20
209.9253549767615
 30
0.0
  0
VERTEX
  5
5AA
330
5A1
100
AcDbEntity
  8
Visible (ISO)
100
AcDbVertex
100
AcDb2dVertex
 10
367.2881305007656
 20
209.1399233334948
 30
0.0
  0
VERTEX
  5
5AB
330
5A1
100
AcDbEntity
  8
Visible (ISO)
100
AcDbVertex
100
AcDb2dVertex
 10
367.3760092048367
 20
208.2873871880087
 30
0.0
  0
VERTEX
  5
5AC
330
5A1
100
AcDbEntity
  8
Visible (ISO)
100
AcDbVertex
100
AcDb2dVertex
 10
367.4638879089079
 20
207.3781339598378
 30
0.0
  0
VERTEX
  5
5AD
330
5A1
100
AcDbEntity
  8
Visible (ISO)
100
AcDbVertex
100
AcDb2dVertex
 10
367.551767805072
 20
206.4232406463048
 30
0.0
  0
VERTEX
  5
5AE
330
5A1
100
AcDbEntity
  8
Visible (ISO)
100
AcDbVertex
100
AcDb2dVertex
 10
367.6396465091432
 20
205.4343403397933
 30
0.0
  0
VERTEX
  5
5AF
330
5A1
100
AcDbEntity
  8
Visible (ISO)
100
AcDbVertex
100
AcDb2dVertex
 10
367.7275252132146
 20
204.4234809895332
 30
0.0
  0
VERTEX
  5
5B0
330
5A1
100
AcDbEntity
  8
Visible (ISO)
100
AcDbVertex
100
AcDb2dVertex
 10
367.8154039172859
 20
203.4029776375222
 30
0.0
  0
VERTEX
  5
5B1
330
5A1
100
AcDbEntity
  8
Visible (ISO)
100
AcDbVertex
100
AcDb2dVertex
 10
367.9032838134502
 20
202.3852629303505
 30
0.0
  0
VERTEX
  5
5B2
330
5A1
100
AcDbEntity
  8
Visible (ISO)
100
AcDbVertex
100
AcDb2dVertex
 10
367.9911625175216
 20
201.3827353558466
 30
0.0
  0
VERTEX
  5
5B3
330
5A1
100
AcDbEntity
  8
Visible (ISO)
100
AcDbVertex
100
AcDb2dVertex
 10
368.079041221593
 20
200.4076088076113
 30
0.0
  0
VERTEX
  5
5B4
330
5A1
100
AcDbEntity
  8
Visible (ISO)
100
AcDbVertex
100
AcDb2dVertex
 10
368.1669199256645
 20
199.4717628543278
 30
0.0
  0
VERTEX
  5
5B5
330
5A1
100
AcDbEntity
  8
Visible (ISO)
100
AcDbVertex
100
AcDb2dVertex
 10
368.2547998218288
 20
198.5865987350068
 30
0.0
  0
VERTEX
  5
5B6
330
5A1
100
AcDbEntity
  8
Visible (ISO)
100
AcDbVertex
100
AcDb2dVertex
 10
368.3426785259002
 20
197.7629009005065
 30
0.0
  0
VERTEX
  5
5B7
330
5A1
100
AcDbEntity
  8
Visible (ISO)
100
AcDbVertex
100
AcDb2dVertex
 10
368.4305572299717
 20
197.0107033140643
 30
0.0
  0
VERTEX
  5
5B8
330
5A1
100
AcDbEntity
  8
Visible (ISO)
100
AcDbVertex
100
AcDb2dVertex
 10
368.5184359340432
 20
196.3391710958919
 30
0.0
  0
VERTEX
  5
5B9
330
5A1
100
AcDbEntity
  8
Visible (ISO)
100
AcDbVertex
100
AcDb2dVertex
 10
368.6063158302076
 20
195.7564839472375
 30
0.0
  0
VERTEX
  5
5BA
330
5A1
100
AcDbEntity
  8
Visible (ISO)
100
AcDbVertex
100
AcDb2dVertex
 10
368.694194534279
 20
195.2697419239851
 30
0.0
  0
VERTEX
  5
5BB
330
5A1
100
AcDbEntity
  8
Visible (ISO)
100
AcDbVertex
100
AcDb2dVertex
 10
368.7820732383505
 20
194.8848741829129
 30
0.0
  0
VERTEX
  5
5BC
330
5A1
100
AcDbEntity
  8
Visible (ISO)
100
AcDbVertex
100
AcDb2dVertex
 10
368.8699519424219
 20
194.606569779192
 30
0.0
  0
VERTEX
  5
5BD
330
5A1
100
AcDbEntity
  8
Visible (ISO)
100
AcDbVertex
100
AcDb2dVertex
 10
368.9578318385862
 20
194.4382191887264
 30
0.0
  0
VERTEX
  5
5BE
330
5A1
100
AcDbEntity
  8
Visible (ISO)
100
AcDbVertex
100
AcDb2dVertex
 10
369.0457105426575
 20
194.3818737101139
 30
0.0
  0
SEQEND
  5
5A4
330
5A1
100
AcDbEntity
  8
Visible (ISO)
  0
POLYLINE
  5
5BF
330
75
100
AcDbEntity
  8
Visible (ISO)
100
AcDb2dPolyline
 66
     1
 10
0.0
 20
0.0
 30
0.0
 70
   128
  0
VERTEX
  5
5C0
330
5BF
100
AcDbEntity
  8
Visible (ISO)
100
AcDbVertex
100
AcDb2dVertex
 10
371.6729771880831
 20
212.7638322204048
 30
0.0
  0
VERTEX
  5
5C1
330
5BF
100
AcDbEntity
  8
Visible (ISO)
100
AcDbVertex
100
AcDb2dVertex
 10
371.7509925155365
 20
212.5758017249356
 30
0.0
  0
VERTEX
  5
5C3
330
5BF
100
AcDbEntity
  8
Visible (ISO)
100
AcDbVertex
100
AcDb2dVertex
 10
371.82900784299
 20
212.301878207673
 30
0.0
  0
VERTEX
  5
5C4
330
5BF
100
AcDbEntity
  8
Visible (ISO)
100
AcDbVertex
100
AcDb2dVertex
 10
371.9070231704435
 20
211.9446923609993
 30
0.0
  0
VERTEX
  5
5C5
330
5BF
100
AcDbEntity
  8
Visible (ISO)
100
AcDbVertex
100
AcDb2dVertex
 10
371.9850384978969
 20
211.5076737170447
 30
0.0
  0
VERTEX
  5
5C6
330
5BF
100
AcDbEntity
  8
Visible (ISO)
100
AcDbVertex
100
AcDb2dVertex
 10
372.0630538253505
 20
210.9950202848377
 30
0.0
  0
VERTEX
  5
5C7
330
5BF
100
AcDbEntity
  8
Visible (ISO)
100
AcDbVertex
100
AcDb2dVertex
 10
372.1410691528041
 20
210.4116538800721
 30
0.0
  0
VERTEX
  5
5C8
330
5BF
100
AcDbEntity
  8
Visible (ISO)
100
AcDbVertex
100
AcDb2dVertex
 10
372.2190844802577
 20
209.7631784344854
 30
0.0
  0
VERTEX
  5
5C9
330
5BF
100
AcDbEntity
  8
Visible (ISO)
100
AcDbVertex
100
AcDb2dVertex
 10
372.2970986156185
 20
209.0558204208182
 30
0.0
  0
VERTEX
  5
5CA
330
5BF
100
AcDbEntity
  8
Visible (ISO)
100
AcDbVertex
100
AcDb2dVertex
 10
372.3751139430722
 20
208.2963734465177
 30
0.0
  0
VERTEX
  5
5CB
330
5BF
100
AcDbEntity
  8
Visible (ISO)
100
AcDbVertex
100
AcDb2dVertex
 10
372.4531292705259
 20
207.4921306275285
 30
0.0
  0
VERTEX
  5
5CC
330
5BF
100
AcDbEntity
  8
Visible (ISO)
100
AcDbVertex
100
AcDb2dVertex
 10
372.5311445979796
 20
206.6508160630562
 30
0.0
  0
VERTEX
  5
5CD
330
5BF
100
AcDbEntity
  8
Visible (ISO)
100
AcDbVertex
100
AcDb2dVertex
 10
372.6091599254335
 20
205.7805088592019
 30
0.0
  0
VERTEX
  5
5CE
330
5BF
100
AcDbEntity
  8
Visible (ISO)
100
AcDbVertex
100
AcDb2dVertex
 10
372.6871752528873
 20
204.8895672947239
 30
0.0
  0
VERTEX
  5
5CF
330
5BF
100
AcDbEntity
  8
Visible (ISO)
100
AcDbVertex
100
AcDb2dVertex
 10
372.7651905803412
 20
203.9865472851804
 30
0.0
  0
VERTEX
  5
5D0
330
5BF
100
AcDbEntity
  8
Visible (ISO)
100
AcDbVertex
100
AcDb2dVertex
 10
372.843205907795
 20
203.0801212176722
 30
0.0
  0
VERTEX
  5
5D1
330
5BF
100
AcDbEntity
  8
Visible (ISO)
100
AcDbVertex
100
AcDb2dVertex
 10
372.9212212352489
 20
202.1789938354491
 30
0.0
  0
VERTEX
  5
5D2
330
5BF
100
AcDbEntity
  8
Visible (ISO)
100
AcDbVertex
100
AcDb2dVertex
 10
372.9992365627029
 20
201.2918193132313
 30
0.0
  0
VERTEX
  5
5D3
330
5BF
100
AcDbEntity
  8
Visible (ISO)
100
AcDbVertex
100
AcDb2dVertex
 10
373.0772518901568
 20
200.4271174713106
 30
0.0
  0
VERTEX
  5
5D4
330
5BF
100
AcDbEntity
  8
Visible (ISO)
100
AcDbVertex
100
AcDb2dVertex
 10
373.1552672176108
 20
199.5931927425102
 30
0.0
  0
VERTEX
  5
5D5
330
5BF
100
AcDbEntity
  8
Visible (ISO)
100
AcDbVertex
100
AcDb2dVertex
 10
373.2332825450648
 20
198.7980536935332
 30
0.0
  0
VERTEX
  5
5D6
330
5BF
100
AcDbEntity
  8
Visible (ISO)
100
AcDbVertex
100
AcDb2dVertex
 10
373.3112966804259
 20
198.0493358229146
 30
0.0
  0
VERTEX
  5
5D7
330
5BF
100
AcDbEntity
  8
Visible (ISO)
100
AcDbVertex
100
AcDb2dVertex
 10
373.3893120078798
 20
197.3542306127796
 30
0.0
  0
VERTEX
  5
5D8
330
5BF
100
AcDbEntity
  8
Visible (ISO)
100
AcDbVertex
100
AcDb2dVertex
 10
373.4673273353338
 20
196.7194127886079
 30
0.0
  0
VERTEX
  5
5D9
330
5BF
100
AcDbEntity
  8
Visible (ISO)
100
AcDbVertex
100
AcDb2dVertex
 10
373.5453426627878
 20
196.1509786044805
 30
0.0
  0
SEQEND
  5
5C2
330
5BF
100
AcDbEntity
  8
Visible (ISO)
  0
LINE
  5
5DA
330
75
100
AcDbEntity
  8
Visible (ISO)
100
AcDbLine
 10
358.5278442291998
 20
193.741363707673
 30
0.0
 11
358.1184437660954
 21
194.4999150908356
 31
0.0
  0
LINE
  5
5DB
330
75
100
AcDbEntity
  8
Visible (ISO)
100
AcDbLine
 10
363.527844527223
 20
193.7413637076745
 30
0.0
 11
363.1184440641186
 21
194.4999150908371
 31
0.0
  0
LINE
  5
5DC
330
75
100
AcDbEntity
  8
Visible (ISO)
100
AcDbLine
 10
368.5278439311766
 20
193.741363707676
 30
0.0
 11
368.1184434680722
 21
194.4999150908386
 31
0.0
  0
LINE
  5
5DD
330
75
100
AcDbEntity
  8
Visible (ISO)
100
AcDbLine
 10
370.6822025565838
 20
212.8818735907652
 30
0.0
 11
371.0278439311716
 21
213.5223835404201
 31
0.0
  0
LINE
  5
5DE
330
75
100
AcDbEntity
  8
Visible (ISO)
100
AcDbLine
 10
365.6822031526302
 20
212.8818735907637
 30
0.0
 11
366.0278439311716
 21
213.5223835404186
 31
0.0
  0
LINE
  5
5DF
330
75
100
AcDbEntity
  8
Visible (ISO)
100
AcDbLine
 10
360.6822031526302
 20
212.8818735907622
 30
0.0
 11
361.0278445272181
 21
213.5223835404171
 31
0.0
  0
LINE
  5
5E0
330
75
100
AcDbEntity
  8
Visible (ISO)
100
AcDbLine
 10
359.1092180995733
 20
194.3818737629257
 30
0.0
 11
358.7635767249854
 21
193.7413635306359
 31
0.0
  0
LINE
  5
5E1
330
75
100
AcDbEntity
  8
Visible (ISO)
100
AcDbLine
 10
364.1092180995733
 20
194.3818737629271
 30
0.0
 11
363.7635767249855
 21
193.7413635306374
 31
0.0
  0
LINE
  5
5E2
330
75
100
AcDbEntity
  8
Visible (ISO)
100
AcDbLine
 10
369.1092180995732
 20
194.3818737629286
 30
0.0
 11
368.7635767249854
 21
193.7413635306389
 31
0.0
  0
LINE
  5
5E3
330
75
100
AcDbEntity
  8
Visible (ISO)
100
AcDbLine
 10
356.2635767249787
 20
213.5223837174529
 30
0.0
 11
356.672977262589
 21
212.7638322204004
 31
0.0
  0
LINE
  5
5E4
330
75
100
AcDbEntity
  8
Visible (ISO)
100
AcDbLine
 10
361.2635767249787
 20
213.5223837174544
 30
0.0
 11
361.6729771880832
 21
212.7638322204018
 31
0.0
  0
LINE
  5
5E5
330
75
100
AcDbEntity
  8
Visible (ISO)
100
AcDbLine
 10
366.2635767249787
 20
213.5223837174558
 30
0.0
 11
366.6729771880831
 21
212.7638322204033
 31
0.0
  0
LINE
  5
5E6
330
75
100
AcDbEntity
  8
Visible (ISO)
100
AcDbLine
 10
371.2635767249787
 20
213.5223837174573
 30
0.0
 11
371.6729771880831
 21
212.7638322204048
 31
0.0
  0
LINE
  5
5E7
330
75
100
AcDbEntity
  8
Visible (ISO)
100
AcDbLine
 10
355.7453429488868
 20
212.8818736240437
 30
0.0
 11
355.7453429488924
 21
194.381873624044
 31
0.0
  0
LINE
  5
5E8
330
75
100
AcDbEntity
  8
Visible (ISO)
100
AcDbLine
 10
374.2453429488867
 20
212.8818736240492
 30
0.0
 11
374.2453429488922
 21
194.3818736240496
 31
0.0
  0
LINE
  5
5E9
330
75
100
AcDbEntity
  8
Visible (ISO)
100
AcDbLine
 10
355.7453429488868
 20
212.8818736240437
 30
0.0
 11
355.7457105296126
 21
212.8818736240437
 31
0.0
  0
LINE
  5
5EA
330
75
100
AcDbEntity
  8
Visible (ISO)
100
AcDbLine
 10
356.6092179505921
 20
212.881873624044
 30
0.0
 11
360.7457105296126
 21
212.8818736240452
 31
0.0
  0
LINE
  5
5EB
330
75
100
AcDbEntity
  8
Visible (ISO)
100
AcDbLine
 10
361.6092179505921
 20
212.8818736240455
 30
0.0
 11
365.7457105296126
 21
212.8818736240467
 31
0.0
  0
LINE
  5
5EC
330
75
100
AcDbEntity
  8
Visible (ISO)
100
AcDbLine
 10
366.6092179505921
 20
212.881873624047
 30
0.0
 11
370.7457105296126
 21
212.8818736240482
 31
0.0
  0
LINE
  5
5ED
330
75
100
AcDbEntity
  8
Visible (ISO)
100
AcDbLine
 10
371.6092179505921
 20
212.8818736240484
 30
0.0
 11
374.2453429488868
 21
212.8818736240492
 31
0.0
  0
LINE
  5
5EE
330
75
100
AcDbEntity
  8
Visible (ISO)
100
AcDbLine
 10
355.7453429488924
 20
194.381873624044
 30
0.0
 11
358.1822031086387
 21
194.3818736240448
 31
0.0
  0
LINE
  5
5EF
330
75
100
AcDbEntity
  8
Visible (ISO)
100
AcDbLine
 10
359.0457105296181
 20
194.381873624045
 30
0.0
 11
363.1822031086386
 21
194.3818736240462
 31
0.0
  0
LINE
  5
5F0
330
75
100
AcDbEntity
  8
Visible (ISO)
100
AcDbLine
 10
364.0457105296182
 20
194.3818736240465
 30
0.0
 11
368.1822031086386
 21
194.3818736240477
 31
0.0
  0
LINE
  5
5F1
330
75
100
AcDbEntity
  8
Visible (ISO)
100
AcDbLine
 10
369.0457105296181
 20
194.381873624048
 30
0.0
 11
374.2453429488922
 21
194.3818736240496
 31
0.0
  0
ELLIPSE
  5
5F2
330
75
100
AcDbEntity
  8
Visible (ISO)
100
AcDbEllipse
 10
374.415007586652
 20
203.6318736240494
 30
0.0
 11
-2.270817079708888
 21
-7.499999994358252
 31
0.0
210
0.0
220
0.0
230
1.0
 40
0.0001281123245689
 41
3.141553863722888
 42
4.711965853844845
  0
ELLIPSE
  5
5F3
330
75
100
AcDbEntity
  8
Visible (ISO)
100
AcDbEllipse
 10
374.4150075866519
 20
203.6318736240494
 30
0.0
 11
-2.270817079708887
 21
-7.499999994358254
 31
0.0
210
0.0
220
0.0
230
1.0
 40
0.0001281123245689
 41
4.711965853841247
 42
4.786750774631661
  0
LINE
  5
5F4
330
75
100
AcDbEntity
  8
Visible (ISO)
100
AcDbLine
 10
376.6858247019229
 20
211.1318736014808
 30
0.0
 11
378.54784954416
 21
209.8905238390877
 31
0.0
  0
LINE
  5
5F5
330
75
100
AcDbEntity
  8
Visible (ISO)
100
AcDbLine
 10
374.2453429488922
 20
194.7311054777162
 30
0.0
 11
378.5478495441654
 21
191.8627680535388
 31
0.0
  0
LINE
  5
5F6
330
75
100
AcDbEntity
  8
Visible (ISO)
100
AcDbLine
 10
374.2453429488873
 20
211.1318736240493
 30
0.0
 11
376.6858246273821
 21
211.13187362405
 31
0.0
  0
LINE
  5
5F7
330
75
100
AcDbEntity
  8
Visible Narrow (ISO)
100
AcDbLine
 10
374.2453429488871
 20
211.8618736240494
 30
0.0
 11
371.9229424119276
 21
211.8618736240487
 31
0.0
  0
LINE
  5
5F8
330
75
100
AcDbEntity
  8
Visible Narrow (ISO)
100
AcDbLine
 10
371.1229424119276
 20
211.8618736240484
 30
0.0
 11
366.9229424119276
 21
211.8618736240472
 31
0.0
  0
LINE
  5
5F9
330
75
100
AcDbEntity
  8
Visible Narrow (ISO)
100
AcDbLine
 10
366.1229424119276
 20
211.861873624047
 30
0.0
 11
361.9229424119276
 21
211.8618736240458
 31
0.0
  0
LINE
  5
5FA
330
75
100
AcDbEntity
  8
Visible Narrow (ISO)
100
AcDbLine
 10
361.1229424119276
 20
211.8618736240455
 30
0.0
 11
356.9229424119276
 21
211.8618736240442
 31
0.0
  0
LINE
  5
5FB
330
75
100
AcDbEntity
  8
Visible Narrow (ISO)
100
AcDbLine
 10
356.1229424119276
 20
211.861873624044
 30
0.0
 11
355.7453429488871
 21
211.8618736240439
 31
0.0
  0
LINE
  5
5FC
330
75
100
AcDbEntity
  8
Visible Narrow (ISO)
100
AcDbLine
 10
355.745342948892
 20
195.4018736240439
 30
0.0
 11
357.8684786473032
 21
195.4018736240445
 31
0.0
  0
LINE
  5
5FD
330
75
100
AcDbEntity
  8
Visible Narrow (ISO)
100
AcDbLine
 10
358.6684786473032
 20
195.4018736240447
 30
0.0
 11
362.8684786473032
 21
195.401873624046
 31
0.0
  0
LINE
  5
5FE
330
75
100
AcDbEntity
  8
Visible Narrow (ISO)
100
AcDbLine
 10
363.6684786473032
 20
195.4018736240462
 30
0.0
 11
367.8684786473032
 21
195.4018736240475
 31
0.0
  0
LINE
  5
5FF
330
75
100
AcDbEntity
  8
Visible Narrow (ISO)
100
AcDbLine
 10
368.6684786473032
 20
195.4018736240477
 30
0.0
 11
374.245342948892
 21
195.4018736240494
 31
0.0
  0
ENDSEC
  0
SECTION
  2
OBJECTS
  0
DICTIONARY
  5
C
330
0
100
AcDbDictionary
281
     1
  3
ACAD_COLOR
350
6B
  3
ACAD_GROUP
350
D
  3
ACAD_LAYOUT
350
6A
  3
ACAD_MATERIAL
350
10
  3
ACAD_MLEADERSTYLE
350
6E
  3
ACAD_MLINESTYLE
350
67
  3
ACAD_PLOTSETTINGS
350
69
  3
ACAD_PLOTSTYLENAME
350
E
  3
ACAD_SCALELIST
350
3A
  3
ACAD_TABLESTYLE
350
6C
  3
ACAD_VISUALSTYLE
350
29
  3
ACDB_RECOMPOSE_DATA
350
606
  3
AcDbVariableDictionary
350
600
  0
DICTIONARY
  5
6B
102
{ACAD_REACTORS
330
C
102
}
330
C
100
AcDbDictionary
281
     1
  0
DICTIONARY
  5
D
102
{ACAD_REACTORS
330
C
102
}
330
C
100
AcDbDictionary
281
     1
  0
DICTIONARY
  5
6A
102
{ACAD_REACTORS
330
C
102
}
330
C
100
AcDbDictionary
281
     1
  3
Layout1
350
74
  3
Layout2
350
7C
  3
Model
350
78
  0
DICTIONARY
  5
10
102
{ACAD_REACTORS
330
C
102
}
330
C
100
AcDbDictionary
281
     1
  3
ByBlock
350
19
  3
ByLayer
350
11
  3
Global
350
21
  0
DICTIONARY
  5
6E
102
{ACAD_REACTORS
330
C
102
}
330
C
100
AcDbDictionary
281
     1
  3
Standard
350
6F
  0
DICTIONARY
  5
67
102
{ACAD_REACTORS
330
C
102
}
330
C
100
AcDbDictionary
281
     1
  3
Standard
350
68
  0
DICTIONARY
  5
69
102
{ACAD_REACTORS
330
C
102
}
330
C
100
AcDbDictionary
281
     1
  0
ACDBDICTIONARYWDFLT
  5
E
102
{ACAD_REACTORS
330
C
102
}
330
C
100
AcDbDictionary
281
     1
  3
Normal
350
F
100
AcDbDictionaryWithDefault
340
F
  0
DICTIONARY
  5
3A
102
{ACAD_REACTORS
330
C
102
}
330
C
100
AcDbDictionary
281
     1
  3
A0
350
3B
  3
A1
350
3C
  3
A2
350
3D
  3
A3
350
3E
  3
A4
350
3F
  3
A5
350
40
  3
A6
350
41
  3
A7
350
42
  3
A8
350
43
  3
A9
350
44
  3
B0
350
45
  3
B1
350
46
  3
B2
350
47
  3
B3
350
48
  3
B4
350
49
  3
B5
350
4A
  3
B6
350
4B
  3
B7
350
4C
  3
B8
350
4D
  3
B9
350
4E
  3
C0
350
4F
  3
C1
350
50
  3
C2
350
51
  3
C3
350
52
  3
C4
350
53
  3
C5
350
54
  3
C6
350
55
  3
C7
350
56
  3
C8
350
57
  3
C9
350
58
  3
D0
350
59
  3
D1
350
5A
  3
D2
350
5B
  0
DICTIONARY
  5
6C
102
{ACAD_REACTORS
330
C
102
}
330
C
100
AcDbDictionary
281
     1
  3
Standard
350
6D
  0
DICTIONARY
  5
29
102
{ACAD_REACTORS
330
C
102
}
330
C
100
AcDbDictionary
281
     1
  3
2dWireframe
350
2F
  3
3D Hidden
350
31
  3
3dWireframe
350
30
  3
Basic
350
2E
  3
Brighten
350
35
  3
ColorChange
350
39
  3
Conceptual
350
32
  3
Dim
350
34
  3
Facepattern
350
38
  3
Flat
350
2A
  3
FlatWithEdges
350
2B
  3
Gouraud
350
2C
  3
GouraudWithEdges
350
2D
  3
Linepattern
350
37
  3
Realistic
350
33
  3
Thicken
350
36
  0
XRECORD
  5
606
102
{ACAD_REACTORS
330
C
102
}
330
C
100
AcDbXrecord
280
     1
 90
        1
330
6D
  0
DICTIONARY
  5
600
102
{ACAD_REACTORS
330
C
102
}
330
C
100
AcDbDictionary
281
     1
  3
CANNOSCALE
350
603
  3
CMLEADERSTYLE
350
602
  3
CTABLESTYLE
350
601
  0
LAYOUT
  5
74
102
{ACAD_REACTORS
330
6A
102
}
330
6A
100
AcDbPlotSettings
  1

  2

  4

  6

 40
0.0
 41
0.0
 42
0.0
 43
0.0
 44
0.0
 45
0.0
 46
0.0
 47
0.0
 48
0.0
 49
0.0
140
0.0
141
0.0
142
1.0
143
1.0
 70
   688
 72
     0
 73
     0
 74
     5
  7

 75
    16
147
1.0
 76
     0
 77
     2
 78
   300
148
0.0
149
0.0
100
AcDbLayout
  1
Layout1
 70
     1
 71
     1
 10
0.0
 20
0.0
 11
12.0
 21
9.0
 12
0.0
 22
0.0
 32
0.0
 14
0.0
 24
0.0
 34
0.0
 15
0.0
 25
0.0
 35
0.0
146
0.0
 13
0.0
 23
0.0
 33
0.0
 16
1.0
 26
0.0
 36
0.0
 17
0.0
 27
1.0
 37
0.0
 76
     0
330
71
  0
LAYOUT
  5
7C
102
{ACAD_REACTORS
330
6A
102
}
330
6A
100
AcDbPlotSettings
  1

  2

  4

  6

 40
0.0
 41
0.0
 42
0.0
 43
0.0
 44
0.0
 45
0.0
 46
0.0
 47
0.0
 48
0.0
 49
0.0
140
0.0
141
0.0
142
1.0
143
1.0
 70
   688
 72
     0
 73
     0
 74
     5
  7

 75
    16
147
1.0
 76
     0
 77
     2
 78
   300
148
0.0
149
0.0
100
AcDbLayout
  1
Layout2
 70
     1
 71
     2
 10
0.0
 20
0.0
 11
12.0
 21
9.0
 12
0.0
 22
0.0
 32
0.0
 14
0.0
 24
0.0
 34
0.0
 15
0.0
 25
0.0
 35
0.0
146
0.0
 13
0.0
 23
0.0
 33
0.0
 16
1.0
 26
0.0
 36
0.0
 17
0.0
 27
1.0
 37
0.0
 76
     0
330
79
  0
LAYOUT
  5
78
102
{ACAD_REACTORS
330
6A
102
}
330
6A
100
AcDbPlotSettings
  1

  2

  4

  6

 40
0.0
 41
0.0
 42
0.0
 43
0.0
 44
0.0
 45
0.0
 46
0.0
 47
0.0
 48
0.0
 49
0.0
140
0.0
141
0.0
142
1.0
143
1.0
 70
  1712
 72
     0
 73
     0
 74
     0
  7

 75
     0
147
1.0
 76
     0
 77
     2
 78
   300
148
0.0
149
0.0
100
AcDbLayout
  1
Model
 70
     1
 71
     0
 10
0.0
 20
0.0
 11
12.0
 21
9.0
 12
0.0
 22
0.0
 32
0.0
 14
0.0
 24
0.0
 34
0.0
 15
0.0
 25
0.0
 35
0.0
146
0.0
 13
0.0
 23
0.0
 33
0.0
 16
1.0
 26
0.0
 36
0.0
 17
0.0
 27
1.0
 37
0.0
 76
     0
330
75
  0
MATERIAL
  5
19
102
{ACAD_XDICTIONARY
360
1A
102
}
102
{ACAD_REACTORS
330
10
102
}
330
10
100
AcDbMaterial
  1
ByBlock
 72
     0
 43
0.0208333333333333
 43
0.0
 43
0.0
 43
0.0
 43
0.0
 43
0.0208333333333333
 43
0.0
 43
0.0
 43
0.0
 43
0.0
 43
1.0
 43
0.0
 43
0.0
 43
0.0
 43
0.0
 43
1.0
 77
     0
 47
0.0208333333333333
 47
0.0
 47
0.0
 47
0.0
 47
0.0
 47
0.0208333333333333
 47
0.0
 47
0.0
 47
0.0
 47
0.0
 47
1.0
 47
0.0
 47
0.0
 47
0.0
 47
0.0
 47
1.0
171
     0
 49
0.0208333333333333
 49
0.0
 49
0.0
 49
0.0
 49
0.0
 49
0.0208333333333333
 49
0.0
 49
0.0
 49
0.0
 49
0.0
 49
1.0
 49
0.0
 49
0.0
 49
0.0
 49
0.0
 49
1.0
175
     0
142
0.0208333333333333
142
0.0
142
0.0
142
0.0
142
0.0
142
0.0208333333333333
142
0.0
142
0.0
142
0.0
142
0.0
142
1.0
142
0.0
142
0.0
142
0.0
142
0.0
142
1.0
179
     0
144
0.0208333333333333
144
0.0
144
0.0
144
0.0
144
0.0
144
0.0208333333333333
144
0.0
144
0.0
144
0.0
144
0.0
144
1.0
144
0.0
144
0.0
144
0.0
144
0.0
144
1.0
147
0.0208333333333333
147
0.0
147
0.0
147
0.0
147
0.0
147
0.0208333333333333
147
0.0
147
0.0
147
0.0
147
0.0
147
1.0
147
0.0
147
0.0
147
0.0
147
0.0
147
1.0
  0
MATERIAL
  5
11
102
{ACAD_XDICTIONARY
360
12
102
}
102
{ACAD_REACTORS
330
10
102
}
330
10
100
AcDbMaterial
  1
ByLayer
 72
     0
 43
0.0208333333333333
 43
0.0
 43
0.0
 43
0.0
 43
0.0
 43
0.0208333333333333
 43
0.0
 43
0.0
 43
0.0
 43
0.0
 43
1.0
 43
0.0
 43
0.0
 43
0.0
 43
0.0
 43
1.0
 77
     0
 47
0.0208333333333333
 47
0.0
 47
0.0
 47
0.0
 47
0.0
 47
0.0208333333333333
 47
0.0
 47
0.0
 47
0.0
 47
0.0
 47
1.0
 47
0.0
 47
0.0
 47
0.0
 47
0.0
 47
1.0
171
     0
 49
0.0208333333333333
 49
0.0
 49
0.0
 49
0.0
 49
0.0
 49
0.0208333333333333
 49
0.0
 49
0.0
 49
0.0
 49
0.0
 49
1.0
 49
0.0
 49
0.0
 49
0.0
 49
0.0
 49
1.0
175
     0
142
0.0208333333333333
142
0.0
142
0.0
142
0.0
142
0.0
142
0.0208333333333333
142
0.0
142
0.0
142
0.0
142
0.0
142
1.0
142
0.0
142
0.0
142
0.0
142
0.0
142
1.0
179
     0
144
0.0208333333333333
144
0.0
144
0.0
144
0.0
144
0.0
144
0.0208333333333333
144
0.0
144
0.0
144
0.0
144
0.0
144
1.0
144
0.0
144
0.0
144
0.0
144
0.0
144
1.0
147
0.0208333333333333
147
0.0
147
0.0
147
0.0
147
0.0
147
0.0208333333333333
147
0.0
147
0.0
147
0.0
147
0.0
147
1.0
147
0.0
147
0.0
147
0.0
147
0.0
147
1.0
  0
MATERIAL
  5
21
102
{ACAD_XDICTIONARY
360
22
102
}
102
{ACAD_REACTORS
330
10
102
}
330
10
100
AcDbMaterial
  1
Global
 72
     0
 43
0.0208333333333333
 43
0.0
 43
0.0
 43
0.0
 43
0.0
 43
0.0208333333333333
 43
0.0
 43
0.0
 43
0.0
 43
0.0
 43
1.0
 43
0.0
 43
0.0
 43
0.0
 43
0.0
 43
1.0
 77
     0
 47
0.0208333333333333
 47
0.0
 47
0.0
 47
0.0
 47
0.0
 47
0.0208333333333333
 47
0.0
 47
0.0
 47
0.0
 47
0.0
 47
1.0
 47
0.0
 47
0.0
 47
0.0
 47
0.0
 47
1.0
171
     0
 49
0.0208333333333333
 49
0.0
 49
0.0
 49
0.0
 49
0.0
 49
0.0208333333333333
 49
0.0
 49
0.0
 49
0.0
 49
0.0
 49
1.0
 49
0.0
 49
0.0
 49
0.0
 49
0.0
 49
1.0
175
     0
142
0.0208333333333333
142
0.0
142
0.0
142
0.0
142
0.0
142
0.0208333333333333
142
0.0
142
0.0
142
0.0
142
0.0
142
1.0
142
0.0
142
0.0
142
0.0
142
0.0
142
1.0
179
     0
144
0.0208333333333333
144
0.0
144
0.0
144
0.0
144
0.0
144
0.0208333333333333
144
0.0
144
0.0
144
0.0
144
0.0
144
1.0
144
0.0
144
0.0
144
0.0
144
0.0
144
1.0
147
0.0208333333333333
147
0.0
147
0.0
147
0.0
147
0.0
147
0.0208333333333333
147
0.0
147
0.0
147
0.0
147
0.0
147
1.0
147
0.0
147
0.0
147
0.0
147
0.0
147
1.0
  0
MLEADERSTYLE
  5
6F
102
{ACAD_REACTORS
330
6E
102
}
330
6E
100
AcDbMLeaderStyle
170
     2
171
     1
172
     0
 90
        2
 40
0.0
 41
0.0
173
     1
 91
-1056964608
340
63
 92
       -2
290
     1
 42
0.09
291
     1
 43
0.36
  3
Standard
 44
0.18
300

342
5D
174
     1
178
     6
175
     1
176
     0
 93
-1056964608
 45
0.18
292
     0
297
     0
 46
0.18
 94
-1056964608
 47
1.0
 49
1.0
140
1.0
293
     1
141
0.0
294
     1
177
     0
142
1.0
295
     1
296
     0
143
0.125
1001
ACAD_MLEADERVER
1070
     2
  0
MLINESTYLE
  5
68
102
{ACAD_REACTORS
330
67
102
}
330
67
100
AcDbMlineStyle
  2
STANDARD
 70
     0
  3

 62
   256
 51
90.0
 52
90.0
 71
     2
 49
0.5
 62
   256
  6
BYLAYER
 49
-0.5
 62
   256
  6
BYLAYER
  0
ACDBPLACEHOLDER
  5
F
102
{ACAD_REACTORS
330
E
102
}
330
E
  0
SCALE
  5
3B
102
{ACAD_REACTORS
330
3A
102
}
330
3A
100
AcDbScale
 70
     0
300
1:1
140
1.0
141
1.0
290
     1
  0
SCALE
  5
3C
102
{ACAD_REACTORS
330
3A
102
}
330
3A
100
AcDbScale
 70
     0
300
1:2
140
1.0
141
2.0
290
     0
  0
SCALE
  5
3D
102
{ACAD_REACTORS
330
3A
102
}
330
3A
100
AcDbScale
 70
     0
300
1:4
140
1.0
141
4.0
290
     0
  0
SCALE
  5
3E
102
{ACAD_REACTORS
330
3A
102
}
330
3A
100
AcDbScale
 70
     0
300
1:5
140
1.0
141
5.0
290
     0
  0
SCALE
  5
3F
102
{ACAD_REACTORS
330
3A
102
}
330
3A
100
AcDbScale
 70
     0
300
1:8
140
1.0
141
8.0
290
     0
  0
SCALE
  5
40
102
{ACAD_REACTORS
330
3A
102
}
330
3A
100
AcDbScale
 70
     0
300
1:10
140
1.0
141
10.0
290
     0
  0
SCALE
  5
41
102
{ACAD_REACTORS
330
3A
102
}
330
3A
100
AcDbScale
 70
     0
300
1:16
140
1.0
141
16.0
290
     0
  0
SCALE
  5
42
102
{ACAD_REACTORS
330
3A
102
}
330
3A
100
AcDbScale
 70
     0
300
1:20
140
1.0
141
20.0
290
     0
  0
SCALE
  5
43
102
{ACAD_REACTORS
330
3A
102
}
330
3A
100
AcDbScale
 70
     0
300
1:30
140
1.0
141
30.0
290
     0
  0
SCALE
  5
44
102
{ACAD_REACTORS
330
3A
102
}
330
3A
100
AcDbScale
 70
     0
300
1:40
140
1.0
141
40.0
290
     0
  0
SCALE
  5
45
102
{ACAD_REACTORS
330
3A
102
}
330
3A
100
AcDbScale
 70
     0
300
1:50
140
1.0
141
50.0
290
     0
  0
SCALE
  5
46
102
{ACAD_REACTORS
330
3A
102
}
330
3A
100
AcDbScale
 70
     0
300
1:100
140
1.0
141
100.0
290
     0
  0
SCALE
  5
47
102
{ACAD_REACTORS
330
3A
102
}
330
3A
100
AcDbScale
 70
     0
300
2:1
140
2.0
141
1.0
290
     0
  0
SCALE
  5
48
102
{ACAD_REACTORS
330
3A
102
}
330
3A
100
AcDbScale
 70
     0
300
4:1
140
4.0
141
1.0
290
     0
  0
SCALE
  5
49
102
{ACAD_REACTORS
330
3A
102
}
330
3A
100
AcDbScale
 70
     0
300
8:1
140
8.0
141
1.0
290
     0
  0
SCALE
  5
4A
102
{ACAD_REACTORS
330
3A
102
}
330
3A
100
AcDbScale
 70
     0
300
10:1
140
10.0
141
1.0
290
     0
  0
SCALE
  5
4B
102
{ACAD_REACTORS
330
3A
102
}
330
3A
100
AcDbScale
 70
     0
300
100:1
140
100.0
141
1.0
290
     0
  0
SCALE
  5
4C
102
{ACAD_REACTORS
330
3A
102
}
330
3A
100
AcDbScale
 70
     0
300
1/128" = 1'-0"
140
0.0078125
141
12.0
290
     0
  0
SCALE
  5
4D
102
{ACAD_REACTORS
330
3A
102
}
330
3A
100
AcDbScale
 70
     0
300
1/64" = 1'-0"
140
0.015625
141
12.0
290
     0
  0
SCALE
  5
4E
102
{ACAD_REACTORS
330
3A
102
}
330
3A
100
AcDbScale
 70
     0
300
1/32" = 1'-0"
140
0.03125
141
12.0
290
     0
  0
SCALE
  5
4F
102
{ACAD_REACTORS
330
3A
102
}
330
3A
100
AcDbScale
 70
     0
300
1/16" = 1'-0"
140
0.0625
141
12.0
290
     0
  0
SCALE
  5
50
102
{ACAD_REACTORS
330
3A
102
}
330
3A
100
AcDbScale
 70
     0
300
3/32" = 1'-0"
140
0.09375
141
12.0
290
     0
  0
SCALE
  5
51
102
{ACAD_REACTORS
330
3A
102
}
330
3A
100
AcDbScale
 70
     0
300
1/8" = 1'-0"
140
0.125
141
12.0
290
     0
  0
SCALE
  5
52
102
{ACAD_REACTORS
330
3A
102
}
330
3A
100
AcDbScale
 70
     0
300
3/16" = 1'-0"
140
0.1875
141
12.0
290
     0
  0
SCALE
  5
53
102
{ACAD_REACTORS
330
3A
102
}
330
3A
100
AcDbScale
 70
     0
300
1/4" = 1'-0"
140
0.25
141
12.0
290
     0
  0
SCALE
  5
54
102
{ACAD_REACTORS
330
3A
102
}
330
3A
100
AcDbScale
 70
     0
300
3/8" = 1'-0"
140
0.375
141
12.0
290
     0
  0
SCALE
  5
55
102
{ACAD_REACTORS
330
3A
102
}
330
3A
100
AcDbScale
 70
     0
300
1/2" = 1'-0"
140
0.5
141
12.0
290
     0
  0
SCALE
  5
56
102
{ACAD_REACTORS
330
3A
102
}
330
3A
100
AcDbScale
 70
     0
300
3/4" = 1'-0"
140
0.75
141
12.0
290
     0
  0
SCALE
  5
57
102
{ACAD_REACTORS
330
3A
102
}
330
3A
100
AcDbScale
 70
     0
300
1" = 1'-0"
140
1.0
141
12.0
290
     0
  0
SCALE
  5
58
102
{ACAD_REACTORS
330
3A
102
}
330
3A
100
AcDbScale
 70
     0
300
1-1/2" = 1'-0"
140
1.5
141
12.0
290
     0
  0
SCALE
  5
59
102
{ACAD_REACTORS
330
3A
102
}
330
3A
100
AcDbScale
 70
     0
300
3" = 1'-0"
140
3.0
141
12.0
290
     0
  0
SCALE
  5
5A
102
{ACAD_REACTORS
330
3A
102
}
330
3A
100
AcDbScale
 70
     0
300
6" = 1'-0"
140
6.0
141
12.0
290
     0
  0
SCALE
  5
5B
102
{ACAD_REACTORS
330
3A
102
}
330
3A
100
AcDbScale
 70
     0
300
1'-0" = 1'-0"
140
12.0
141
12.0
290
     0
  0
TABLESTYLE
  5
6D
102
{ACAD_XDICTIONARY
360
604
102
}
102
{ACAD_REACTORS
330
6C
102
}
330
6C
100
AcDbTableStyle
  3
Standard
 70
     0
 71
     0
 40
0.06
 41
0.06
280
     0
281
     0
  7
Standard
140
0.18
170
     2
 62
     0
 63
     7
283
     0
 90
      512
 91
        0
  1

274
    -2
284
     1
 64
     0
275
    -2
285
     1
 65
     0
276
    -2
286
     1
 66
     0
277
    -2
287
     1
 67
     0
278
    -2
288
     1
 68
     0
279
    -2
289
     1
 69
     0
  7
Standard
140
0.25
170
     5
 62
     0
 63
     7
283
     0
 90
      512
 91
        0
  1

274
    -2
284
     1
 64
     0
275
    -2
285
     1
 65
     0
276
    -2
286
     1
 66
     0
277
    -2
287
     1
 67
     0
278
    -2
288
     1
 68
     0
279
    -2
289
     1
 69
     0
  7
Standard
140
0.18
170
     5
 62
     0
 63
     7
283
     0
 90
      512
 91
        0
  1

274
    -2
284
     1
 64
     0
275
    -2
285
     1
 65
     0
276
    -2
286
     1
 66
     0
277
    -2
287
     1
 67
     0
278
    -2
288
     1
 68
     0
279
    -2
289
     1
 69
     0
  0
VISUALSTYLE
  5
2F
102
{ACAD_REACTORS
330
29
102
}
330
29
100
AcDbVisualStyle
  2
2dWireframe
 70
     4
 71
     0
 72
     2
 73
     0
 90
        0
 40
-0.6
 41
-30.0
 62
     5
 63
     7
421
 16777215
 74
     1
 91
        4
 64
     7
 65
   257
 75
     1
175
     1
 42
1.0
 92
        0
 66
   257
 43
1.0
 76
     1
 77
     6
 78
     2
 67
     7
 79
     5
170
     0
171
     0
290
     0
174
     0
 93
        1
 44
0.0
173
     0
291
     0
 45
0.0
  0
VISUALSTYLE
  5
31
102
{ACAD_REACTORS
330
29
102
}
330
29
100
AcDbVisualStyle
  2
3D Hidden
 70
     6
 71
     1
 72
     2
 73
     2
 90
        0
 40
-0.6
 41
-30.0
 62
     5
 63
     7
421
 16777215
 74
     2
 91
        2
 64
     7
 65
   257
 75
     2
175
     1
 42
40.0
 92
        0
 66
   257
 43
1.0
 76
     1
 77
     6
 78
     2
 67
     7
 79
     3
170
     0
171
     0
290
     0
174
     0
 93
        1
 44
0.0
173
     0
291
     0
 45
0.0
  0
VISUALSTYLE
  5
30
102
{ACAD_REACTORS
330
29
102
}
330
29
100
AcDbVisualStyle
  2
3dWireframe
 70
     5
 71
     0
 72
     2
 73
     0
 90
        0
 40
-0.6
 41
-30.0
 62
     5
 63
     7
421
 16777215
 74
     1
 91
        4
 64
     7
 65
   257
 75
     1
175
     1
 42
1.0
 92
        0
 66
   257
 43
1.0
 76
     1
 77
     6
 78
     2
 67
     7
 79
     5
170
     0
171
     0
290
     0
174
     0
 93
        1
 44
0.0
173
     0
291
     0
 45
0.0
  0
VISUALSTYLE
  5
2E
102
{ACAD_REACTORS
330
29
102
}
330
29
100
AcDbVisualStyle
  2
Basic
 70
     7
 71
     1
 72
     0
 73
     1
 90
        0
 40
-0.6
 41
-30.0
 62
     5
 63
     7
421
 16777215
 74
     0
 91
        4
 64
     7
 65
   257
 75
     1
175
     1
 42
1.0
 92
        8
 66
     7
 43
1.0
 76
     1
 77
     6
 78
     2
 67
     7
 79
     5
170
     0
171
     0
290
     0
174
     0
 93
        1
 44
0.0
173
     0
291
     1
 45
0.0
  0
VISUALSTYLE
  5
35
102
{ACAD_REACTORS
330
29
102
}
330
29
100
AcDbVisualStyle
  2
Brighten
 70
    12
 71
     2
 72
     2
 73
     0
 90
        0
 40
-0.6
 41
-30.0
 62
     5
 63
     7
421
 16777215
 74
     1
 91
        4
 64
     7
 65
   257
 75
     1
175
     1
 42
1.0
 92
        8
 66
     7
 43
1.0
 76
     1
 77
     6
 78
     2
 67
     7
 79
     5
170
     0
171
     0
290
     0
174
     0
 93
        1
 44
50.0
173
     0
291
     1
 45
0.0
  0
VISUALSTYLE
  5
39
102
{ACAD_REACTORS
330
29
102
}
330
29
100
AcDbVisualStyle
  2
ColorChange
 70
    16
 71
     2
 72
     2
 73
     3
 90
        0
 40
-0.6
 41
-30.0
 62
     5
 63
     8
421
  8421504
 74
     1
 91
        4
 64
     7
 65
   257
 75
     1
175
     1
 42
1.0
 92
        8
 66
     8
424
  8421504
 43
1.0
 76
     1
 77
     6
 78
     2
 67
     7
 79
     5
170
     0
171
     0
290
     0
174
     0
 93
        1
 44
0.0
173
     0
291
     1
 45
0.0
  0
VISUALSTYLE
  5
32
102
{ACAD_REACTORS
330
29
102
}
330
29
100
AcDbVisualStyle
  2
Conceptual
 70
     9
 71
     3
 72
     2
 73
     0
 90
        0
 40
-0.6
 41
-30.0
 62
     5
 63
     7
421
 16777215
 74
     2
 91
        2
 64
     7
 65
   257
 75
     1
175
     1
 42
40.0
 92
        8
 66
     7
 43
1.0
 76
     1
 77
     6
 78
     2
 67
     7
 79
     3
170
     0
171
     0
290
     0
174
     0
 93
        1
 44
0.0
173
     0
291
     0
 45
0.0
  0
VISUALSTYLE
  5
34
102
{ACAD_REACTORS
330
29
102
}
330
29
100
AcDbVisualStyle
  2
Dim
 70
    11
 71
     2
 72
     2
 73
     0
 90
        0
 40
-0.6
 41
-30.0
 62
     5
 63
     7
421
 16777215
 74
     1
 91
        4
 64
     7
 65
   257
 75
     1
175
     1
 42
1.0
 92
        8
 66
     7
 43
1.0
 76
     1
 77
     6
 78
     2
 67
     7
 79
     5
170
     0
171
     0
290
     0
174
     0
 93
        1
 44
-50.0
173
     0
291
     1
 45
0.0
  0
VISUALSTYLE
  5
38
102
{ACAD_REACTORS
330
29
102
}
330
29
100
AcDbVisualStyle
  2
Facepattern
 70
    15
 71
     2
 72
     2
 73
     0
 90
        0
 40
-0.6
 41
-30.0
 62
     5
 63
     7
421
 16777215
 74
     1
 91
        4
 64
     7
 65
   257
 75
     1
175
     1
 42
1.0
 92
        8
 66
     7
 43
1.0
 76
     1
 77
     6
 78
     2
 67
     7
 79
     5
170
     0
171
     0
290
     0
174
     0
 93
        1
 44
0.0
173
     0
291
     1
 45
0.0
  0
VISUALSTYLE
  5
2A
102
{ACAD_REACTORS
330
29
102
}
330
29
100
AcDbVisualStyle
  2
Flat
 70
     0
 71
     2
 72
     1
 73
     1
 90
        2
 40
-0.6
 41
30.0
 62
     5
 63
     7
421
 16777215
 74
     0
 91
        4
 64
     7
 65
   257
 75
     1
175
     1
 42
1.0
 92
        8
 66
     7
 43
1.0
 76
     1
 77
     6
 78
     2
 67
     7
 79
     5
170
     0
171
     0
290
     0
174
     0
 93
       13
 44
0.0
173
     0
291
     1
 45
0.0
  0
VISUALSTYLE
  5
2B
102
{ACAD_REACTORS
330
29
102
}
330
29
100
AcDbVisualStyle
  2
FlatWithEdges
 70
     1
 71
     2
 72
     1
 73
     1
 90
        2
 40
-0.6
 41
30.0
 62
     5
 63
     7
421
 16777215
 74
     1
 91
        4
 64
     7
 65
   257
 75
     1
175
     1
 42
1.0
 92
        0
 66
   257
 43
1.0
 76
     1
 77
     6
 78
     2
 67
     7
 79
     5
170
     0
171
     0
290
     0
174
     0
 93
       13
 44
0.0
173
     0
291
     1
 45
0.0
  0
VISUALSTYLE
  5
2C
102
{ACAD_REACTORS
330
29
102
}
330
29
100
AcDbVisualStyle
  2
Gouraud
 70
     2
 71
     2
 72
     2
 73
     1
 90
        2
 40
-0.6
 41
30.0
 62
     5
 63
     7
421
 16777215
 74
     0
 91
        4
 64
     7
 65
   257
 75
     1
175
     1
 42
1.0
 92
        0
 66
     7
 43
1.0
 76
     1
 77
     6
 78
     2
 67
     7
 79
     5
170
     0
171
     0
290
     0
174
     0
 93
       13
 44
0.0
173
     0
291
     1
 45
0.0
  0
VISUALSTYLE
  5
2D
102
{ACAD_REACTORS
330
29
102
}
330
29
100
AcDbVisualStyle
  2
GouraudWithEdges
 70
     3
 71
     2
 72
     2
 73
     1
 90
        2
 40
-0.6
 41
30.0
 62
     5
 63
     7
421
 16777215
 74
     1
 91
        4
 64
     7
 65
   257
 75
     1
175
     1
 42
1.0
 92
        0
 66
   257
 43
1.0
 76
     1
 77
     6
 78
     2
 67
     7
 79
     5
170
     0
171
     0
290
     0
174
     0
 93
       13
 44
0.0
173
     0
291
     1
 45
0.0
  0
VISUALSTYLE
  5
37
102
{ACAD_REACTORS
330
29
102
}
330
29
100
AcDbVisualStyle
  2
Linepattern
 70
    14
 71
     2
 72
     2
 73
     0
 90
        0
 40
-0.6
 41
-30.0
 62
     5
 63
     7
421
 16777215
 74
     1
 91
        4
 64
     7
 65
   257
 75
     7
175
     7
 42
1.0
 92
        8
 66
     7
 43
1.0
 76
     1
 77
     6
 78
     2
 67
     7
 79
     5
170
     0
171
     0
290
     0
174
     0
 93
        1
 44
0.0
173
     0
291
     1
 45
0.0
  0
VISUALSTYLE
  5
33
102
{ACAD_REACTORS
330
29
102
}
330
29
100
AcDbVisualStyle
  2
Realistic
 70
     8
 71
     2
 72
     2
 73
     0
 90
        0
 40
-0.6
 41
-30.0
 62
     5
 63
     7
421
 16777215
 74
     1
 91
        0
 64
     7
 65
   257
 75
     1
175
     1
 42
1.0
 92
        8
 66
     8
424
  7895160
 43
1.0
 76
     1
 77
     6
 78
     2
 67
     7
 79
     5
170
     0
171
     0
290
     0
174
     0
 93
       13
 44
0.0
173
     0
291
     0
 45
0.0
  0
VISUALSTYLE
  5
36
102
{ACAD_REACTORS
330
29
102
}
330
29
100
AcDbVisualStyle
  2
Thicken
 70
    13
 71
     2
 72
     2
 73
     0
 90
        0
 40
-0.6
 41
-30.0
 62
     5
 63
     7
421
 16777215
 74
     1
 91
        4
 64
     7
 65
   257
 75
     1
175
     1
 42
1.0
 92
       12
 66
     7
 43
1.0
 76
     1
 77
     6
 78
     2
 67
     7
 79
     5
170
     0
171
     0
290
     0
174
     0
 93
        1
 44
0.0
173
     0
291
     1
 45
0.0
  0
DICTIONARYVAR
  5
603
102
{ACAD_REACTORS
330
600
102
}
330
600
100
DictionaryVariables
280
     0
  1
1:1
  0
DICTIONARYVAR
  5
602
102
{ACAD_REACTORS
330
600
102
}
330
600
100
DictionaryVariables
280
     0
  1
STANDARD
  0
DICTIONARYVAR
  5
601
102
{ACAD_REACTORS
330
600
102
}
330
600
100
DictionaryVariables
280
     0
  1
STANDARD
  0
DICTIONARY
  5
1A
330
19
100
AcDbDictionary
280
     1
281
     1
  3
BUMPTILE
360
1C
  3
DIFFUSETILE
360
1B
  3
OPACITYTILE
360
1F
  3
REFLECTIONTILE
360
1E
  3
REFRACTIONTILE
360
20
  3
SPECULARTILE
360
1D
  0
DICTIONARY
  5
12
330
11
100
AcDbDictionary
280
     1
281
     1
  3
BUMPTILE
360
14
  3
DIFFUSETILE
360
13
  3
OPACITYTILE
360
17
  3
REFLECTIONTILE
360
16
  3
REFRACTIONTILE
360
18
  3
SPECULARTILE
360
15
  0
DICTIONARY
  5
22
330
21
100
AcDbDictionary
280
     1
281
     1
  3
BUMPTILE
360
24
  3
DIFFUSETILE
360
23
  3
OPACITYTILE
360
27
  3
REFLECTIONTILE
360
26
  3
REFRACTIONTILE
360
28
  3
SPECULARTILE
360
25
  0
DICTIONARY
  5
604
330
6D
100
AcDbDictionary
280
     1
281
     1
  3
ACAD_ROUNDTRIP_2008_TABLESTYLE_CELLSTYLEMAP
360
605
  0
XRECORD
  5
1C
102
{ACAD_REACTORS
330
1A
102
}
330
1A
100
AcDbXrecord
280
     1
270
     1
271
     1
  0
XRECORD
  5
1B
102
{ACAD_REACTORS
330
1A
102
}
330
1A
100
AcDbXrecord
280
     1
270
     1
271
     1
  0
XRECORD
  5
1F
102
{ACAD_REACTORS
330
1A
102
}
330
1A
100
AcDbXrecord
280
     1
270
     1
271
     1
  0
XRECORD
  5
1E
102
{ACAD_REACTORS
330
1A
102
}
330
1A
100
AcDbXrecord
280
     1
270
     1
271
     1
  0
XRECORD
  5
20
102
{ACAD_REACTORS
330
1A
102
}
330
1A
100
AcDbXrecord
280
     1
270
     1
271
     1
  0
XRECORD
  5
1D
102
{ACAD_REACTORS
330
1A
102
}
330
1A
100
AcDbXrecord
280
     1
270
     1
271
     1
  0
XRECORD
  5
14
102
{ACAD_REACTORS
330
12
102
}
330
12
100
AcDbXrecord
280
     1
270
     1
271
     1
  0
XRECORD
  5
13
102
{ACAD_REACTORS
330
12
102
}
330
12
100
AcDbXrecord
280
     1
270
     1
271
     1
  0
XRECORD
  5
17
102
{ACAD_REACTORS
330
12
102
}
330
12
100
AcDbXrecord
280
     1
270
     1
271
     1
  0
XRECORD
  5
16
102
{ACAD_REACTORS
330
12
102
}
330
12
100
AcDbXrecord
280
     1
270
     1
271
     1
  0
XRECORD
  5
18
102
{ACAD_REACTORS
330
12
102
}
330
12
100
AcDbXrecord
280
     1
270
     1
271
     1
  0
XRECORD
  5
15
102
{ACAD_REACTORS
330
12
102
}
330
12
100
AcDbXrecord
280
     1
270
     1
271
     1
  0
XRECORD
  5
24
102
{ACAD_REACTORS
330
22
102
}
330
22
100
AcDbXrecord
280
     1
270
     1
271
     1
  0
XRECORD
  5
23
102
{ACAD_REACTORS
330
22
102
}
330
22
100
AcDbXrecord
280
     1
270
     1
271
     1
  0
XRECORD
  5
27
102
{ACAD_REACTORS
330
22
102
}
330
22
100
AcDbXrecord
280
     1
270
     1
271
     1
  0
XRECORD
  5
26
102
{ACAD_REACTORS
330
22
102
}
330
22
100
AcDbXrecord
280
     1
270
     1
271
     1
  0
XRECORD
  5
28
102
{ACAD_REACTORS
330
22
102
}
330
22
100
AcDbXrecord
280
     1
270
     1
271
     1
  0
XRECORD
  5
25
102
{ACAD_REACTORS
330
22
102
}
330
22
100
AcDbXrecord
280
     1
270
     1
271
     1
  0
CELLSTYLEMAP
  5
605
102
{ACAD_REACTORS
330
604
102
}
330
604
100
AcDbCellStyleMap
 90
        3
300
CELLSTYLE
  1
TABLEFORMAT_BEGIN
 90
        5
170
     1
 91
        0
 92
    32768
 62
   257
 93
        1
300
CONTENTFORMAT
  1
CONTENTFORMAT_BEGIN
 90
        0
 91
        0
 92
      512
 93
        0
300

 40
0.0
140
1.0
 94
        5
 62
     0
340
5D
144
0.25
309
CONTENTFORMAT_END
171
     0
 94
        0
309
TABLEFORMAT_END
  1
CELLSTYLE_BEGIN
 90
        1
 91
        1
300
_TITLE
309
CELLSTYLE_END
300
CELLSTYLE
  1
TABLEFORMAT_BEGIN
 90
        5
170
     1
 91
        0
 92
        0
 62
   257
 93
        1
300
CONTENTFORMAT
  1
CONTENTFORMAT_BEGIN
 90
        0
 91
        0
 92
      512
 93
        0
300

 40
0.0
140
1.0
 94
        5
 62
     0
340
5D
144
0.18
309
CONTENTFORMAT_END
171
     0
 94
        0
309
TABLEFORMAT_END
  1
CELLSTYLE_BEGIN
 90
        2
 91
        1
300
_HEADER
309
CELLSTYLE_END
300
CELLSTYLE
  1
TABLEFORMAT_BEGIN
 90
        5
170
     1
 91
        0
 92
        0
 62
   257
 93
        1
300
CONTENTFORMAT
  1
CONTENTFORMAT_BEGIN
 90
        0
 91
        0
 92
      512
 93
        0
300

 40
0.0
140
1.0
 94
        2
 62
     0
340
5D
144
0.18
309
CONTENTFORMAT_END
171
     0
 94
        0
309
TABLEFORMAT_END
  1
CELLSTYLE_BEGIN
 90
        3
 91
        2
300
_DATA
309
CELLSTYLE_END
  0
ENDSEC
  0
EOF
