  0
SECTION
  2
HEADER
  9
$ACADVER
  1
AC1015
  9
$ACADMAINTVER
 70
     6
  9
$DWGCODEPAGE
  3
ANSI_1252
  9
$INSBASE
 10
0.0
 20
0.0
 30
0.0
  9
$EXTMIN
 10
0.0
 20
0.0
 30
0.0
  9
$EXTMAX
 10
2376.0
 20
1680.0
 30
0.0
  9
$LIMMIN
 10
0.0
 20
0.0
  9
$LIMMAX
 10
2376.0
 20
1680.0
  9
$ORTHOMODE
 70
     0
  9
$REGENMODE
 70
     1
  9
$FILLMODE
 70
     1
  9
$QTEXTMODE
 70
     0
  9
$MIRRTEXT
 70
     1
  9
$LTSCALE
 40
1.0
  9
$ATTMODE
 70
     1
  9
$TEXTSIZE
 40
2.5
  9
$TRACEWID
 40
1.0
  9
$TEXTSTYLE
  7
Standard
  9
$CLAYER
  8
0
  9
$CELTYPE
  6
ByLayer
  9
$CECOLOR
 62
   256
  9
$CELTSCALE
 40
1.0
  9
$DISPSILH
 70
     0
  9
$DIMSCALE
 40
1.0
  9
$DIMASZ
 40
2.5
  9
$DIMEXO
 40
0.625
  9
$DIMDLI
 40
3.75
  9
$DIMRND
 40
0.0
  9
$DIMDLE
 40
0.0
  9
$DIMEXE
 40
1.25
  9
$DIMTP
 40
0.0
  9
$DIMTM
 40
0.0
  9
$DIMTXT
 40
2.5
  9
$DIMCEN
 40
2.5
  9
$DIMTSZ
 40
0.0
  9
$DIMTOL
 70
     0
  9
$DIMLIM
 70
     0
  9
$DIMTIH
 70
     0
  9
$DIMTOH
 70
     0
  9
$DIMSE1
 70
     0
  9
$DIMSE2
 70
     0
  9
$DIMTAD
 70
     1
  9
$DIMZIN
 70
     8
  9
$DIMBLK
  1

  9
$DIMASO
 70
     1
  9
$DIMSHO
 70
     1
  9
$DIMPOST
  1

  9
$DIMAPOST
  1

  9
$DIMALT
 70
     0
  9
$DIMALTD
 70
     3
  9
$DIMALTF
 40
0.0393700787
  9
$DIMLFAC
 40
1.0
  9
$DIMTOFL
 70
     1
  9
$DIMTVP
 40
0.0
  9
$DIMTIX
 70
     0
  9
$DIMSOXD
 70
     0
  9
$DIMSAH
 70
     0
  9
$DIMBLK1
  1

  9
$DIMBLK2
  1

  9
$DIMSTYLE
  2
ISO-25
  9
$DIMCLRD
 70
     0
  9
$DIMCLRE
 70
     0
  9
$DIMCLRT
 70
     0
  9
$DIMTFAC
 40
1.0
  9
$DIMGAP
 40
0.625
  9
$DIMJUST
 70
     0
  9
$DIMSD1
 70
     0
  9
$DIMSD2
 70
     0
  9
$DIMTOLJ
 70
     0
  9
$DIMTZIN
 70
     8
  9
$DIMALTZ
 70
     0
  9
$DIMALTTZ
 70
     0
  9
$DIMUPT
 70
     0
  9
$DIMDEC
 70
     2
  9
$DIMTDEC
 70
     2
  9
$DIMALTU
 70
     2
  9
$DIMALTTD
 70
     3
  9
$DIMTXSTY
  7
Standard
  9
$DIMAUNIT
 70
     0
  9
$DIMADEC
 70
     0
  9
$DIMALTRND
 40
0.0
  9
$DIMAZIN
 70
     0
  9
$DIMDSEP
 70
    44
  9
$DIMATFIT
 70
     3
  9
$DIMFRAC
 70
     0
  9
$DIMLDRBLK
  1

  9
$DIMLUNIT
 70
     2
  9
$DIMLWD
 70
    -2
  9
$DIMLWE
 70
    -2
  9
$DIMTMOVE
 70
     0
  9
$LUNITS
 70
     2
  9
$LUPREC
 70
     4
  9
$SKETCHINC
 40
1.0
  9
$FILLETRAD
 40
10.0
  9
$AUNITS
 70
     0
  9
$AUPREC
 70
     0
  9
$MENU
  1
.
  9
$ELEVATION
 40
0.0
  9
$PELEVATION
 40
0.0
  9
$THICKNESS
 40
0.0
  9
$LIMCHECK
 70
     0
  9
$CHAMFERA
 40
10.0
  9
$CHAMFERB
 40
10.0
  9
$CHAMFERC
 40
20.0
  9
$CHAMFERD
 40
0.0
  9
$SKPOLY
 70
     0
  9
$TDCREATE
 40
2454511.413398796
  9
$TDUCREATE
 40
2454511.37173213
  9
$TDUPDATE
 40
2454511.413398808
  9
$TDUUPDATE
 40
2454511.371732141
  9
$TDINDWG
 40
0.0000000116
  9
$TDUSRTIMER
 40
0.0000000116
  9
$USRTIMER
 70
     1
  9
$ANGBASE
 50
0.0
  9
$ANGDIR
 70
     0
  9
$PDMODE
 70
     0
  9
$PDSIZE
 40
0.0
  9
$PLINEWID
 40
0.0
  9
$SPLFRAME
 70
     0
  9
$SPLINETYPE
 70
     6
  9
$SPLINESEGS
 70
     8
  9
$HANDSEED
  5
53D
  9
$SURFTAB1
 70
     6
  9
$SURFTAB2
 70
     6
  9
$SURFTYPE
 70
     6
  9
$SURFU
 70
     6
  9
$SURFV
 70
     6
  9
$UCSBASE
  2

  9
$UCSNAME
  2

  9
$UCSORG
 10
0.0
 20
0.0
 30
0.0
  9
$UCSXDIR
 10
1.0
 20
0.0
 30
0.0
  9
$UCSYDIR
 10
0.0
 20
1.0
 30
0.0
  9
$UCSORTHOREF
  2

  9
$UCSORTHOVIEW
 70
     0
  9
$UCSORGTOP
 10
0.0
 20
0.0
 30
0.0
  9
$UCSORGBOTTOM
 10
0.0
 20
0.0
 30
0.0
  9
$UCSORGLEFT
 10
0.0
 20
0.0
 30
0.0
  9
$UCSORGRIGHT
 10
0.0
 20
0.0
 30
0.0
  9
$UCSORGFRONT
 10
0.0
 20
0.0
 30
0.0
  9
$UCSORGBACK
 10
0.0
 20
0.0
 30
0.0
  9
$PUCSBASE
  2

  9
$PUCSNAME
  2

  9
$PUCSORG
 10
0.0
 20
0.0
 30
0.0
  9
$PUCSXDIR
 10
1.0
 20
0.0
 30
0.0
  9
$PUCSYDIR
 10
0.0
 20
1.0
 30
0.0
  9
$PUCSORTHOREF
  2

  9
$PUCSORTHOVIEW
 70
     0
  9
$PUCSORGTOP
 10
0.0
 20
0.0
 30
0.0
  9
$PUCSORGBOTTOM
 10
0.0
 20
0.0
 30
0.0
  9
$PUCSORGLEFT
 10
0.0
 20
0.0
 30
0.0
  9
$PUCSORGRIGHT
 10
0.0
 20
0.0
 30
0.0
  9
$PUCSORGFRONT
 10
0.0
 20
0.0
 30
0.0
  9
$PUCSORGBACK
 10
0.0
 20
0.0
 30
0.0
  9
$USERI1
 70
     0
  9
$USERI2
 70
     0
  9
$USERI3
 70
     0
  9
$USERI4
 70
     0
  9
$USERI5
 70
     0
  9
$USERR1
 40
0.0
  9
$USERR2
 40
0.0
  9
$USERR3
 40
0.0
  9
$USERR4
 40
0.0
  9
$USERR5
 40
0.0
  9
$WORLDVIEW
 70
     1
  9
$SHADEDGE
 70
     3
  9
$SHADEDIF
 70
    70
  9
$TILEMODE
 70
     1
  9
$MAXACTVP
 70
    64
  9
$PINSBASE
 10
0.0
 20
0.0
 30
0.0
  9
$PLIMCHECK
 70
     0
  9
$PEXTMIN
 10
0.0
 20
0.0
 30
0.0
  9
$PEXTMAX
 10
2376.0
 20
1680.0
 30
0.0
  9
$PLIMMIN
 10
0.0
 20
0.0
  9
$PLIMMAX
 10
2376.0
 20
1680.0
  9
$UNITMODE
 70
     0
  9
$VISRETAIN
 70
     1
  9
$PLINEGEN
 70
     0
  9
$PSLTSCALE
 70
     1
  9
$TREEDEPTH
 70
  3020
  9
$CMLSTYLE
  2
Standard
  9
$CMLJUST
 70
     0
  9
$CMLSCALE
 40
20.0
  9
$PROXYGRAPHICS
 70
     1
  9
$MEASUREMENT
 70
     1
  9
$CELWEIGHT
370
    -1
  9
$ENDCAPS
280
     0
  9
$JOINSTYLE
280
     0
  9
$LWDISPLAY
290
     0
  9
$INSUNITS
 70
     4
  9
$HYPERLINKBASE
  1

  9
$STYLESHEET
  1

  9
$XEDIT
290
     1
  9
$CEPSNTYPE
380
     0
  9
$PSTYLEMODE
290
     1
  9
$FINGERPRINTGUID
  2
{47A822B8-30A2-465C-98B6-CAF114E92723}
  9
$VERSIONGUID
  2
{FAEB1C32-E019-11D5-929B-00C0DF256EC4}
  9
$EXTNAMES
290
     1
  9
$PSVPSCALE
 40
0.0
  9
$OLESTARTUP
290
     0
  0
ENDSEC
  0
SECTION
  2
CLASSES
  0
CLASS
  1
ACDBDICTIONARYWDFLT
  2
AcDbDictionaryWithDefault
  3
ObjectDBX Classes
 90
        0
280
     0
281
     0
  0
CLASS
  1
RASTERVARIABLES
  2
AcDbRasterVariables
  3
ISM
 90
        0
280
     0
281
     0
  0
CLASS
  1
IMAGEDEF
  2
AcDbRasterImageDef
  3
ISM
 90
        0
280
     0
281
     0
  0
CLASS
  1
IMAGE
  2
AcDbRasterImage
  3
ISM
 90
      127
280
     0
281
     1
  0
CLASS
  1
IMAGEDEF_REACTOR
  2
AcDbRasterImageDefReactor
  3
ISM
 90
        1
280
     0
281
     0
  0
CLASS
  1
ACDBPLACEHOLDER
  2
AcDbPlaceHolder
  3
ObjectDBX Classes
 90
        0
280
     0
281
     0
  0
CLASS
  1
LAYOUT
  2
AcDbLayout
  3
ObjectDBX Classes
 90
        0
280
     0
281
     0
  0
ENDSEC
  0
SECTION
  2
TABLES
  0
TABLE
  2
VPORT
  5
8
330
0
100
AcDbSymbolTable
 70
     1
  0
VPORT
  5
29
330
8
100
AcDbSymbolTableRecord
100
AcDbViewportTableRecord
  2
*Active
 70
     0
 10
0.0
 20
0.0
 11
1.0
 21
1.0
 12
344.1869158879
 22
148.5
 13
0.0
 23
0.0
 14
10.0
 24
10.0
 15
10.0
 25
10.0
 16
0.0
 26
0.0
 36
1.0
 17
0.0
 27
0.0
 37
0.0
 40
297.0
 41
1.9729729729
 42
50.0
 43
0.0
 44
0.0
 50
0.0
 51
0.0
 71
     0
 72
   100
 73
     1
 74
     3
 75
     0
 76
     0
 77
     0
 78
     0
281
     0
 65
     1
110
0.0
120
0.0
130
0.0
111
1.0
121
0.0
131
0.0
112
0.0
122
1.0
132
0.0
 79
     0
146
0.0
  0
ENDTAB
  0
TABLE
  2
LTYPE
  5
5
330
0
100
AcDbSymbolTable
 70
     2
  0
LTYPE
  5
14
330
5
100
AcDbSymbolTableRecord
100
AcDbLinetypeTableRecord
  2
ByBlock
 70
     0
  3

 72
    65
 73
     0
 40
0.0
  0
LTYPE
  5
15
330
5
100
AcDbSymbolTableRecord
100
AcDbLinetypeTableRecord
  2
ByLayer
 70
     0
  3

 72
    65
 73
     0
 40
0.0
  0
LTYPE
  5
16
330
5
100
AcDbSymbolTableRecord
100
AcDbLinetypeTableRecord
  2
Continuous
 70
     0
  3
Solid line
 72
    65
 73
     0
 40
0.0
  0
LTYPE
  5
30
330
5
100
AcDbSymbolTableRecord
100
AcDbLinetypeTableRecord
  2
CENTER2
 70
     0
  3
Center (.5x) ___ _ ___ _ ___ _ ___ _ ___ _ ___
 72
    65
 73
     4
 40
28.575
 49
19.05
 74
     4
 75
     0
340
0
 46
0.0
 50
0.0
 44
0.0
 45
0.0
 49
-3.175
 74
     4
 75
     0
340
0
 46
0.0
 50
0.0
 44
0.0
 45
0.0
 49
3.175
 74
     4
 75
     0
340
0
 46
0.0
 50
0.0
 44
0.0
 45
0.0
 49
-3.175
 74
     4
 75
     0
340
0
 46
0.0
 50
0.0
 44
0.0
 45
0.0
  0
ENDTAB
  0
TABLE
  2
LAYER
  5
2
330
0
100
AcDbSymbolTable
 70
     5
  0
LAYER
  5
10
330
2
100
AcDbSymbolTableRecord
100
AcDbLayerTableRecord
  2
0
 70
     0
 62
     7
  6
Continuous
370
    -3
390
F
  0
LAYER
  5
2C
330
2
100
AcDbSymbolTableRecord
100
AcDbLayerTableRecord
  2
Default
 70
     0
 62
     7
  6
Continuous
370
    -3
390
F
  0
LAYER
  5
4D
330
2
100
AcDbSymbolTableRecord
100
AcDbLayerTableRecord
  2
MIKY
 70
     0
 62
     7
  6
Continuous
370
    -3
390
F
  0
LAYER
  5
4CB
330
2
100
AcDbSymbolTableRecord
100
AcDbLayerTableRecord
  2
1
 70
     0
 62
     7
  6
Continuous
370
    -3
390
F
  0
LAYER
  5
4D7
330
2
100
AcDbSymbolTableRecord
100
AcDbLayerTableRecord
  2
Predefinito
 70
     0
 62
     7
  6
Continuous
370
    -3
390
F
  0
ENDTAB
  0
TABLE
  2
STYLE
  5
3
330
0
100
AcDbSymbolTable
 70
     6
  0
STYLE
  5
11
330
3
100
AcDbSymbolTableRecord
100
AcDbTextStyleTableRecord
  2
Standard
 70
     0
 40
0.0
 41
1.0
 50
0.0
 71
     0
 42
2.5
  3
txt
  4

  0
STYLE
  5
2A
330
3
100
AcDbSymbolTableRecord
100
AcDbTextStyleTableRecord
  2
SEACAD_seiso_ttf
 70
     0
 40
0.0
 41
1.0
 50
0.0
 71
     0
 42
0.2
  3
seiso.ttf
  4

  0
STYLE
  5
AE
330
3
100
AcDbSymbolTableRecord
100
AcDbTextStyleTableRecord
  2
SEACAD_arial_ttf
 70
     0
 40
0.0
 41
1.0
 50
0.0
 71
     0
 42
0.2
  3
arial.ttf
  4

  0
STYLE
  5
3C9
330
3
100
AcDbSymbolTableRecord
100
AcDbTextStyleTableRecord
  2
SEACAD_semeca1_ttf
 70
     0
 40
0.0
 41
1.0
 50
0.0
 71
     0
 42
0.2
  3
semeca1.ttf
  4

  0
STYLE
  5
4D5
330
3
100
AcDbSymbolTableRecord
100
AcDbTextStyleTableRecord
  2
SEACAD_seiso_ttfBI
 70
     0
 40
0.0
 41
1.0
 50
0.0
 71
     0
 42
0.2
  3
seiso.ttf
  4

  0
STYLE
  5
4E1
330
3
100
AcDbSymbolTableRecord
100
AcDbTextStyleTableRecord
  2
SEACAD_seiso_ttfB
 70
     0
 40
0.0
 41
1.0
 50
0.0
 71
     0
 42
0.2
  3
seiso.ttf
  4

  0
ENDTAB
  0
TABLE
  2
VIEW
  5
6
330
0
100
AcDbSymbolTable
 70
     0
  0
ENDTAB
  0
TABLE
  2
UCS
  5
7
330
0
100
AcDbSymbolTable
 70
     0
  0
ENDTAB
  0
TABLE
  2
APPID
  5
9
330
0
100
AcDbSymbolTable
 70
     1
  0
APPID
  5
12
330
9
100
AcDbSymbolTableRecord
100
AcDbRegAppTableRecord
  2
ACAD
 70
     0
  0
ENDTAB
  0
TABLE
  2
DIMSTYLE
  5
A
330
0
100
AcDbSymbolTable
 70
     1
100
AcDbDimStyleTable
  0
DIMSTYLE
105
27
330
A
100
AcDbSymbolTableRecord
100
AcDbDimStyleTableRecord
  2
ISO-25
 70
     0
 41
2.5
 42
0.625
 43
3.75
 44
1.25
 73
     0
 74
     0
 77
     1
 78
     8
140
2.5
141
2.5
143
0.0393700787
147
0.625
171
     3
172
     1
271
     2
272
     2
274
     3
278
    44
283
     0
284
     8
340
11
  0
ENDTAB
  0
TABLE
  2
BLOCK_RECORD
  5
1
330
0
100
AcDbSymbolTable
 70
    50
  0
BLOCK_RECORD
  5
1F
330
1
100
AcDbSymbolTableRecord
100
AcDbBlockTableRecord
  2
*Model_Space
340
22
  0
BLOCK_RECORD
  5
1B
330
1
100
AcDbSymbolTableRecord
100
AcDbBlockTableRecord
  2
*Paper_Space
340
1E
  0
BLOCK_RECORD
  5
2E
330
1
100
AcDbSymbolTableRecord
100
AcDbBlockTableRecord
  2
SEANNOT_GROUP
340
0
102
{BLKREFS
331
2F
102
}
1001
ACAD
1000
DesignCenter Data
1002
{
1070
     1
1070
     0
1002
}
  0
BLOCK_RECORD
  5
34
330
1
100
AcDbSymbolTableRecord
100
AcDbBlockTableRecord
  2
SEANNOT_GROUP1
340
0
102
{BLKREFS
331
35
102
}
1001
ACAD
1000
DesignCenter Data
1002
{
1070
     1
1070
     0
1002
}
  0
BLOCK_RECORD
  5
39
330
1
100
AcDbSymbolTableRecord
100
AcDbBlockTableRecord
  2
SEANNOT_GROUP2
340
0
102
{BLKREFS
331
3A
102
}
1001
ACAD
1000
DesignCenter Data
1002
{
1070
     1
1070
     0
1002
}
  0
BLOCK_RECORD
  5
43
330
1
100
AcDbSymbolTableRecord
100
AcDbBlockTableRecord
  2
SEANNOT_GROUP3
340
0
102
{BLKREFS
331
44
102
}
1001
ACAD
1000
DesignCenter Data
1002
{
1070
     1
1070
     0
1002
}
  0
BLOCK_RECORD
  5
AA
330
1
100
AcDbSymbolTableRecord
100
AcDbBlockTableRecord
  2
SE
340
0
102
{BLKREFS
331
AB
102
}
1001
ACAD
1000
DesignCenter Data
1002
{
1070
     1
1070
     0
1002
}
  0
BLOCK_RECORD
  5
AC
330
1
100
AcDbSymbolTableRecord
100
AcDbBlockTableRecord
  2
SE1
340
0
102
{BLKREFS
331
AD
102
}
1001
ACAD
1000
DesignCenter Data
1002
{
1070
     1
1070
     0
1002
}
  0
BLOCK_RECORD
  5
B2
330
1
100
AcDbSymbolTableRecord
100
AcDbBlockTableRecord
  2
SE2
340
0
102
{BLKREFS
331
B3
102
}
1001
ACAD
1000
DesignCenter Data
1002
{
1070
     1
1070
     0
1002
}
  0
BLOCK_RECORD
  5
B7
330
1
100
AcDbSymbolTableRecord
100
AcDbBlockTableRecord
  2
SE3
340
0
102
{BLKREFS
331
B8
102
}
1001
ACAD
1000
DesignCenter Data
1002
{
1070
     1
1070
     0
1002
}
  0
BLOCK_RECORD
  5
BD
330
1
100
AcDbSymbolTableRecord
100
AcDbBlockTableRecord
  2
SE4
340
0
102
{BLKREFS
331
BE
102
}
1001
ACAD
1000
DesignCenter Data
1002
{
1070
     1
1070
     0
1002
}
  0
BLOCK_RECORD
  5
39A
330
1
100
AcDbSymbolTableRecord
100
AcDbBlockTableRecord
  2
GDimGGroup
340
0
102
{BLKREFS
331
39B
102
}
1001
ACAD
1000
DesignCenter Data
1002
{
1070
     1
1070
     0
1002
}
  0
BLOCK_RECORD
  5
3A4
330
1
100
AcDbSymbolTableRecord
100
AcDbBlockTableRecord
  2
GDimGGroup1
340
0
102
{BLKREFS
331
3A5
102
}
1001
ACAD
1000
DesignCenter Data
1002
{
1070
     1
1070
     0
1002
}
  0
BLOCK_RECORD
  5
3AE
330
1
100
AcDbSymbolTableRecord
100
AcDbBlockTableRecord
  2
GDimGGroup2
340
0
102
{BLKREFS
331
3AF
102
}
1001
ACAD
1000
DesignCenter Data
1002
{
1070
     1
1070
     0
1002
}
  0
BLOCK_RECORD
  5
3B8
330
1
100
AcDbSymbolTableRecord
100
AcDbBlockTableRecord
  2
GDimGGroup3
340
0
102
{BLKREFS
331
3B9
102
}
1001
ACAD
1000
DesignCenter Data
1002
{
1070
     1
1070
     0
1002
}
  0
BLOCK_RECORD
  5
3C2
330
1
100
AcDbSymbolTableRecord
100
AcDbBlockTableRecord
  2
GDimGGroup4
340
0
102
{BLKREFS
331
3C3
102
}
1001
ACAD
1000
DesignCenter Data
1002
{
1070
     1
1070
     0
1002
}
  0
BLOCK_RECORD
  5
3CE
330
1
100
AcDbSymbolTableRecord
100
AcDbBlockTableRecord
  2
GDimGGroup5
340
0
102
{BLKREFS
331
3CF
102
}
1001
ACAD
1000
DesignCenter Data
1002
{
1070
     1
1070
     0
1002
}
  0
BLOCK_RECORD
  5
3D9
330
1
100
AcDbSymbolTableRecord
100
AcDbBlockTableRecord
  2
GDimGGroup6
340
0
102
{BLKREFS
331
3DA
102
}
1001
ACAD
1000
DesignCenter Data
1002
{
1070
     1
1070
     0
1002
}
  0
BLOCK_RECORD
  5
3E3
330
1
100
AcDbSymbolTableRecord
100
AcDbBlockTableRecord
  2
GDimGGroup7
340
0
102
{BLKREFS
331
3E4
102
}
1001
ACAD
1000
DesignCenter Data
1002
{
1070
     1
1070
     0
1002
}
  0
BLOCK_RECORD
  5
3ED
330
1
100
AcDbSymbolTableRecord
100
AcDbBlockTableRecord
  2
GDimGGroup8
340
0
102
{BLKREFS
331
3EE
102
}
1001
ACAD
1000
DesignCenter Data
1002
{
1070
     1
1070
     0
1002
}
  0
BLOCK_RECORD
  5
3F7
330
1
100
AcDbSymbolTableRecord
100
AcDbBlockTableRecord
  2
GDimGGroup9
340
0
102
{BLKREFS
331
3F8
102
}
1001
ACAD
1000
DesignCenter Data
1002
{
1070
     1
1070
     0
1002
}
  0
BLOCK_RECORD
  5
401
330
1
100
AcDbSymbolTableRecord
100
AcDbBlockTableRecord
  2
GDimGGroup10
340
0
102
{BLKREFS
331
402
102
}
1001
ACAD
1000
DesignCenter Data
1002
{
1070
     1
1070
     0
1002
}
  0
BLOCK_RECORD
  5
40B
330
1
100
AcDbSymbolTableRecord
100
AcDbBlockTableRecord
  2
GDimGGroup11
340
0
102
{BLKREFS
331
40C
102
}
1001
ACAD
1000
DesignCenter Data
1002
{
1070
     1
1070
     0
1002
}
  0
BLOCK_RECORD
  5
415
330
1
100
AcDbSymbolTableRecord
100
AcDbBlockTableRecord
  2
GDimGGroup12
340
0
102
{BLKREFS
331
416
102
}
1001
ACAD
1000
DesignCenter Data
1002
{
1070
     1
1070
     0
1002
}
  0
BLOCK_RECORD
  5
41F
330
1
100
AcDbSymbolTableRecord
100
AcDbBlockTableRecord
  2
GDimGGroup13
340
0
102
{BLKREFS
331
420
102
}
1001
ACAD
1000
DesignCenter Data
1002
{
1070
     1
1070
     0
1002
}
  0
BLOCK_RECORD
  5
429
330
1
100
AcDbSymbolTableRecord
100
AcDbBlockTableRecord
  2
GDimGGroup14
340
0
102
{BLKREFS
331
42A
102
}
1001
ACAD
1000
DesignCenter Data
1002
{
1070
     1
1070
     0
1002
}
  0
BLOCK_RECORD
  5
433
330
1
100
AcDbSymbolTableRecord
100
AcDbBlockTableRecord
  2
GDimGGroup15
340
0
102
{BLKREFS
331
434
102
}
1001
ACAD
1000
DesignCenter Data
1002
{
1070
     1
1070
     0
1002
}
  0
BLOCK_RECORD
  5
43D
330
1
100
AcDbSymbolTableRecord
100
AcDbBlockTableRecord
  2
GDimGGroup16
340
0
102
{BLKREFS
331
43E
102
}
1001
ACAD
1000
DesignCenter Data
1002
{
1070
     1
1070
     0
1002
}
  0
BLOCK_RECORD
  5
447
330
1
100
AcDbSymbolTableRecord
100
AcDbBlockTableRecord
  2
GDimGGroup17
340
0
102
{BLKREFS
331
448
102
}
1001
ACAD
1000
DesignCenter Data
1002
{
1070
     1
1070
     0
1002
}
  0
BLOCK_RECORD
  5
451
330
1
100
AcDbSymbolTableRecord
100
AcDbBlockTableRecord
  2
GDimGGroup18
340
0
102
{BLKREFS
331
452
102
}
1001
ACAD
1000
DesignCenter Data
1002
{
1070
     1
1070
     0
1002
}
  0
BLOCK_RECORD
  5
45B
330
1
100
AcDbSymbolTableRecord
100
AcDbBlockTableRecord
  2
GDimGGroup19
340
0
102
{BLKREFS
331
45C
102
}
1001
ACAD
1000
DesignCenter Data
1002
{
1070
     1
1070
     0
1002
}
  0
BLOCK_RECORD
  5
465
330
1
100
AcDbSymbolTableRecord
100
AcDbBlockTableRecord
  2
GDimGGroup20
340
0
102
{BLKREFS
331
466
102
}
1001
ACAD
1000
DesignCenter Data
1002
{
1070
     1
1070
     0
1002
}
  0
BLOCK_RECORD
  5
46F
330
1
100
AcDbSymbolTableRecord
100
AcDbBlockTableRecord
  2
GDimGGroup21
340
0
102
{BLKREFS
331
470
102
}
1001
ACAD
1000
DesignCenter Data
1002
{
1070
     1
1070
     0
1002
}
  0
BLOCK_RECORD
  5
479
330
1
100
AcDbSymbolTableRecord
100
AcDbBlockTableRecord
  2
GDimGGroup22
340
0
102
{BLKREFS
331
47A
102
}
1001
ACAD
1000
DesignCenter Data
1002
{
1070
     1
1070
     0
1002
}
  0
BLOCK_RECORD
  5
483
330
1
100
AcDbSymbolTableRecord
100
AcDbBlockTableRecord
  2
GDimGGroup23
340
0
102
{BLKREFS
331
484
102
}
1001
ACAD
1000
DesignCenter Data
1002
{
1070
     1
1070
     0
1002
}
  0
BLOCK_RECORD
  5
48D
330
1
100
AcDbSymbolTableRecord
100
AcDbBlockTableRecord
  2
GDimGGroup24
340
0
102
{BLKREFS
331
48E
102
}
1001
ACAD
1000
DesignCenter Data
1002
{
1070
     1
1070
     0
1002
}
  0
BLOCK_RECORD
  5
497
330
1
100
AcDbSymbolTableRecord
100
AcDbBlockTableRecord
  2
GDimGGroup25
340
0
102
{BLKREFS
331
498
102
}
1001
ACAD
1000
DesignCenter Data
1002
{
1070
     1
1070
     0
1002
}
  0
BLOCK_RECORD
  5
4A1
330
1
100
AcDbSymbolTableRecord
100
AcDbBlockTableRecord
  2
GDimGGroup26
340
0
102
{BLKREFS
331
4A2
102
}
1001
ACAD
1000
DesignCenter Data
1002
{
1070
     1
1070
     0
1002
}
  0
BLOCK_RECORD
  5
4AB
330
1
100
AcDbSymbolTableRecord
100
AcDbBlockTableRecord
  2
GDimGGroup27
340
0
102
{BLKREFS
331
4AC
102
}
1001
ACAD
1000
DesignCenter Data
1002
{
1070
     1
1070
     0
1002
}
  0
BLOCK_RECORD
  5
4B5
330
1
100
AcDbSymbolTableRecord
100
AcDbBlockTableRecord
  2
GDimGGroup28
340
0
102
{BLKREFS
331
4B6
102
}
1001
ACAD
1000
DesignCenter Data
1002
{
1070
     1
1070
     0
1002
}
  0
BLOCK_RECORD
  5
4C0
330
1
100
AcDbSymbolTableRecord
100
AcDbBlockTableRecord
  2
GDimGGroup29
340
0
102
{BLKREFS
331
4C1
102
}
1001
ACAD
1000
DesignCenter Data
1002
{
1070
     1
1070
     0
1002
}
  0
BLOCK_RECORD
  5
4D0
330
1
100
AcDbSymbolTableRecord
100
AcDbBlockTableRecord
  2
SEANNOT_GROUP4
340
0
102
{BLKREFS
331
4D1
102
}
1001
ACAD
1000
DesignCenter Data
1002
{
1070
     1
1070
     0
1002
}
  0
BLOCK_RECORD
  5
4DF
330
1
100
AcDbSymbolTableRecord
100
AcDbBlockTableRecord
  2
SEANNOT_GROUP5
340
0
102
{BLKREFS
331
4E0
102
}
1001
ACAD
1000
DesignCenter Data
1002
{
1070
     1
1070
     0
1002
}
  0
BLOCK_RECORD
  5
4E8
330
1
100
AcDbSymbolTableRecord
100
AcDbBlockTableRecord
  2
SEANNOT_GROUP6
340
0
102
{BLKREFS
331
4E9
102
}
1001
ACAD
1000
DesignCenter Data
1002
{
1070
     1
1070
     0
1002
}
  0
BLOCK_RECORD
  5
4F2
330
1
100
AcDbSymbolTableRecord
100
AcDbBlockTableRecord
  2
SEANNOT_GROUP7
340
0
102
{BLKREFS
331
4F3
102
}
1001
ACAD
1000
DesignCenter Data
1002
{
1070
     1
1070
     0
1002
}
  0
BLOCK_RECORD
  5
50B
330
1
100
AcDbSymbolTableRecord
100
AcDbBlockTableRecord
  2
SEANNOT_GROUP8
340
0
102
{BLKREFS
331
50C
102
}
1001
ACAD
1000
DesignCenter Data
1002
{
1070
     1
1070
     0
1002
}
  0
BLOCK_RECORD
  5
510
330
1
100
AcDbSymbolTableRecord
100
AcDbBlockTableRecord
  2
SEANNOT_GROUP9
340
0
102
{BLKREFS
331
511
102
}
1001
ACAD
1000
DesignCenter Data
1002
{
1070
     1
1070
     0
1002
}
  0
BLOCK_RECORD
  5
516
330
1
100
AcDbSymbolTableRecord
100
AcDbBlockTableRecord
  2
SEANNOT_GROUP10
340
0
102
{BLKREFS
331
517
102
}
1001
ACAD
1000
DesignCenter Data
1002
{
1070
     1
1070
     0
1002
}
  0
BLOCK_RECORD
  5
51C
330
1
100
AcDbSymbolTableRecord
100
AcDbBlockTableRecord
  2
SEANNOT_GROUP11
340
0
102
{BLKREFS
331
51D
102
}
1001
ACAD
1000
DesignCenter Data
1002
{
1070
     1
1070
     0
1002
}
  0
BLOCK_RECORD
  5
521
330
1
100
AcDbSymbolTableRecord
100
AcDbBlockTableRecord
  2
SEANNOT_GROUP12
340
0
102
{BLKREFS
331
522
102
}
1001
ACAD
1000
DesignCenter Data
1002
{
1070
     1
1070
     0
1002
}
  0
BLOCK_RECORD
  5
527
330
1
100
AcDbSymbolTableRecord
100
AcDbBlockTableRecord
  2
SEANNOT_GROUP13
340
0
102
{BLKREFS
331
528
102
}
1001
ACAD
1000
DesignCenter Data
1002
{
1070
     1
1070
     0
1002
}
  0
ENDTAB
  0
ENDSEC
  0
SECTION
  2
BLOCKS
  0
BLOCK
  5
20
330
1F
100
AcDbEntity
  8
0
100
AcDbBlockBegin
  2
*Model_Space
 70
     0
 71
     0
 10
0.0
 20
0.0
 30
0.0
  3
*Model_Space
  1

  0
ENDBLK
  5
21
330
1F
100
AcDbEntity
  8
0
100
AcDbBlockEnd
  0
BLOCK
  5
1C
330
1B
100
AcDbEntity
 67
     1
  8
0
100
AcDbBlockBegin
  2
*Paper_Space
 70
     0
 71
     0
 10
0.0
 20
0.0
 30
0.0
  3
*Paper_Space
  1

  0
ENDBLK
  5
1D
330
1B
100
AcDbEntity
 67
     1
  8
0
100
AcDbBlockEnd
  0
BLOCK
  5
32
330
2E
100
AcDbEntity
  8
0
100
AcDbBlockBegin
  2
SEANNOT_GROUP
 70
     0
 71
     0
 10
0.0
 20
0.0
 30
0.0
  3
SEANNOT_GROUP
  1

  0
LINE
  5
31
330
2E
100
AcDbEntity
  8
Default
  6
CENTER2
 62
   136
370
     9
100
AcDbLine
 10
1353.46035276
 20
1310.3409414623
 30
0.0
 11
1444.46035276
 21
1310.3409414623
 31
0.0
  0
ENDBLK
  5
33
330
2E
100
AcDbEntity
  8
0
100
AcDbBlockEnd
  0
BLOCK
  5
37
330
34
100
AcDbEntity
  8
0
100
AcDbBlockBegin
  2
SEANNOT_GROUP1
 70
     0
 71
     0
 10
0.0
 20
0.0
 30
0.0
  3
SEANNOT_GROUP1
  1

  0
LINE
  5
36
330
34
100
AcDbEntity
  8
Default
  6
CENTER2
 62
   136
370
     9
100
AcDbLine
 10
1541.46035276
 20
1360.3834027741
 30
0.0
 11
1541.46035276
 21
1449.611484746
 31
0.0
  0
ENDBLK
  5
38
330
34
100
AcDbEntity
  8
0
100
AcDbBlockEnd
  0
BLOCK
  5
41
330
39
100
AcDbEntity
  8
0
100
AcDbBlockBegin
  2
SEANNOT_GROUP2
 70
     0
 71
     0
 10
0.0
 20
0.0
 30
0.0
  3
SEANNOT_GROUP2
  1

  0
LINE
  5
3B
330
39
100
AcDbEntity
  8
Default
  6
CENTER2
 62
   136
370
     9
100
AcDbLine
 10
611.232389002
 20
1310.3409414623
 30
0.0
 11
547.2323859622
 21
1310.3409414623
 31
0.0
  0
LINE
  5
3C
330
39
100
AcDbEntity
  8
Default
  6
CENTER2
 62
   136
370
     9
100
AcDbLine
 10
579.2323874821
 20
1342.3409429823
 30
0.0
 11
579.2323874821
 21
1278.3409399424
 31
0.0
  0
LINE
  5
3D
330
39
100
AcDbEntity
  8
Default
  6
CENTER2
 62
   136
370
     9
100
AcDbLine
 10
619.232389382
 20
1310.3409414623
 30
0.0
 11
632.2323874821
 21
1310.3409414623
 31
0.0
  0
LINE
  5
3E
330
39
100
AcDbEntity
  8
Default
  6
CENTER2
 62
   136
370
     9
100
AcDbLine
 10
579.2323874821
 20
1350.3409433622
 30
0.0
 11
579.2323874821
 21
1363.3409414623
 31
0.0
  0
LINE
  5
3F
330
39
100
AcDbEntity
  8
Default
  6
CENTER2
 62
   136
370
     9
100
AcDbLine
 10
539.2323855822
 20
1310.3409414623
 30
0.0
 11
526.2323874821
 21
1310.3409414623
 31
0.0
  0
LINE
  5
40
330
39
100
AcDbEntity
  8
Default
  6
CENTER2
 62
   136
370
     9
100
AcDbLine
 10
579.2323874821
 20
1270.3409395624
 30
0.0
 11
579.2323874821
 21
1257.3409414623
 31
0.0
  0
ENDBLK
  5
42
330
39
100
AcDbEntity
  8
0
100
AcDbBlockEnd
  0
BLOCK
  5
4B
330
43
100
AcDbEntity
  8
0
100
AcDbBlockBegin
  2
SEANNOT_GROUP3
 70
     0
 71
     0
 10
0.0
 20
0.0
 30
0.0
  3
SEANNOT_GROUP3
  1

  0
LINE
  5
45
330
43
100
AcDbEntity
  8
Default
  6
CENTER2
 62
   136
370
     9
100
AcDbLine
 10
611.232389002
 20
324.0008246424
 30
0.0
 11
547.2323859622
 21
324.0008246424
 31
0.0
  0
LINE
  5
46
330
43
100
AcDbEntity
  8
Default
  6
CENTER2
 62
   136
370
     9
100
AcDbLine
 10
579.2323874821
 20
356.0008261623
 30
0.0
 11
579.2323874821
 21
292.0008231225
 31
0.0
  0
LINE
  5
47
330
43
100
AcDbEntity
  8
Default
  6
CENTER2
 62
   136
370
     9
100
AcDbLine
 10
619.232389382
 20
324.0008246424
 30
0.0
 11
632.2323874821
 21
324.0008246424
 31
0.0
  0
LINE
  5
48
330
43
100
AcDbEntity
  8
Default
  6
CENTER2
 62
   136
370
     9
100
AcDbLine
 10
579.2323874821
 20
364.0008265423
 30
0.0
 11
579.2323874821
 21
377.0008246424
 31
0.0
  0
LINE
  5
49
330
43
100
AcDbEntity
  8
Default
  6
CENTER2
 62
   136
370
     9
100
AcDbLine
 10
539.2323855822
 20
324.0008246424
 30
0.0
 11
526.2323874821
 21
324.0008246424
 31
0.0
  0
LINE
  5
4A
330
43
100
AcDbEntity
  8
Default
  6
CENTER2
 62
   136
370
     9
100
AcDbLine
 10
579.2323874821
 20
284.0008227425
 30
0.0
 11
579.2323874821
 21
271.0008246424
 31
0.0
  0
ENDBLK
  5
4C
330
43
100
AcDbEntity
  8
0
100
AcDbBlockEnd
  0
BLOCK
  5
C6
330
AA
100
AcDbEntity
  8
0
100
AcDbBlockBegin
  2
SE
 70
     0
 71
     0
 10
0.0
 20
0.0
 30
0.0
  3
SE
  1

  0
INSERT
  5
AD
330
AA
100
AcDbEntity
  8
Default
100
AcDbBlockReference
  2
SE1
 10
0.0
 20
0.0
 30
0.0
  0
INSERT
  5
B3
330
AA
100
AcDbEntity
  8
Default
100
AcDbBlockReference
  2
SE2
 10
0.0
 20
0.0
 30
0.0
  0
INSERT
  5
B8
330
AA
100
AcDbEntity
  8
Default
100
AcDbBlockReference
  2
SE3
 10
0.0
 20
0.0
 30
0.0
  0
INSERT
  5
BE
330
AA
100
AcDbEntity
  8
Default
100
AcDbBlockReference
  2
SE4
 10
0.0
 20
0.0
 30
0.0
  0
LINE
  5
C3
330
AA
100
AcDbEntity
  8
Default
  6
CENTER2
 62
     7
100
AcDbLine
 10
579.2323874821
 20
1078.4682101895
 30
0.0
 11
579.2323874821
 21
1054.4682101895
 31
0.0
  0
LINE
  5
C4
330
AA
100
AcDbEntity
  8
Default
  6
CENTER2
 62
     7
100
AcDbLine
 10
579.2323874821
 20
1489.558118844
 30
0.0
 11
579.2323874821
 21
1513.558118844
 31
0.0
  0
LWPOLYLINE
  5
C5
330
AA
100
AcDbEntity
  8
Default
  6
CENTER2
 62
     7
100
AcDbPolyline
 90
        2
 70
     0
 43
0.00035
 10
579.2323874821
 20
1078.4682101895
 10
579.2323874821
 20
1489.558118844
  0
ENDBLK
  5
C7
330
AA
100
AcDbEntity
  8
0
100
AcDbBlockEnd
  0
BLOCK
  5
B0
330
AC
100
AcDbEntity
  8
0
100
AcDbBlockBegin
  2
SE1
 70
     0
 71
     0
 10
0.0
 20
0.0
 30
0.0
  3
SE1
  1

  0
TEXT
  5
AF
330
AC
100
AcDbEntity
  8
0
  6
Continuous
 62
     7
100
AcDbText
 10
448.0149961778
 20
1062.4682101895
 30
0.0
 40
24.0
  1
A
  7
SEACAD_arial_ttf
 11
448.0149961778
 21
1086.4682101895
 31
0.0
100
AcDbText
 73
     3
  0
ENDBLK
  5
B1
330
AC
100
AcDbEntity
  8
0
100
AcDbBlockEnd
  0
BLOCK
  5
B5
330
B2
100
AcDbEntity
  8
0
100
AcDbBlockBegin
  2
SE2
 70
     0
 71
     0
 10
0.0
 20
0.0
 30
0.0
  3
SE2
  1

  0
TEXT
  5
B4
330
B2
100
AcDbEntity
  8
0
  6
Continuous
 62
     7
100
AcDbText
 10
448.0149961778
 20
1473.558118844
 30
0.0
 40
24.0
  1
A
  7
SEACAD_arial_ttf
 11
448.0149961778
 21
1497.558118844
 31
0.0
100
AcDbText
 73
     3
  0
ENDBLK
  5
B6
330
B2
100
AcDbEntity
  8
0
100
AcDbBlockEnd
  0
BLOCK
  5
BB
330
B7
100
AcDbEntity
  8
0
100
AcDbBlockBegin
  2
SE3
 70
     0
 71
     0
 10
0.0
 20
0.0
 30
0.0
  3
SE3
  1

  0
LWPOLYLINE
  5
B9
330
B7
100
AcDbEntity
  8
0
  6
Continuous
 62
     7
100
AcDbPolyline
 90
        2
 70
     0
 43
0.0
 10
483.2323874821
 20
1078.4682101895
 10
579.2323874821
 20
1078.4682101895
  0
LWPOLYLINE
  5
BA
330
B7
100
AcDbEntity
  8
0
  6
Continuous
 62
     7
100
AcDbPolyline
 90
        4
 70
     0
 43
0.0
 10
552.0323871215
 20
1073.9348767961
 10
552.0323871215
 20
1083.001543583
 10
579.2323874821
 20
1078.4682101895
 10
552.0323871215
 20
1073.9348767961
  0
ENDBLK
  5
BC
330
B7
100
AcDbEntity
  8
0
100
AcDbBlockEnd
  0
BLOCK
  5
C1
330
BD
100
AcDbEntity
  8
0
100
AcDbBlockBegin
  2
SE4
 70
     0
 71
     0
 10
0.0
 20
0.0
 30
0.0
  3
SE4
  1

  0
LWPOLYLINE
  5
BF
330
BD
100
AcDbEntity
  8
0
  6
Continuous
 62
     7
100
AcDbPolyline
 90
        2
 70
     0
 43
0.0
 10
483.2323874821
 20
1489.558118844
 10
579.2323874821
 20
1489.558118844
  0
LWPOLYLINE
  5
C0
330
BD
100
AcDbEntity
  8
0
  6
Continuous
 62
     7
100
AcDbPolyline
 90
        4
 70
     0
 43
0.0
 10
552.0323871215
 20
1485.0247854505
 10
552.0323871215
 20
1494.0914522374
 10
579.2323874821
 20
1489.558118844
 10
552.0323871215
 20
1485.0247854505
  0
ENDBLK
  5
C2
330
BD
100
AcDbEntity
  8
0
100
AcDbBlockEnd
  0
BLOCK
  5
3A2
330
39A
100
AcDbEntity
  8
0
100
AcDbBlockBegin
  2
GDimGGroup
 70
     0
 71
     0
 10
0.0
 20
0.0
 30
0.0
  3
GDimGGroup
  1

  0
HATCH
  5
39C
330
39A
100
AcDbEntity
  8
Default
  6
Continuous
 62
   136
370
     9
100
AcDbHatch
 10
0.0
 20
0.0
 30
0.0
210
0.0
220
0.0
230
1.0
  2
SOLID
 70
     1
 71
     0
 91
        1
 92
        1
 93
        3
 72
     1
 10
174.2926684744426
 20
1416.740941282035
 11
178.8260018678773
 21
1416.740941282035
 72
     1
 10
178.8260018678773
 20
1416.740941282035
 11
176.5593351711599
 21
1430.340941462339
 72
     1
 10
176.5593351711599
 20
1430.340941462339
 11
174.2926684744426
 21
1416.740941282035
 97
        0
 75
     0
 76
     1
 98
        0
  0
HATCH
  5
39D
330
39A
100
AcDbEntity
  8
Default
  6
Continuous
 62
   136
370
     9
100
AcDbHatch
 10
0.0
 20
0.0
 30
0.0
210
0.0
220
0.0
230
1.0
  2
SOLID
 70
     1
 71
     0
 91
        1
 92
        1
 93
        3
 72
     1
 10
174.2926684744426
 20
1138.940934490086
 11
176.5593351711599
 21
1125.340934309781
 72
     1
 10
176.5593351711599
 20
1125.340934309781
 11
178.8260018678773
 21
1138.940934490086
 72
     1
 10
178.8260018678773
 20
1138.940934490086
 11
174.2926684744426
 21
1138.940934490086
 97
        0
 75
     0
 76
     1
 98
        0
  0
LINE
  5
39E
330
39A
100
AcDbEntity
  8
Default
  6
Continuous
 62
   136
370
     9
100
AcDbLine
 10
347.7323871021
 20
1430.3409414623
 30
0.0
 11
168.5593347912
 21
1430.3409414623
 31
0.0
  0
LINE
  5
39F
330
39A
100
AcDbEntity
  8
Default
  6
Continuous
 62
   136
370
     9
100
AcDbLine
 10
347.7323871021
 20
1125.3409414623
 30
0.0
 11
168.5593347912
 21
1125.3409414623
 31
0.0
  0
LINE
  5
3A0
330
39A
100
AcDbEntity
  8
Default
  6
Continuous
 62
   136
370
     9
100
AcDbLine
 10
176.5593351712
 20
1430.3409414623
 30
0.0
 11
176.5593351712
 21
1125.3409343098
 31
0.0
  0
TEXT
  5
3A1
330
39A
100
AcDbEntity
  8
Default
  6
Continuous
 62
   136
370
     9
100
AcDbText
 10
172.5593351712
 20
1259.0583291904
 30
0.0
 40
16.0
  1
305
 50
90.0
  7
SEACAD_arial_ttf
 11
156.5593351712
 21
1259.0583291904
 31
0.0
100
AcDbText
 73
     3
  0
ENDBLK
  5
3A3
330
39A
100
AcDbEntity
  8
0
100
AcDbBlockEnd
  0
BLOCK
  5
3AC
330
3A4
100
AcDbEntity
  8
0
100
AcDbBlockBegin
  2
GDimGGroup1
 70
     0
 71
     0
 10
0.0
 20
0.0
 30
0.0
  3
GDimGGroup1
  1

  0
HATCH
  5
3A6
330
3A4
100
AcDbEntity
  8
Default
  6
Continuous
 62
   136
370
     9
100
AcDbHatch
 10
0.0
 20
0.0
 30
0.0
210
0.0
220
0.0
230
1.0
  2
SOLID
 70
     1
 71
     0
 91
        1
 92
        1
 93
        3
 72
     1
 10
359.3323876624075
 20
1564.538650234213
 11
345.7323874821034
 21
1562.271983537496
 72
     1
 10
345.7323874821034
 20
1562.271983537496
 11
359.3323876624075
 21
1560.005316840779
 72
     1
 10
359.3323876624075
 20
1560.005316840779
 11
359.3323876624075
 21
1564.538650234213
 97
        0
 75
     0
 76
     1
 98
        0
  0
HATCH
  5
3A7
330
3A4
100
AcDbEntity
  8
Default
  6
Continuous
 62
   136
370
     9
100
AcDbHatch
 10
0.0
 20
0.0
 30
0.0
210
0.0
220
0.0
230
1.0
  2
SOLID
 70
     1
 71
     0
 91
        1
 92
        1
 93
        3
 72
     1
 10
799.132394931194
 20
1564.538650234213
 11
799.132394931194
 21
1560.005316840779
 72
     1
 10
799.132394931194
 20
1560.005316840779
 11
812.732395111498
 21
1562.271983537496
 72
     1
 10
812.732395111498
 20
1562.271983537496
 11
799.132394931194
 21
1564.538650234213
 97
        0
 75
     0
 76
     1
 98
        0
  0
LINE
  5
3A8
330
3A4
100
AcDbEntity
  8
Default
  6
Continuous
 62
   136
370
     9
100
AcDbLine
 10
345.7323874821
 20
1428.3409418423
 30
0.0
 11
345.7323874821
 21
1570.2719839175
 31
0.0
  0
LINE
  5
3A9
330
3A4
100
AcDbEntity
  8
Default
  6
Continuous
 62
   136
370
     9
100
AcDbLine
 10
812.7323874821
 20
1428.3409418423
 30
0.0
 11
812.7323874821
 21
1570.2719839175
 31
0.0
  0
LINE
  5
3AA
330
3A4
100
AcDbEntity
  8
Default
  6
Continuous
 62
   136
370
     9
100
AcDbLine
 10
345.7323874821
 20
1562.2719835375
 30
0.0
 11
812.7323951115
 21
1562.2719835375
 31
0.0
  0
TEXT
  5
3AB
330
3A4
100
AcDbEntity
  8
Default
  6
Continuous
 62
   136
370
     9
100
AcDbText
 10
560.4497826011
 20
1566.2719835375
 30
0.0
 40
16.0
  1
467
  7
SEACAD_arial_ttf
 11
560.4497826011
 21
1582.2719835375
 31
0.0
100
AcDbText
 73
     3
  0
ENDBLK
  5
3AD
330
3A4
100
AcDbEntity
  8
0
100
AcDbBlockEnd
  0
BLOCK
  5
3B6
330
3AE
100
AcDbEntity
  8
0
100
AcDbBlockBegin
  2
GDimGGroup2
 70
     0
 71
     0
 10
0.0
 20
0.0
 30
0.0
  3
GDimGGroup2
  1

  0
HATCH
  5
3B0
330
3AE
100
AcDbEntity
  8
Default
  6
Continuous
 62
   136
370
     9
100
AcDbHatch
 10
0.0
 20
0.0
 30
0.0
210
0.0
220
0.0
230
1.0
  2
SOLID
 70
     1
 71
     0
 91
        1
 92
        1
 93
        3
 72
     1
 10
359.3323876624075
 20
1517.812451441756
 11
345.7323874821034
 21
1515.545784745038
 72
     1
 10
345.7323874821034
 20
1515.545784745038
 11
359.3323876624075
 21
1513.279118048321
 72
     1
 10
359.3323876624075
 20
1513.279118048321
 11
359.3323876624075
 21
1517.812451441756
 97
        0
 75
     0
 76
     1
 98
        0
  0
HATCH
  5
3B1
330
3AE
100
AcDbEntity
  8
Default
  6
Continuous
 62
   136
370
     9
100
AcDbHatch
 10
0.0
 20
0.0
 30
0.0
210
0.0
220
0.0
230
1.0
  2
SOLID
 70
     1
 71
     0
 91
        1
 92
        1
 93
        3
 72
     1
 10
565.6323911164967
 20
1517.812451441756
 11
565.6323911164967
 21
1513.279118048321
 72
     1
 10
565.6323911164967
 20
1513.279118048321
 11
579.2323912968008
 21
1515.545784745038
 72
     1
 10
579.2323912968008
 20
1515.545784745038
 11
565.6323911164967
 21
1517.812451441756
 97
        0
 75
     0
 76
     1
 98
        0
  0
LINE
  5
3B2
330
3AE
100
AcDbEntity
  8
Default
  6
Continuous
 62
   136
370
     9
100
AcDbLine
 10
345.7323874821
 20
1285.8409418423
 30
0.0
 11
345.7323874821
 21
1523.545785125
 31
0.0
  0
LINE
  5
3B3
330
3AE
100
AcDbEntity
  8
Default
  6
Continuous
 62
   136
370
     9
100
AcDbLine
 10
579.2323874821
 20
1371.3409421478
 30
0.0
 11
579.2323874821
 21
1523.545785125
 31
0.0
  0
LINE
  5
3B4
330
3AE
100
AcDbEntity
  8
Default
  6
Continuous
 62
   136
370
     9
100
AcDbLine
 10
345.7323874821
 20
1515.545784745
 30
0.0
 11
579.2323912968
 21
1515.545784745
 31
0.0
  0
TEXT
  5
3B5
330
3AE
100
AcDbEntity
  8
Default
  6
Continuous
 62
   136
370
     9
100
AcDbText
 10
434.308476346
 20
1519.545784745
 30
0.0
 40
16.0
  1
233,5
  7
SEACAD_arial_ttf
 11
434.308476346
 21
1535.545784745
 31
0.0
100
AcDbText
 73
     3
  0
ENDBLK
  5
3B7
330
3AE
100
AcDbEntity
  8
0
100
AcDbBlockEnd
  0
BLOCK
  5
3C0
330
3B8
100
AcDbEntity
  8
0
100
AcDbBlockBegin
  2
GDimGGroup3
 70
     0
 71
     0
 10
0.0
 20
0.0
 30
0.0
  3
GDimGGroup3
  1

  0
HATCH
  5
3BA
330
3B8
100
AcDbEntity
  8
Default
  6
Continuous
 62
   136
370
     9
100
AcDbHatch
 10
0.0
 20
0.0
 30
0.0
210
0.0
220
0.0
230
1.0
  2
SOLID
 70
     1
 71
     0
 91
        1
 92
        1
 93
        3
 72
     1
 10
296.3215125925609
 20
1323.940941642643
 11
298.5881792892782
 21
1310.340941462339
 72
     1
 10
298.5881792892782
 20
1310.340941462339
 11
300.8548459859955
 21
1323.940941642643
 72
     1
 10
300.8548459859955
 20
1323.940941642643
 11
296.3215125925609
 21
1323.940941642643
 97
        0
 75
     0
 76
     1
 98
        0
  0
HATCH
  5
3BB
330
3B8
100
AcDbEntity
  8
Default
  6
Continuous
 62
   136
370
     9
100
AcDbHatch
 10
0.0
 20
0.0
 30
0.0
210
0.0
220
0.0
230
1.0
  2
SOLID
 70
     1
 71
     0
 91
        1
 92
        1
 93
        3
 72
     1
 10
296.3215125925609
 20
1416.740938599826
 11
300.8548459859955
 21
1416.740938599826
 72
     1
 10
300.8548459859955
 20
1416.740938599826
 11
298.5881792892782
 21
1430.34093878013
 72
     1
 10
298.5881792892782
 20
1430.34093878013
 11
296.3215125925609
 21
1416.740938599826
 97
        0
 75
     0
 76
     1
 98
        0
  0
LINE
  5
3BC
330
3B8
100
AcDbEntity
  8
Default
  6
Continuous
 62
   136
370
     9
100
AcDbLine
 10
518.2323867967
 20
1310.3409414623
 30
0.0
 11
290.5881789093
 21
1310.3409414623
 31
0.0
  0
LINE
  5
3BD
330
3B8
100
AcDbEntity
  8
Default
  6
Continuous
 62
   136
370
     9
100
AcDbLine
 10
347.7323871021
 20
1430.3409414623
 30
0.0
 11
290.5881789093
 21
1430.3409414623
 31
0.0
  0
LINE
  5
3BE
330
3B8
100
AcDbEntity
  8
Default
  6
Continuous
 62
   136
370
     9
100
AcDbLine
 10
298.5881792893
 20
1310.3409414623
 30
0.0
 11
298.5881792893
 21
1430.3409387801
 31
0.0
  0
TEXT
  5
3BF
330
3B8
100
AcDbEntity
  8
Default
  6
Continuous
 62
   136
370
     9
100
AcDbText
 10
294.5881792893
 20
1351.5583314256
 30
0.0
 40
16.0
  1
120
 50
90.0
  7
SEACAD_arial_ttf
 11
278.5881792893
 21
1351.5583314256
 31
0.0
100
AcDbText
 73
     3
  0
ENDBLK
  5
3C1
330
3B8
100
AcDbEntity
  8
0
100
AcDbBlockEnd
  0
BLOCK
  5
3CC
330
3C2
100
AcDbEntity
  8
0
100
AcDbBlockBegin
  2
GDimGGroup4
 70
     0
 71
     0
 10
0.0
 20
0.0
 30
0.0
  3
GDimGGroup4
  1

  0
LINE
  5
3C4
330
3C2
100
AcDbEntity
  8
Default
  6
Continuous
 62
   136
370
     9
100
AcDbLine
 10
557.7964630912
 20
1323.205666314
 30
0.0
 11
600.6683125118
 21
1297.4762162273
 31
0.0
  0
LINE
  5
3C5
330
3C2
100
AcDbEntity
  8
Default
  6
Continuous
 62
   136
370
     9
100
AcDbLine
 10
600.668311873
 20
1297.4762166107
 30
0.0
 11
662.7242137704
 21
1260.2334978564
 31
0.0
  0
HATCH
  5
3C6
330
3C2
100
AcDbEntity
  8
Default
  6
Continuous
 62
   136
370
     9
100
AcDbHatch
 10
0.0
 20
0.0
 30
0.0
210
0.0
220
0.0
230
1.0
  2
SOLID
 70
     1
 71
     0
 91
        1
 92
        1
 93
        3
 72
     1
 10
570.624007849799
 20
1318.150779739103
 11
557.7964630912095
 21
1323.205666313958
 72
     1
 10
557.7964630912096
 20
1323.205666313958
 11
568.2912043791114
 21
1314.263732064687
 72
     1
 10
568.2912043791113
 20
1314.263732064687
 11
570.624007849799
 21
1318.150779739103
 97
        0
 75
     0
 76
     1
 98
        0
  0
HATCH
  5
3C7
330
3C2
100
AcDbEntity
  8
Default
  6
Continuous
 62
   136
370
     9
100
AcDbHatch
 10
0.0
 20
0.0
 30
0.0
210
0.0
220
0.0
230
1.0
  2
SOLID
 70
     1
 71
     0
 91
        1
 92
        1
 93
        3
 72
     1
 10
590.1735705850957
 20
1306.41815085999
 11
587.840767114408
 21
1302.531103185575
 72
     1
 10
587.8407671144079
 20
1302.531103185575
 11
600.6683118729974
 21
1297.476216610719
 72
     1
 10
600.6683118729974
 20
1297.476216610719
 11
590.1735705850956
 21
1306.41815085999
 97
        0
 75
     0
 76
     1
 98
        0
  0
LINE
  5
3C8
330
3C2
100
AcDbEntity
  8
Default
  6
Continuous
 62
   136
370
     9
100
AcDbLine
 10
662.724211215
 20
1260.23349939
 30
0.0
 11
726.8140980592
 21
1260.23349939
 31
0.0
  0
TEXT
  5
3CA
330
3C2
100
AcDbEntity
  8
Default
  6
Continuous
 62
   136
370
     9
100
AcDbText
 10
668.324211215
 20
1264.23349939
 30
0.0
 40
16.0
  1
O
  7
SEACAD_semeca1_ttf
 11
668.324211215
 21
1280.23349939
 31
0.0
100
AcDbText
 73
     3
  0
TEXT
  5
3CB
330
3C2
100
AcDbEntity
  8
Default
  6
Continuous
 62
   136
370
     9
100
AcDbText
 10
696.1698252501
 20
1264.23349939
 30
0.0
 40
16.0
  1
50
  7
SEACAD_arial_ttf
 11
696.1698252501
 21
1280.23349939
 31
0.0
100
AcDbText
 73
     3
  0
ENDBLK
  5
3CD
330
3C2
100
AcDbEntity
  8
0
100
AcDbBlockEnd
  0
BLOCK
  5
3D7
330
3CE
100
AcDbEntity
  8
0
100
AcDbBlockBegin
  2
GDimGGroup5
 70
     0
 71
     0
 10
0.0
 20
0.0
 30
0.0
  3
GDimGGroup5
  1

  0
HATCH
  5
3D0
330
3CE
100
AcDbEntity
  8
Default
  6
Continuous
 62
   136
370
     9
100
AcDbHatch
 10
0.0
 20
0.0
 30
0.0
210
0.0
220
0.0
230
1.0
  2
SOLID
 70
     1
 71
     0
 91
        1
 92
        1
 93
        3
 72
     1
 10
1517.860352579702
 20
1283.782760571606
 11
1531.460352760006
 21
1286.049427268323
 72
     1
 10
1531.460352760006
 20
1286.049427268323
 11
1517.860352579702
 21
1288.316093965041
 72
     1
 10
1517.860352579702
 20
1288.316093965041
 11
1517.860352579702
 21
1283.782760571606
 97
        0
 75
     0
 76
     1
 98
        0
  0
HATCH
  5
3D1
330
3CE
100
AcDbEntity
  8
Default
  6
Continuous
 62
   136
370
     9
100
AcDbHatch
 10
0.0
 20
0.0
 30
0.0
210
0.0
220
0.0
230
1.0
  2
SOLID
 70
     1
 71
     0
 91
        1
 92
        1
 93
        3
 72
     1
 10
1565.06035294031
 20
1283.782760571606
 11
1565.06035294031
 21
1288.316093965041
 72
     1
 10
1565.06035294031
 20
1288.316093965041
 11
1551.460352760006
 21
1286.049427268323
 72
     1
 10
1551.460352760006
 20
1286.049427268323
 11
1565.06035294031
 21
1283.782760571606
 97
        0
 75
     0
 76
     1
 98
        0
  0
LINE
  5
3D2
330
3CE
100
AcDbEntity
  8
Default
  6
Continuous
 62
   136
370
     9
100
AcDbLine
 10
1531.46035276
 20
1396.2098833073
 30
0.0
 11
1531.46035276
 21
1278.0494268883
 31
0.0
  0
LINE
  5
3D3
330
3CE
100
AcDbEntity
  8
Default
  6
Continuous
 62
   136
370
     9
100
AcDbLine
 10
1551.46035276
 20
1381.4344451723
 30
0.0
 11
1551.46035276
 21
1278.0494268883
 31
0.0
  0
LINE
  5
3D4
330
3CE
100
AcDbEntity
  8
Default
  6
Continuous
 62
   136
370
     9
100
AcDbLine
 10
1458.0523898417
 20
1286.0494272683
 30
0.0
 11
1578.6603545362
 21
1286.0494272683
 31
0.0
  0
TEXT
  5
3D5
330
3CE
100
AcDbEntity
  8
Default
  6
Continuous
 62
   136
370
     9
100
AcDbText
 10
1493.0980036172
 20
1290.0494272683
 30
0.0
 40
16.0
  1
20
  7
SEACAD_arial_ttf
 11
1493.0980036172
 21
1306.0494272683
 31
0.0
100
AcDbText
 73
     3
  0
TEXT
  5
3D6
330
3CE
100
AcDbEntity
  8
Default
  6
Continuous
 62
   136
370
     9
100
AcDbText
 10
1463.6523895821
 20
1290.0494272683
 30
0.0
 40
16.0
  1
O
  7
SEACAD_semeca1_ttf
 11
1463.6523895821
 21
1306.0494272683
 31
0.0
100
AcDbText
 73
     3
  0
ENDBLK
  5
3D8
330
3CE
100
AcDbEntity
  8
0
100
AcDbBlockEnd
  0
BLOCK
  5
3E1
330
3D9
100
AcDbEntity
  8
0
100
AcDbBlockBegin
  2
GDimGGroup6
 70
     0
 71
     0
 10
0.0
 20
0.0
 30
0.0
  3
GDimGGroup6
  1

  0
HATCH
  5
3DB
330
3D9
100
AcDbEntity
  8
Default
  6
Continuous
 62
   136
370
     9
100
AcDbHatch
 10
0.0
 20
0.0
 30
0.0
210
0.0
220
0.0
230
1.0
  2
SOLID
 70
     1
 71
     0
 91
        1
 92
        1
 93
        3
 72
     1
 10
1527.860352579702
 20
1249.630955421063
 11
1541.460352760006
 21
1251.89762211778
 72
     1
 10
1541.460352760006
 20
1251.89762211778
 11
1527.860352579702
 21
1254.164288814497
 72
     1
 10
1527.860352579702
 20
1254.164288814497
 11
1527.860352579702
 21
1249.630955421063
 97
        0
 75
     0
 76
     1
 98
        0
  0
HATCH
  5
3DC
330
3D9
100
AcDbEntity
  8
Default
  6
Continuous
 62
   136
370
     9
100
AcDbHatch
 10
0.0
 20
0.0
 30
0.0
210
0.0
220
0.0
230
1.0
  2
SOLID
 70
     1
 71
     0
 91
        1
 92
        1
 93
        3
 72
     1
 10
1600.06035294031
 20
1249.630955421063
 11
1600.06035294031
 21
1254.164288814497
 72
     1
 10
1600.06035294031
 20
1254.164288814497
 11
1586.460352760006
 21
1251.89762211778
 72
     1
 10
1586.460352760006
 20
1251.89762211778
 11
1600.06035294031
 21
1249.630955421063
 97
        0
 75
     0
 76
     1
 98
        0
  0
LINE
  5
3DD
330
3D9
100
AcDbEntity
  8
Default
  6
Continuous
 62
   136
370
     9
100
AcDbLine
 10
1541.46035276
 20
1352.3834023941
 30
0.0
 11
1541.46035276
 21
1243.8976217378
 31
0.0
  0
LINE
  5
3DE
330
3D9
100
AcDbEntity
  8
Default
  6
Continuous
 62
   136
370
     9
100
AcDbLine
 10
1586.46035276
 20
1394.1171334241
 30
0.0
 11
1586.46035276
 21
1243.8976217378
 31
0.0
  0
LINE
  5
3DF
330
3D9
100
AcDbEntity
  8
Default
  6
Continuous
 62
   136
370
     9
100
AcDbLine
 10
1514.2603523994
 20
1251.8976221178
 30
0.0
 11
1645.2938493306
 21
1251.8976221178
 31
0.0
  0
TEXT
  5
3E0
330
3D9
100
AcDbEntity
  8
Default
  6
Continuous
 62
   136
370
     9
100
AcDbText
 10
1614.650373357
 20
1255.8976221178
 30
0.0
 40
16.0
  1
45
  7
SEACAD_arial_ttf
 11
1614.650373357
 21
1271.8976221178
 31
0.0
100
AcDbText
 73
     3
  0
ENDBLK
  5
3E2
330
3D9
100
AcDbEntity
  8
0
100
AcDbBlockEnd
  0
BLOCK
  5
3EB
330
3E3
100
AcDbEntity
  8
0
100
AcDbBlockBegin
  2
GDimGGroup7
 70
     0
 71
     0
 10
0.0
 20
0.0
 30
0.0
  3
GDimGGroup7
  1

  0
HATCH
  5
3E5
330
3E3
100
AcDbEntity
  8
Default
  6
Continuous
 62
   136
370
     9
100
AcDbHatch
 10
0.0
 20
0.0
 30
0.0
210
0.0
220
0.0
230
1.0
  2
SOLID
 70
     1
 71
     0
 91
        1
 92
        1
 93
        3
 72
     1
 10
1445.06035294031
 20
1557.513267119399
 11
1431.460352760006
 21
1555.246600422681
 72
     1
 10
1431.460352760006
 20
1555.246600422681
 11
1445.06035294031
 21
1552.979933725964
 72
     1
 10
1445.06035294031
 20
1552.979933725964
 11
1445.06035294031
 21
1557.513267119399
 97
        0
 75
     0
 76
     1
 98
        0
  0
HATCH
  5
3E6
330
3E3
100
AcDbEntity
  8
Default
  6
Continuous
 62
   136
370
     9
100
AcDbHatch
 10
0.0
 20
0.0
 30
0.0
210
0.0
220
0.0
230
1.0
  2
SOLID
 70
     1
 71
     0
 91
        1
 92
        1
 93
        3
 72
     1
 10
1572.860353771795
 20
1557.513267119399
 11
1572.860353771795
 21
1552.979933725964
 72
     1
 10
1572.860353771795
 20
1552.979933725964
 11
1586.460353952099
 21
1555.246600422681
 72
     1
 10
1586.460353952099
 20
1555.246600422681
 11
1572.860353771795
 21
1557.513267119399
 97
        0
 75
     0
 76
     1
 98
        0
  0
LINE
  5
3E7
330
3E3
100
AcDbEntity
  8
Default
  6
Continuous
 62
   136
370
     9
100
AcDbLine
 10
1431.46035276
 20
1358.3409418423
 30
0.0
 11
1431.46035276
 21
1563.2466008027
 31
0.0
  0
LINE
  5
3E8
330
3E3
100
AcDbEntity
  8
Default
  6
Continuous
 62
   136
370
     9
100
AcDbLine
 10
1586.46035276
 20
1410.117134184
 30
0.0
 11
1586.46035276
 21
1563.2466008027
 31
0.0
  0
LINE
  5
3E9
330
3E3
100
AcDbEntity
  8
Default
  6
Continuous
 62
   136
370
     9
100
AcDbLine
 10
1431.46035276
 20
1555.2466004227
 30
0.0
 11
1586.4603539521
 21
1555.2466004227
 31
0.0
  0
TEXT
  5
3EA
330
3E3
100
AcDbEntity
  8
Default
  6
Continuous
 62
   136
370
     9
100
AcDbText
 10
1490.1777446604
 20
1559.2466004227
 30
0.0
 40
16.0
  1
155
  7
SEACAD_arial_ttf
 11
1490.1777446604
 21
1575.2466004227
 31
0.0
100
AcDbText
 73
     3
  0
ENDBLK
  5
3EC
330
3E3
100
AcDbEntity
  8
0
100
AcDbBlockEnd
  0
BLOCK
  5
3F5
330
3ED
100
AcDbEntity
  8
0
100
AcDbBlockBegin
  2
GDimGGroup8
 70
     0
 71
     0
 10
0.0
 20
0.0
 30
0.0
  3
GDimGGroup8
  1

  0
HATCH
  5
3EF
330
3ED
100
AcDbEntity
  8
Default
  6
Continuous
 62
   136
370
     9
100
AcDbHatch
 10
0.0
 20
0.0
 30
0.0
210
0.0
220
0.0
230
1.0
  2
SOLID
 70
     1
 71
     0
 91
        1
 92
        1
 93
        3
 72
     1
 10
1367.860352579702
 20
1022.306427466046
 11
1381.460352760006
 21
1024.573094162763
 72
     1
 10
1381.460352760006
 20
1024.573094162763
 11
1367.860352579702
 21
1026.83976085948
 72
     1
 10
1367.860352579702
 20
1026.83976085948
 11
1367.860352579702
 21
1022.306427466046
 97
        0
 75
     0
 76
     1
 98
        0
  0
HATCH
  5
3F0
330
3ED
100
AcDbEntity
  8
Default
  6
Continuous
 62
   136
370
     9
100
AcDbHatch
 10
0.0
 20
0.0
 30
0.0
210
0.0
220
0.0
230
1.0
  2
SOLID
 70
     1
 71
     0
 91
        1
 92
        1
 93
        3
 72
     1
 10
1445.06035294031
 20
1022.306427466046
 11
1445.06035294031
 21
1026.83976085948
 72
     1
 10
1445.06035294031
 20
1026.83976085948
 11
1431.460352760006
 21
1024.573094162763
 72
     1
 10
1431.460352760006
 20
1024.573094162763
 11
1445.06035294031
 21
1022.306427466046
 97
        0
 75
     0
 76
     1
 98
        0
  0
LINE
  5
3F1
330
3ED
100
AcDbEntity
  8
Default
  6
Continuous
 62
   136
370
     9
100
AcDbLine
 10
1381.46035276
 20
1277.3409410824
 30
0.0
 11
1381.46035276
 21
1016.5730937828
 31
0.0
  0
LINE
  5
3F2
330
3ED
100
AcDbEntity
  8
Default
  6
Continuous
 62
   136
370
     9
100
AcDbLine
 10
1431.46035276
 20
1262.3409410824
 30
0.0
 11
1431.46035276
 21
1016.5730937828
 31
0.0
  0
LINE
  5
3F3
330
3ED
100
AcDbEntity
  8
Default
  6
Continuous
 62
   136
370
     9
100
AcDbLine
 10
1354.2603523994
 20
1024.5730941628
 30
0.0
 11
1458.6603557283
 21
1024.5730941628
 31
0.0
  0
TEXT
  5
3F4
330
3ED
100
AcDbEntity
  8
Default
  6
Continuous
 62
   136
370
     9
100
AcDbText
 10
1393.9386140021
 20
1028.5730941628
 30
0.0
 40
16.0
  1
50
  7
SEACAD_arial_ttf
 11
1393.9386140021
 21
1044.5730941628
 31
0.0
100
AcDbText
 73
     3
  0
ENDBLK
  5
3F6
330
3ED
100
AcDbEntity
  8
0
100
AcDbBlockEnd
  0
BLOCK
  5
3FF
330
3F7
100
AcDbEntity
  8
0
100
AcDbBlockBegin
  2
GDimGGroup9
 70
     0
 71
     0
 10
0.0
 20
0.0
 30
0.0
  3
GDimGGroup9
  1

  0
HATCH
  5
3F9
330
3F7
100
AcDbEntity
  8
Default
  6
Continuous
 62
   136
370
     9
100
AcDbHatch
 10
0.0
 20
0.0
 30
0.0
210
0.0
220
0.0
230
1.0
  2
SOLID
 70
     1
 71
     0
 91
        1
 92
        1
 93
        3
 72
     1
 10
397.6987642238361
 20
909.0278723960183
 11
384.098764043532
 21
906.761205699301
 72
     1
 10
384.098764043532
 20
906.761205699301
 11
397.6987642238361
 21
904.4945390025836
 72
     1
 10
397.6987642238361
 20
904.4945390025836
 11
397.6987642238361
 21
909.0278723960183
 97
        0
 75
     0
 76
     1
 98
        0
  0
HATCH
  5
3FA
330
3F7
100
AcDbEntity
  8
Default
  6
Continuous
 62
   136
370
     9
100
AcDbHatch
 10
0.0
 20
0.0
 30
0.0
210
0.0
220
0.0
230
1.0
  2
SOLID
 70
     1
 71
     0
 91
        1
 92
        1
 93
        3
 72
     1
 10
480.8178567329866
 20
909.0278723960183
 11
480.8178567329866
 21
904.4945390025836
 72
     1
 10
480.8178567329866
 20
904.4945390025836
 11
494.4178569132906
 21
906.761205699301
 72
     1
 10
494.4178569132906
 20
906.761205699301
 11
480.8178567329866
 21
909.0278723960183
 97
        0
 75
     0
 76
     1
 98
        0
  0
LINE
  5
3FB
330
3F7
100
AcDbEntity
  8
Default
  6
Continuous
 62
   136
370
     9
100
AcDbLine
 10
384.0987640435
 20
878.8006212004
 30
0.0
 11
384.0987640435
 21
914.7612060793
 31
0.0
  0
LINE
  5
3FC
330
3F7
100
AcDbEntity
  8
Default
  6
Continuous
 62
   136
370
     9
100
AcDbLine
 10
494.4178593312
 20
879.0615837355
 30
0.0
 11
494.4178593312
 21
914.7612060793
 31
0.0
  0
LINE
  5
3FD
330
3F7
100
AcDbEntity
  8
Default
  6
Continuous
 62
   136
370
     9
100
AcDbLine
 10
384.0987640435
 20
906.7612056993
 30
0.0
 11
494.4178569133
 21
906.7612056993
 31
0.0
  0
TEXT
  5
3FE
330
3F7
100
AcDbEntity
  8
Default
  6
Continuous
 62
   136
370
     9
100
AcDbText
 10
420.4757017828
 20
910.7612056993
 30
0.0
 40
16.0
  1
110
  7
SEACAD_arial_ttf
 11
420.4757017828
 21
926.7612056993
 31
0.0
100
AcDbText
 73
     3
  0
ENDBLK
  5
400
330
3F7
100
AcDbEntity
  8
0
100
AcDbBlockEnd
  0
BLOCK
  5
409
330
401
100
AcDbEntity
  8
0
100
AcDbBlockBegin
  2
GDimGGroup10
 70
     0
 71
     0
 10
0.0
 20
0.0
 30
0.0
  3
GDimGGroup10
  1

  0
HATCH
  5
403
330
401
100
AcDbEntity
  8
Default
  6
Continuous
 62
   136
370
     9
100
AcDbHatch
 10
0.0
 20
0.0
 30
0.0
210
0.0
220
0.0
230
1.0
  2
SOLID
 70
     1
 71
     0
 91
        1
 92
        1
 93
        3
 72
     1
 10
677.6469158133309
 20
911.3406726734705
 11
664.0469156330269
 21
909.0740059767531
 72
     1
 10
664.0469156330269
 20
909.0740059767531
 11
677.6469158133309
 21
906.8073392800358
 72
     1
 10
677.6469158133309
 20
906.8073392800358
 11
677.6469158133309
 21
911.3406726734705
 97
        0
 75
     0
 76
     1
 98
        0
  0
HATCH
  5
404
330
401
100
AcDbEntity
  8
Default
  6
Continuous
 62
   136
370
     9
100
AcDbHatch
 10
0.0
 20
0.0
 30
0.0
210
0.0
220
0.0
230
1.0
  2
SOLID
 70
     1
 71
     0
 91
        1
 92
        1
 93
        3
 72
     1
 10
760.7660083224814
 20
911.3406726734705
 11
760.7660083224814
 21
906.8073392800358
 72
     1
 10
760.7660083224814
 20
906.8073392800358
 11
774.3660085027855
 21
909.0740059767531
 72
     1
 10
774.3660085027855
 20
909.0740059767531
 11
760.7660083224814
 21
911.3406726734705
 97
        0
 75
     0
 76
     1
 98
        0
  0
LINE
  5
405
330
401
100
AcDbEntity
  8
Default
  6
Continuous
 62
   136
370
     9
100
AcDbLine
 10
664.046915633
 20
879.0615837355
 30
0.0
 11
664.046915633
 21
917.0740063567
 31
0.0
  0
LINE
  5
406
330
401
100
AcDbEntity
  8
Default
  6
Continuous
 62
   136
370
     9
100
AcDbLine
 10
774.3660109207
 20
878.8006212004
 30
0.0
 11
774.3660109207
 21
917.0740063567
 31
0.0
  0
LINE
  5
407
330
401
100
AcDbEntity
  8
Default
  6
Continuous
 62
   136
370
     9
100
AcDbLine
 10
664.046915633
 20
909.0740059768
 30
0.0
 11
774.3660085028
 21
909.0740059768
 31
0.0
  0
TEXT
  5
408
330
401
100
AcDbEntity
  8
Default
  6
Continuous
 62
   136
370
     9
100
AcDbText
 10
700.4238533723
 20
913.0740059768
 30
0.0
 40
16.0
  1
110
  7
SEACAD_arial_ttf
 11
700.4238533723
 21
929.0740059768
 31
0.0
100
AcDbText
 73
     3
  0
ENDBLK
  5
40A
330
401
100
AcDbEntity
  8
0
100
AcDbBlockEnd
  0
BLOCK
  5
413
330
40B
100
AcDbEntity
  8
0
100
AcDbBlockBegin
  2
GDimGGroup11
 70
     0
 71
     0
 10
0.0
 20
0.0
 30
0.0
  3
GDimGGroup11
  1

  0
HATCH
  5
40D
330
40B
100
AcDbEntity
  8
Default
  6
Continuous
 62
   136
370
     9
100
AcDbHatch
 10
0.0
 20
0.0
 30
0.0
210
0.0
220
0.0
230
1.0
  2
SOLID
 70
     1
 71
     0
 91
        1
 92
        1
 93
        3
 72
     1
 10
388.080712502606
 20
984.4703329076702
 11
374.4807123223019
 21
982.2036662109529
 72
     1
 10
374.4807123223019
 20
982.2036662109529
 11
388.080712502606
 21
979.9369995142355
 72
     1
 10
388.080712502606
 20
979.9369995142355
 11
388.080712502606
 21
984.4703329076702
 97
        0
 75
     0
 76
     1
 98
        0
  0
HATCH
  5
40E
330
40B
100
AcDbEntity
  8
Default
  6
Continuous
 62
   136
370
     9
100
AcDbHatch
 10
0.0
 20
0.0
 30
0.0
210
0.0
220
0.0
230
1.0
  2
SOLID
 70
     1
 71
     0
 91
        1
 92
        1
 93
        3
 72
     1
 10
770.3840528631283
 20
984.4703329076702
 11
770.3840528631283
 21
979.9369995142355
 72
     1
 10
770.3840528631283
 20
979.9369995142355
 11
783.9840530434324
 21
982.2036662109529
 72
     1
 10
783.9840530434324
 20
982.2036662109529
 11
770.3840528631283
 21
984.4703329076702
 97
        0
 75
     0
 76
     1
 98
        0
  0
LINE
  5
40F
330
40B
100
AcDbEntity
  8
Default
  6
Continuous
 62
   136
370
     9
100
AcDbLine
 10
374.4807123223
 20
695.2772616379
 30
0.0
 11
374.4807123223
 21
990.2036665909
 31
0.0
  0
LINE
  5
410
330
40B
100
AcDbEntity
  8
Default
  6
Continuous
 62
   136
370
     9
100
AcDbLine
 10
783.9840626419
 20
695.2772616379
 30
0.0
 11
783.9840626419
 21
990.2036665909
 31
0.0
  0
LINE
  5
411
330
40B
100
AcDbEntity
  8
Default
  6
Continuous
 62
   136
370
     9
100
AcDbLine
 10
374.4807123223
 20
982.203666211
 30
0.0
 11
783.9840530434
 21
982.203666211
 31
0.0
  0
TEXT
  5
412
330
40B
100
AcDbEntity
  8
Default
  6
Continuous
 62
   136
370
     9
100
AcDbText
 10
560.4497739872
 20
986.203666211
 30
0.0
 40
16.0
  1
410
  7
SEACAD_arial_ttf
 11
560.4497739872
 21
1002.203666211
 31
0.0
100
AcDbText
 73
     3
  0
ENDBLK
  5
414
330
40B
100
AcDbEntity
  8
0
100
AcDbBlockEnd
  0
BLOCK
  5
41D
330
415
100
AcDbEntity
  8
0
100
AcDbBlockBegin
  2
GDimGGroup12
 70
     0
 71
     0
 10
0.0
 20
0.0
 30
0.0
  3
GDimGGroup12
  1

  0
HATCH
  5
417
330
415
100
AcDbEntity
  8
Default
  6
Continuous
 62
   136
370
     9
100
AcDbHatch
 10
0.0
 20
0.0
 30
0.0
210
0.0
220
0.0
230
1.0
  2
SOLID
 70
     1
 71
     0
 91
        1
 92
        1
 93
        3
 72
     1
 10
295.170504654837
 20
889.1389412194688
 11
297.4371713515544
 21
875.5389410391648
 72
     1
 10
297.4371713515544
 20
875.5389410391648
 11
299.7038380482717
 21
889.1389412194688
 72
     1
 10
299.7038380482717
 20
889.1389412194688
 11
295.170504654837
 21
889.1389412194688
 97
        0
 75
     0
 76
     1
 98
        0
  0
HATCH
  5
418
330
415
100
AcDbEntity
  8
Default
  6
Continuous
 62
   136
370
     9
100
AcDbHatch
 10
0.0
 20
0.0
 30
0.0
210
0.0
220
0.0
230
1.0
  2
SOLID
 70
     1
 71
     0
 91
        1
 92
        1
 93
        3
 72
     1
 10
295.170504654837
 20
821.9389408588606
 11
299.7038380482717
 21
821.9389408588606
 72
     1
 10
299.7038380482717
 20
821.9389408588606
 11
297.4371713515544
 21
835.5389410391647
 72
     1
 10
297.4371713515544
 20
835.5389410391647
 11
295.170504654837
 21
821.9389408588606
 97
        0
 75
     0
 76
     1
 98
        0
  0
LINE
  5
419
330
415
100
AcDbEntity
  8
Default
  6
Continuous
 62
   136
370
     9
100
AcDbLine
 10
399.5368889462
 20
875.5389410392
 30
0.0
 11
289.4371709716
 21
875.5389410392
 31
0.0
  0
LINE
  5
41A
330
415
100
AcDbEntity
  8
Default
  6
Continuous
 62
   136
370
     9
100
AcDbLine
 10
494.653459328
 20
835.5389410392
 30
0.0
 11
289.4371709716
 21
835.5389410392
 31
0.0
  0
LINE
  5
41B
330
415
100
AcDbEntity
  8
Default
  6
Continuous
 62
   136
370
     9
100
AcDbLine
 10
297.4371713516
 20
902.7389413998
 30
0.0
 11
297.4371713516
 21
808.3389434353
 31
0.0
  0
TEXT
  5
41C
330
415
100
AcDbEntity
  8
Default
  6
Continuous
 62
   136
370
     9
100
AcDbText
 10
293.4371713516
 20
843.0172023558
 30
0.0
 40
16.0
  1
40
 50
90.0
  7
SEACAD_arial_ttf
 11
277.4371713516
 21
843.0172023558
 31
0.0
100
AcDbText
 73
     3
  0
ENDBLK
  5
41E
330
415
100
AcDbEntity
  8
0
100
AcDbBlockEnd
  0
BLOCK
  5
427
330
41F
100
AcDbEntity
  8
0
100
AcDbBlockBegin
  2
GDimGGroup13
 70
     0
 71
     0
 10
0.0
 20
0.0
 30
0.0
  3
GDimGGroup13
  1

  0
HATCH
  5
421
330
41F
100
AcDbEntity
  8
Default
  6
Continuous
 62
   136
370
     9
100
AcDbHatch
 10
0.0
 20
0.0
 30
0.0
210
0.0
220
0.0
230
1.0
  2
SOLID
 70
     1
 71
     0
 91
        1
 92
        1
 93
        3
 72
     1
 10
421.1368895065212
 20
570.7683977343786
 11
407.5368893262171
 21
568.5017310376612
 72
     1
 10
407.5368893262171
 20
568.5017310376612
 11
421.1368895065212
 21
566.2350643409438
 72
     1
 10
421.1368895065212
 20
566.2350643409438
 11
421.1368895065212
 21
570.7683977343786
 97
        0
 75
     0
 76
     1
 98
        0
  0
HATCH
  5
422
330
41F
100
AcDbEntity
  8
Default
  6
Continuous
 62
   136
370
     9
100
AcDbHatch
 10
0.0
 20
0.0
 30
0.0
210
0.0
220
0.0
230
1.0
  2
SOLID
 70
     1
 71
     0
 91
        1
 92
        1
 93
        3
 72
     1
 10
737.3278903704309
 20
570.7683977343786
 11
737.3278903704309
 21
566.2350643409438
 72
     1
 10
737.3278903704309
 20
566.2350643409438
 11
750.9278905507349
 21
568.5017310376612
 72
     1
 10
750.9278905507349
 20
568.5017310376612
 11
737.3278903704309
 21
570.7683977343786
 97
        0
 75
     0
 76
     1
 98
        0
  0
LINE
  5
423
330
41F
100
AcDbEntity
  8
Default
  6
Continuous
 62
   136
370
     9
100
AcDbLine
 10
407.5368893262
 20
476.1963231783
 30
0.0
 11
407.5368893262
 21
576.5017314176
 31
0.0
  0
LINE
  5
424
330
41F
100
AcDbEntity
  8
Default
  6
Continuous
 62
   136
370
     9
100
AcDbLine
 10
750.927885638
 20
476.1963231783
 30
0.0
 11
750.927885638
 21
576.5017314176
 31
0.0
  0
LINE
  5
425
330
41F
100
AcDbEntity
  8
Default
  6
Continuous
 62
   136
370
     9
100
AcDbLine
 10
407.5368893262
 20
568.5017310377
 30
0.0
 11
750.9278905507
 21
568.5017310377
 31
0.0
  0
TEXT
  5
426
330
41F
100
AcDbEntity
  8
Default
  6
Continuous
 62
   136
370
     9
100
AcDbText
 10
560.4497812428
 20
572.5017310377
 30
0.0
 40
16.0
  1
343
  7
SEACAD_arial_ttf
 11
560.4497812428
 21
588.5017310377
 31
0.0
100
AcDbText
 73
     3
  0
ENDBLK
  5
428
330
41F
100
AcDbEntity
  8
0
100
AcDbBlockEnd
  0
BLOCK
  5
431
330
429
100
AcDbEntity
  8
0
100
AcDbBlockBegin
  2
GDimGGroup14
 70
     0
 71
     0
 10
0.0
 20
0.0
 30
0.0
  3
GDimGGroup14
  1

  0
HATCH
  5
42B
330
429
100
AcDbEntity
  8
Default
  6
Continuous
 62
   136
370
     9
100
AcDbHatch
 10
0.0
 20
0.0
 30
0.0
210
0.0
220
0.0
230
1.0
  2
SOLID
 70
     1
 71
     0
 91
        1
 92
        1
 93
        3
 72
     1
 10
916.9815298642329
 20
454.5963226179925
 11
914.7148631675155
 21
468.1963227982966
 72
     1
 10
914.7148631675155
 20
468.1963227982966
 11
912.4481964707982
 21
454.5963226179925
 72
     1
 10
912.4481964707982
 20
454.5963226179925
 11
916.9815298642329
 21
454.5963226179925
 97
        0
 75
     0
 76
     1
 98
        0
  0
HATCH
  5
42C
330
429
100
AcDbEntity
  8
Default
  6
Continuous
 62
   136
370
     9
100
AcDbHatch
 10
0.0
 20
0.0
 30
0.0
210
0.0
220
0.0
230
1.0
  2
SOLID
 70
     1
 71
     0
 91
        1
 92
        1
 93
        3
 72
     1
 10
916.9815298642329
 20
258.4053265224544
 11
912.4481964707982
 21
258.4053265224544
 72
     1
 10
912.4481964707982
 20
258.4053265224544
 11
914.7148631675155
 21
244.8053263421504
 72
     1
 10
914.7148631675155
 20
244.8053263421504
 11
916.9815298642329
 21
258.4053265224544
 97
        0
 75
     0
 76
     1
 98
        0
  0
LINE
  5
42D
330
429
100
AcDbEntity
  8
Default
  6
Continuous
 62
   136
370
     9
100
AcDbLine
 10
758.927886018
 20
468.1963227983
 30
0.0
 11
922.7148635475
 21
468.1963227983
 31
0.0
  0
LINE
  5
42E
330
429
100
AcDbEntity
  8
Default
  6
Continuous
 62
   136
370
     9
100
AcDbLine
 10
758.927886018
 20
244.8053264865
 30
0.0
 11
922.7148635475
 21
244.8053264865
 31
0.0
  0
LINE
  5
42F
330
429
100
AcDbEntity
  8
Default
  6
Continuous
 62
   136
370
     9
100
AcDbLine
 10
914.7148631675
 20
468.1963227983
 30
0.0
 11
914.7148631675
 21
244.8053263422
 31
0.0
  0
TEXT
  5
430
330
429
100
AcDbEntity
  8
Default
  6
Continuous
 62
   136
370
     9
100
AcDbText
 10
910.7148631675
 20
337.7182158746
 30
0.0
 40
16.0
  1
223
 50
90.0
  7
SEACAD_arial_ttf
 11
894.7148631675
 21
337.7182158746
 31
0.0
100
AcDbText
 73
     3
  0
ENDBLK
  5
432
330
429
100
AcDbEntity
  8
0
100
AcDbBlockEnd
  0
BLOCK
  5
43B
330
433
100
AcDbEntity
  8
0
100
AcDbBlockBegin
  2
GDimGGroup15
 70
     0
 71
     0
 10
0.0
 20
0.0
 30
0.0
  3
GDimGGroup15
  1

  0
HATCH
  5
435
330
433
100
AcDbEntity
  8
Default
  6
Continuous
 62
   136
370
     9
100
AcDbHatch
 10
0.0
 20
0.0
 30
0.0
210
0.0
220
0.0
230
1.0
  2
SOLID
 70
     1
 71
     0
 91
        1
 92
        1
 93
        3
 72
     1
 10
508.0178595114842
 20
108.642905528197
 11
508.0178595114842
 21
113.1762389216317
 72
     1
 10
508.0178595114842
 20
113.1762389216317
 11
494.4178593311801
 21
110.9095722249144
 72
     1
 10
494.4178593311801
 20
110.9095722249144
 11
508.0178595114842
 21
108.642905528197
 97
        0
 75
     0
 76
     1
 98
        0
  0
HATCH
  5
436
330
433
100
AcDbEntity
  8
Default
  6
Continuous
 62
   136
370
     9
100
AcDbHatch
 10
0.0
 20
0.0
 30
0.0
210
0.0
220
0.0
230
1.0
  2
SOLID
 70
     1
 71
     0
 91
        1
 92
        1
 93
        3
 72
     1
 10
650.4469114322558
 20
108.642905528197
 11
664.0469116125598
 21
110.9095722249144
 72
     1
 10
664.0469116125598
 20
110.9095722249144
 11
650.4469114322558
 21
113.1762389216317
 72
     1
 10
650.4469114322558
 20
113.1762389216317
 11
650.4469114322558
 21
108.642905528197
 97
        0
 75
     0
 76
     1
 98
        0
  0
LINE
  5
437
330
433
100
AcDbEntity
  8
Default
  6
Continuous
 62
   136
370
     9
100
AcDbLine
 10
494.4178593312
 20
227.3328373021
 30
0.0
 11
494.4178593312
 21
102.9095718449
 31
0.0
  0
LINE
  5
438
330
433
100
AcDbEntity
  8
Default
  6
Continuous
 62
   136
370
     9
100
AcDbLine
 10
664.046915633
 20
227.3328373021
 30
0.0
 11
664.046915633
 21
102.9095718449
 31
0.0
  0
LINE
  5
439
330
433
100
AcDbEntity
  8
Default
  6
Continuous
 62
   136
370
     9
100
AcDbLine
 10
494.4178593312
 20
110.9095722249
 30
0.0
 11
664.0469116126
 21
110.9095722249
 31
0.0
  0
TEXT
  5
43A
330
433
100
AcDbEntity
  8
Default
  6
Continuous
 62
   136
370
     9
100
AcDbText
 10
560.4497767762
 20
114.9095722249
 30
0.0
 40
16.0
  1
170
  7
SEACAD_arial_ttf
 11
560.4497767762
 21
130.9095722249
 31
0.0
100
AcDbText
 73
     3
  0
ENDBLK
  5
43C
330
433
100
AcDbEntity
  8
0
100
AcDbBlockEnd
  0
BLOCK
  5
445
330
43D
100
AcDbEntity
  8
0
100
AcDbBlockBegin
  2
GDimGGroup16
 70
     0
 71
     0
 10
0.0
 20
0.0
 30
0.0
  3
GDimGGroup16
  1

  0
HATCH
  5
43F
330
43D
100
AcDbEntity
  8
Default
  6
Continuous
 62
   136
370
     9
100
AcDbHatch
 10
0.0
 20
0.0
 30
0.0
210
0.0
220
0.0
230
1.0
  2
SOLID
 70
     1
 71
     0
 91
        1
 92
        1
 93
        3
 72
     1
 10
295.0273292489119
 20
696.1389412194687
 11
297.2939959456293
 21
682.5389410391647
 72
     1
 10
297.2939959456293
 20
682.5389410391647
 11
299.5606626423466
 21
696.1389412194687
 72
     1
 10
299.5606626423466
 20
696.1389412194687
 11
295.0273292489119
 21
696.1389412194687
 97
        0
 75
     0
 76
     1
 98
        0
  0
HATCH
  5
440
330
43D
100
AcDbEntity
  8
Default
  6
Continuous
 62
   136
370
     9
100
AcDbHatch
 10
0.0
 20
0.0
 30
0.0
210
0.0
220
0.0
230
1.0
  2
SOLID
 70
     1
 71
     0
 91
        1
 92
        1
 93
        3
 72
     1
 10
295.0273292489119
 20
656.9389408588606
 11
299.5606626423466
 21
656.9389408588606
 72
     1
 10
299.5606626423466
 20
656.9389408588606
 11
297.2939959456293
 21
670.5389410391647
 72
     1
 10
297.2939959456293
 20
670.5389410391647
 11
295.0273292489119
 21
656.9389408588606
 97
        0
 75
     0
 76
     1
 98
        0
  0
LINE
  5
441
330
43D
100
AcDbEntity
  8
Default
  6
Continuous
 62
   136
370
     9
100
AcDbLine
 10
342.7323871021
 20
682.5389410392
 30
0.0
 11
289.2939955656
 21
682.5389410392
 31
0.0
  0
LINE
  5
442
330
43D
100
AcDbEntity
  8
Default
  6
Continuous
 62
   136
370
     9
100
AcDbLine
 10
347.7323871021
 20
670.5389410392
 30
0.0
 11
289.2939955656
 21
670.5389410392
 31
0.0
  0
LINE
  5
443
330
43D
100
AcDbEntity
  8
Default
  6
Continuous
 62
   136
370
     9
100
AcDbLine
 10
297.2939959456
 20
752.5346572533
 30
0.0
 11
297.2939959456
 21
643.3389405742
 31
0.0
  0
TEXT
  5
444
330
43D
100
AcDbEntity
  8
Default
  6
Continuous
 62
   136
370
     9
100
AcDbText
 10
293.2939959456
 20
721.8911812797
 30
0.0
 40
16.0
  1
12
 50
90.0
  7
SEACAD_arial_ttf
 11
277.2939959456
 21
721.8911812797
 31
0.0
100
AcDbText
 73
     3
  0
ENDBLK
  5
446
330
43D
100
AcDbEntity
  8
0
100
AcDbBlockEnd
  0
BLOCK
  5
44F
330
447
100
AcDbEntity
  8
0
100
AcDbBlockBegin
  2
GDimGGroup17
 70
     0
 71
     0
 10
0.0
 20
0.0
 30
0.0
  3
GDimGGroup17
  1

  0
HATCH
  5
449
330
447
100
AcDbEntity
  8
Default
  6
Continuous
 62
   136
370
     9
100
AcDbHatch
 10
0.0
 20
0.0
 30
0.0
210
0.0
220
0.0
230
1.0
  2
SOLID
 70
     1
 71
     0
 91
        1
 92
        1
 93
        3
 72
     1
 10
915.87908194998
 20
861.9389408588607
 11
913.6124152532626
 21
875.5389410391648
 72
     1
 10
913.6124152532626
 20
875.5389410391648
 11
911.3457485565452
 21
861.9389408588607
 72
     1
 10
911.3457485565452
 20
861.9389408588607
 11
915.87908194998
 21
861.9389408588607
 97
        0
 75
     0
 76
     1
 98
        0
  0
HATCH
  5
44A
330
447
100
AcDbEntity
  8
Default
  6
Continuous
 62
   136
370
     9
100
AcDbHatch
 10
0.0
 20
0.0
 30
0.0
210
0.0
220
0.0
230
1.0
  2
SOLID
 70
     1
 71
     0
 91
        1
 92
        1
 93
        3
 72
     1
 10
915.87908194998
 20
684.1389430076082
 11
911.3457485565452
 21
684.1389430076082
 72
     1
 10
911.3457485565452
 20
684.1389430076082
 11
913.6124152532626
 21
670.5389428273041
 72
     1
 10
913.6124152532626
 20
670.5389428273041
 11
915.87908194998
 21
684.1389430076082
 97
        0
 75
     0
 76
     1
 98
        0
  0
LINE
  5
44B
330
447
100
AcDbEntity
  8
Default
  6
Continuous
 62
   136
370
     9
100
AcDbLine
 10
767.3865679494
 20
875.5389410392
 30
0.0
 11
921.6124156332
 21
875.5389410392
 31
0.0
  0
LINE
  5
44C
330
447
100
AcDbEntity
  8
Default
  6
Continuous
 62
   136
370
     9
100
AcDbLine
 10
810.7323878621
 20
670.5389410392
 30
0.0
 11
921.6124156332
 21
670.5389410392
 31
0.0
  0
LINE
  5
44D
330
447
100
AcDbEntity
  8
Default
  6
Continuous
 62
   136
370
     9
100
AcDbLine
 10
913.6124152533
 20
875.5389410392
 30
0.0
 11
913.6124152533
 21
670.5389428273
 31
0.0
  0
TEXT
  5
44E
330
447
100
AcDbEntity
  8
Default
  6
Continuous
 62
   136
370
     9
100
AcDbText
 10
909.6124152533
 20
754.2563332376
 30
0.0
 40
16.0
  1
205
 50
90.0
  7
SEACAD_arial_ttf
 11
893.6124152533
 21
754.2563332376
 31
0.0
100
AcDbText
 73
     3
  0
ENDBLK
  5
450
330
447
100
AcDbEntity
  8
0
100
AcDbBlockEnd
  0
BLOCK
  5
459
330
451
100
AcDbEntity
  8
0
100
AcDbBlockBegin
  2
GDimGGroup18
 70
     0
 71
     0
 10
0.0
 20
0.0
 30
0.0
  3
GDimGGroup18
  1

  0
HATCH
  5
453
330
451
100
AcDbEntity
  8
Default
  6
Continuous
 62
   136
370
     9
100
AcDbHatch
 10
0.0
 20
0.0
 30
0.0
210
0.0
220
0.0
230
1.0
  2
SOLID
 70
     1
 71
     0
 91
        1
 92
        1
 93
        3
 72
     1
 10
359.3323876624075
 20
108.6429031153325
 11
359.3323876624075
 21
113.1762365087671
 72
     1
 10
359.3323876624075
 20
113.1762365087671
 11
345.7323874821034
 21
110.9095698120498
 72
     1
 10
345.7323874821034
 20
110.9095698120498
 11
359.3323876624075
 21
108.6429031153325
 97
        0
 75
     0
 76
     1
 98
        0
  0
HATCH
  5
454
330
451
100
AcDbEntity
  8
Default
  6
Continuous
 62
   136
370
     9
100
AcDbHatch
 10
0.0
 20
0.0
 30
0.0
210
0.0
220
0.0
230
1.0
  2
SOLID
 70
     1
 71
     0
 91
        1
 92
        1
 93
        3
 72
     1
 10
480.8178575252262
 20
108.6429031153325
 11
494.4178577055303
 21
110.9095698120498
 72
     1
 10
494.4178577055303
 20
110.9095698120498
 11
480.8178575252262
 21
113.1762365087671
 72
     1
 10
480.8178575252262
 20
113.1762365087671
 11
480.8178575252262
 21
108.6429031153325
 97
        0
 75
     0
 76
     1
 98
        0
  0
LINE
  5
455
330
451
100
AcDbEntity
  8
Default
  6
Continuous
 62
   136
370
     9
100
AcDbLine
 10
345.7323874821
 20
206.0008242624
 30
0.0
 11
345.7323874821
 21
102.9095694321
 31
0.0
  0
LINE
  5
456
330
451
100
AcDbEntity
  8
Default
  6
Continuous
 62
   136
370
     9
100
AcDbLine
 10
494.4178593312
 20
227.3328373021
 30
0.0
 11
494.4178593312
 21
102.9095694321
 31
0.0
  0
LINE
  5
457
330
451
100
AcDbEntity
  8
Default
  6
Continuous
 62
   136
370
     9
100
AcDbLine
 10
345.7323874821
 20
110.909569812
 30
0.0
 11
494.4178577055
 21
110.909569812
 31
0.0
  0
TEXT
  5
458
330
451
100
AcDbEntity
  8
Default
  6
Continuous
 62
   136
370
     9
100
AcDbText
 10
401.2925138982
 20
114.909569812
 30
0.0
 40
16.0
  1
149
  7
SEACAD_arial_ttf
 11
401.2925138982
 21
130.909569812
 31
0.0
100
AcDbText
 73
     3
  0
ENDBLK
  5
45A
330
451
100
AcDbEntity
  8
0
100
AcDbBlockEnd
  0
BLOCK
  5
463
330
45B
100
AcDbEntity
  8
0
100
AcDbBlockBegin
  2
GDimGGroup19
 70
     0
 71
     0
 10
0.0
 20
0.0
 30
0.0
  3
GDimGGroup19
  1

  0
HATCH
  5
45D
330
45B
100
AcDbEntity
  8
Default
  6
Continuous
 62
   136
370
     9
100
AcDbHatch
 10
0.0
 20
0.0
 30
0.0
210
0.0
220
0.0
230
1.0
  2
SOLID
 70
     1
 71
     0
 91
        1
 92
        1
 93
        3
 72
     1
 10
799.1323873017994
 20
108.6429031153325
 11
812.7323874821035
 21
110.9095698120498
 72
     1
 10
812.7323874821035
 20
110.9095698120498
 11
799.1323873017994
 21
113.1762365087672
 72
     1
 10
799.1323873017994
 20
113.1762365087672
 11
799.1323873017994
 21
108.6429031153325
 97
        0
 75
     0
 76
     1
 98
        0
  0
HATCH
  5
45E
330
45B
100
AcDbEntity
  8
Default
  6
Continuous
 62
   136
370
     9
100
AcDbHatch
 10
0.0
 20
0.0
 30
0.0
210
0.0
220
0.0
230
1.0
  2
SOLID
 70
     1
 71
     0
 91
        1
 92
        1
 93
        3
 72
     1
 10
677.6469174389807
 20
108.6429031153325
 11
677.6469174389807
 21
113.1762365087672
 72
     1
 10
677.6469174389807
 20
113.1762365087672
 11
664.0469172586767
 21
110.9095698120498
 72
     1
 10
664.0469172586767
 20
110.9095698120498
 11
677.6469174389807
 21
108.6429031153325
 97
        0
 75
     0
 76
     1
 98
        0
  0
LINE
  5
45F
330
45B
100
AcDbEntity
  8
Default
  6
Continuous
 62
   136
370
     9
100
AcDbLine
 10
812.7323874821
 20
206.0008242624
 30
0.0
 11
812.7323874821
 21
102.9095694321
 31
0.0
  0
LINE
  5
460
330
45B
100
AcDbEntity
  8
Default
  6
Continuous
 62
   136
370
     9
100
AcDbLine
 10
664.046915633
 20
227.3328373021
 30
0.0
 11
664.046915633
 21
102.9095694321
 31
0.0
  0
LINE
  5
461
330
45B
100
AcDbEntity
  8
Default
  6
Continuous
 62
   136
370
     9
100
AcDbLine
 10
812.7323874821
 20
110.909569812
 30
0.0
 11
664.0469172587
 21
110.909569812
 31
0.0
  0
TEXT
  5
462
330
45B
100
AcDbEntity
  8
Default
  6
Continuous
 62
   136
370
     9
100
AcDbText
 10
719.6070436747
 20
114.909569812
 30
0.0
 40
16.0
  1
149
  7
SEACAD_arial_ttf
 11
719.6070436747
 21
130.909569812
 31
0.0
100
AcDbText
 73
     3
  0
ENDBLK
  5
464
330
45B
100
AcDbEntity
  8
0
100
AcDbBlockEnd
  0
BLOCK
  5
46D
330
465
100
AcDbEntity
  8
0
100
AcDbBlockBegin
  2
GDimGGroup20
 70
     0
 71
     0
 10
0.0
 20
0.0
 30
0.0
  3
GDimGGroup20
  1

  0
HATCH
  5
467
330
465
100
AcDbEntity
  8
Default
  6
Continuous
 62
   136
370
     9
100
AcDbHatch
 10
0.0
 20
0.0
 30
0.0
210
0.0
220
0.0
230
1.0
  2
SOLID
 70
     1
 71
     0
 91
        1
 92
        1
 93
        3
 72
     1
 10
1227.058347982628
 20
1148.807318204071
 11
1229.325014679345
 21
1135.207318023767
 72
     1
 10
1229.325014679345
 20
1135.207318023767
 11
1231.591681376063
 21
1148.807318204071
 72
     1
 10
1231.591681376063
 20
1148.807318204071
 11
1227.058347982628
 21
1148.807318204071
 97
        0
 75
     0
 76
     1
 98
        0
  0
HATCH
  5
468
330
465
100
AcDbEntity
  8
Default
  6
Continuous
 62
   136
370
     9
100
AcDbHatch
 10
0.0
 20
0.0
 30
0.0
210
0.0
220
0.0
230
1.0
  2
SOLID
 70
     1
 71
     0
 91
        1
 92
        1
 93
        3
 72
     1
 10
1227.058347982628
 20
1420.451357283618
 11
1231.591681376063
 21
1420.451357283618
 72
     1
 10
1231.591681376063
 20
1420.451357283618
 11
1229.325014679345
 21
1434.051357463922
 72
     1
 10
1229.325014679345
 20
1434.051357463922
 11
1227.058347982628
 21
1420.451357283618
 97
        0
 75
     0
 76
     1
 98
        0
  0
LINE
  5
469
330
465
100
AcDbEntity
  8
Default
  6
Continuous
 62
   136
370
     9
100
AcDbLine
 10
1378.1986725988
 20
1135.2073180238
 30
0.0
 11
1221.3250142994
 21
1135.2073180238
 31
0.0
  0
LINE
  5
46A
330
465
100
AcDbEntity
  8
Default
  6
Continuous
 62
   136
370
     9
100
AcDbLine
 10
1402.0011235446
 20
1434.0513623564
 30
0.0
 11
1221.3250142994
 21
1434.0513623564
 31
0.0
  0
LINE
  5
46B
330
465
100
AcDbEntity
  8
Default
  6
Continuous
 62
   136
370
     9
100
AcDbLine
 10
1229.3250146793
 20
1135.2073180238
 30
0.0
 11
1229.3250146793
 21
1434.0513574639
 31
0.0
  0
TEXT
  5
46C
330
465
100
AcDbEntity
  8
Default
  6
Continuous
 62
   136
370
     9
100
AcDbText
 10
1225.3250146793
 20
1265.8467290482
 30
0.0
 40
16.0
  1
299
 50
90.0
  7
SEACAD_arial_ttf
 11
1209.3250146793
 21
1265.8467290482
 31
0.0
100
AcDbText
 73
     3
  0
ENDBLK
  5
46E
330
465
100
AcDbEntity
  8
0
100
AcDbBlockEnd
  0
BLOCK
  5
477
330
46F
100
AcDbEntity
  8
0
100
AcDbBlockBegin
  2
GDimGGroup21
 70
     0
 71
     0
 10
0.0
 20
0.0
 30
0.0
  3
GDimGGroup21
  1

  0
HATCH
  5
471
330
46F
100
AcDbEntity
  8
Default
  6
Continuous
 62
   136
370
     9
100
AcDbHatch
 10
0.0
 20
0.0
 30
0.0
210
0.0
220
0.0
230
1.0
  2
SOLID
 70
     1
 71
     0
 91
        1
 92
        1
 93
        3
 72
     1
 10
1367.860352579702
 20
1070.306435333859
 11
1381.460352760006
 21
1072.573102030576
 72
     1
 10
1381.460352760006
 20
1072.573102030576
 11
1367.860352579702
 21
1074.839768727293
 72
     1
 10
1367.860352579702
 20
1074.839768727293
 11
1367.860352579702
 21
1070.306435333859
 97
        0
 75
     0
 76
     1
 98
        0
  0
HATCH
  5
472
330
46F
100
AcDbEntity
  8
Default
  6
Continuous
 62
   136
370
     9
100
AcDbHatch
 10
0.0
 20
0.0
 30
0.0
210
0.0
220
0.0
230
1.0
  2
SOLID
 70
     1
 71
     0
 91
        1
 92
        1
 93
        3
 72
     1
 10
1435.06035294031
 20
1070.306435333859
 11
1435.06035294031
 21
1074.839768727293
 72
     1
 10
1435.06035294031
 20
1074.839768727293
 11
1421.460352760006
 21
1072.573102030576
 72
     1
 10
1421.460352760006
 20
1072.573102030576
 11
1435.06035294031
 21
1070.306435333859
 97
        0
 75
     0
 76
     1
 98
        0
  0
LINE
  5
473
330
46F
100
AcDbEntity
  8
Default
  6
Continuous
 62
   136
370
     9
100
AcDbLine
 10
1381.46035276
 20
1277.3409410824
 30
0.0
 11
1381.46035276
 21
1064.5731016506
 31
0.0
  0
LINE
  5
474
330
46F
100
AcDbEntity
  8
Default
  6
Continuous
 62
   136
370
     9
100
AcDbLine
 10
1421.46035276
 20
1257.3409410824
 30
0.0
 11
1421.46035276
 21
1064.5731016506
 31
0.0
  0
LINE
  5
475
330
46F
100
AcDbEntity
  8
Default
  6
Continuous
 62
   136
370
     9
100
AcDbLine
 10
1354.2603523994
 20
1072.5731020306
 30
0.0
 11
1448.6603503639
 21
1072.5731020306
 31
0.0
  0
TEXT
  5
476
330
46F
100
AcDbEntity
  8
Default
  6
Continuous
 62
   136
370
     9
100
AcDbText
 10
1388.9386131825
 20
1076.5731020306
 30
0.0
 40
16.0
  1
40
  7
SEACAD_arial_ttf
 11
1388.9386131825
 21
1092.5731020306
 31
0.0
100
AcDbText
 73
     3
  0
ENDBLK
  5
478
330
46F
100
AcDbEntity
  8
0
100
AcDbBlockEnd
  0
BLOCK
  5
481
330
479
100
AcDbEntity
  8
0
100
AcDbBlockBegin
  2
GDimGGroup22
 70
     0
 71
     0
 10
0.0
 20
0.0
 30
0.0
  3
GDimGGroup22
  1

  0
HATCH
  5
47B
330
479
100
AcDbEntity
  8
Default
  6
Continuous
 62
   136
370
     9
100
AcDbHatch
 10
0.0
 20
0.0
 30
0.0
210
0.0
220
0.0
230
1.0
  2
SOLID
 70
     1
 71
     0
 91
        1
 92
        1
 93
        3
 72
     1
 10
546.6323873017994
 20
153.3416382432851
 11
560.2323874821035
 21
155.6083049400025
 72
     1
 10
560.2323874821035
 20
155.6083049400025
 11
546.6323873017994
 21
157.8749716367198
 72
     1
 10
546.6323873017994
 20
157.8749716367198
 11
546.6323873017994
 21
153.3416382432851
 97
        0
 75
     0
 76
     1
 98
        0
  0
HATCH
  5
47C
330
479
100
AcDbEntity
  8
Default
  6
Continuous
 62
   136
370
     9
100
AcDbHatch
 10
0.0
 20
0.0
 30
0.0
210
0.0
220
0.0
230
1.0
  2
SOLID
 70
     1
 71
     0
 91
        1
 92
        1
 93
        3
 72
     1
 10
611.8323876624075
 20
153.3416382432851
 11
611.8323876624075
 21
157.8749716367198
 72
     1
 10
611.8323876624075
 20
157.8749716367198
 11
598.2323874821035
 21
155.6083049400025
 72
     1
 10
598.2323874821035
 20
155.6083049400025
 11
611.8323876624075
 21
153.3416382432851
 97
        0
 75
     0
 76
     1
 98
        0
  0
LINE
  5
47D
330
479
100
AcDbEntity
  8
Default
  6
Continuous
 62
   136
370
     9
100
AcDbLine
 10
560.2323874821
 20
186.6712553201
 30
0.0
 11
560.2323874821
 21
147.60830456
 31
0.0
  0
LINE
  5
47E
330
479
100
AcDbEntity
  8
Default
  6
Continuous
 62
   136
370
     9
100
AcDbLine
 10
598.2323874821
 20
186.6712553201
 30
0.0
 11
598.2323874821
 21
147.60830456
 31
0.0
  0
LINE
  5
47F
330
479
100
AcDbEntity
  8
Default
  6
Continuous
 62
   136
370
     9
100
AcDbLine
 10
533.0323871215
 20
155.60830494
 30
0.0
 11
625.4323884835
 21
155.60830494
 31
0.0
  0
TEXT
  5
480
330
479
100
AcDbEntity
  8
Default
  6
Continuous
 62
   136
370
     9
100
AcDbText
 10
566.7106477407
 20
159.60830494
 30
0.0
 40
16.0
  1
38
  7
SEACAD_arial_ttf
 11
566.7106477407
 21
175.60830494
 31
0.0
100
AcDbText
 73
     3
  0
ENDBLK
  5
482
330
479
100
AcDbEntity
  8
0
100
AcDbBlockEnd
  0
BLOCK
  5
48B
330
483
100
AcDbEntity
  8
0
100
AcDbBlockBegin
  2
GDimGGroup23
 70
     0
 71
     0
 10
0.0
 20
0.0
 30
0.0
  3
GDimGGroup23
  1

  0
HATCH
  5
485
330
483
100
AcDbEntity
  8
Default
  6
Continuous
 62
   136
370
     9
100
AcDbHatch
 10
0.0
 20
0.0
 30
0.0
210
0.0
220
0.0
230
1.0
  2
SOLID
 70
     1
 71
     0
 91
        1
 92
        1
 93
        3
 72
     1
 10
1700.39090683066
 20
1365.104293735998
 11
1698.124240133943
 21
1378.704293916302
 72
     1
 10
1698.124240133943
 20
1378.704293916302
 11
1695.857573437226
 21
1365.104293735998
 72
     1
 10
1695.857573437226
 20
1365.104293735998
 11
1700.39090683066
 21
1365.104293735998
 97
        0
 75
     0
 76
     1
 98
        0
  0
HATCH
  5
486
330
483
100
AcDbEntity
  8
Default
  6
Continuous
 62
   136
370
     9
100
AcDbHatch
 10
0.0
 20
0.0
 30
0.0
210
0.0
220
0.0
230
1.0
  2
SOLID
 70
     1
 71
     0
 91
        1
 92
        1
 93
        3
 72
     1
 10
1700.39090683066
 20
1167.34973369755
 11
1695.857573437226
 21
1167.34973369755
 72
     1
 10
1695.857573437226
 20
1167.34973369755
 11
1698.124240133943
 21
1153.749733517246
 72
     1
 10
1698.124240133943
 20
1153.749733517246
 11
1700.39090683066
 21
1167.34973369755
 97
        0
 75
     0
 76
     1
 98
        0
  0
LINE
  5
487
330
483
100
AcDbEntity
  8
Default
  6
Continuous
 62
   136
370
     9
100
AcDbLine
 10
1457.3697838746
 20
1378.7042939163
 30
0.0
 11
1706.1242405139
 21
1378.7042939163
 31
0.0
  0
LINE
  5
488
330
483
100
AcDbEntity
  8
Default
  6
Continuous
 62
   136
370
     9
100
AcDbLine
 10
1457.3697838746
 20
1153.7497409071
 30
0.0
 11
1706.1242405139
 21
1153.7497409071
 31
0.0
  0
LINE
  5
489
330
483
100
AcDbEntity
  8
Default
  6
Continuous
 62
   136
370
     9
100
AcDbLine
 10
1698.1242401339
 20
1378.7042939163
 30
0.0
 11
1698.1242401339
 21
1153.7497335172
 31
0.0
  0
TEXT
  5
48A
330
483
100
AcDbEntity
  8
Default
  6
Continuous
 62
   136
370
     9
100
AcDbText
 10
1694.1242401339
 20
1247.4444050211
 30
0.0
 40
16.0
  1
225
 50
90.0
  7
SEACAD_arial_ttf
 11
1678.1242401339
 21
1247.4444050211
 31
0.0
100
AcDbText
 73
     3
  0
ENDBLK
  5
48C
330
483
100
AcDbEntity
  8
0
100
AcDbBlockEnd
  0
BLOCK
  5
495
330
48D
100
AcDbEntity
  8
0
100
AcDbBlockBegin
  2
GDimGGroup24
 70
     0
 71
     0
 10
0.0
 20
0.0
 30
0.0
  3
GDimGGroup24
  1

  0
HATCH
  5
48F
330
48D
100
AcDbEntity
  8
Default
  6
Continuous
 62
   136
370
     9
100
AcDbHatch
 10
0.0
 20
0.0
 30
0.0
210
0.0
220
0.0
230
1.0
  2
SOLID
 70
     1
 71
     0
 91
        1
 92
        1
 93
        3
 72
     1
 10
1756.798140434125
 20
1388.517133623747
 11
1754.531473737408
 21
1402.117133804051
 72
     1
 10
1754.531473737408
 20
1402.117133804051
 11
1752.264807040691
 21
1388.517133623747
 72
     1
 10
1752.264807040691
 20
1388.517133623747
 11
1756.798140434125
 21
1388.517133623747
 97
        0
 75
     0
 76
     1
 98
        0
  0
HATCH
  5
490
330
48D
100
AcDbEntity
  8
Default
  6
Continuous
 62
   136
370
     9
100
AcDbHatch
 10
0.0
 20
0.0
 30
0.0
210
0.0
220
0.0
230
1.0
  2
SOLID
 70
     1
 71
     0
 91
        1
 92
        1
 93
        3
 72
     1
 10
1756.798140434125
 20
1147.689917788295
 11
1752.264807040691
 21
1147.689917788295
 72
     1
 10
1752.264807040691
 20
1147.689917788295
 11
1754.531473737408
 21
1134.089917607991
 72
     1
 10
1754.531473737408
 20
1134.089917607991
 11
1756.798140434125
 21
1147.689917788295
 97
        0
 75
     0
 76
     1
 98
        0
  0
LINE
  5
491
330
48D
100
AcDbEntity
  8
Default
  6
Continuous
 62
   136
370
     9
100
AcDbLine
 10
1594.46035314
 20
1402.1171338041
 30
0.0
 11
1762.5314741174
 21
1402.1171338041
 31
0.0
  0
LINE
  5
492
330
48D
100
AcDbEntity
  8
Default
  6
Continuous
 62
   136
370
     9
100
AcDbLine
 10
1594.3817932422
 20
1134.0899313516
 30
0.0
 11
1762.5314741174
 21
1134.0899313516
 31
0.0
  0
LINE
  5
493
330
48D
100
AcDbEntity
  8
Default
  6
Continuous
 62
   136
370
     9
100
AcDbLine
 10
1754.5314737374
 20
1402.1171338041
 30
0.0
 11
1754.5314737374
 21
1134.089917608
 31
0.0
  0
TEXT
  5
494
330
48D
100
AcDbEntity
  8
Default
  6
Continuous
 62
   136
370
     9
100
AcDbText
 10
1750.5314737374
 20
1249.3209170104
 30
0.0
 40
16.0
  1
268
 50
90.0
  7
SEACAD_arial_ttf
 11
1734.5314737374
 21
1249.3209170104
 31
0.0
100
AcDbText
 73
     3
  0
ENDBLK
  5
496
330
48D
100
AcDbEntity
  8
0
100
AcDbBlockEnd
  0
BLOCK
  5
49F
330
497
100
AcDbEntity
  8
0
100
AcDbBlockBegin
  2
GDimGGroup25
 70
     0
 71
     0
 10
0.0
 20
0.0
 30
0.0
  3
GDimGGroup25
  1

  0
HATCH
  5
499
330
497
100
AcDbEntity
  8
Default
  6
Continuous
 62
   136
370
     9
100
AcDbHatch
 10
0.0
 20
0.0
 30
0.0
210
0.0
220
0.0
230
1.0
  2
SOLID
 70
     1
 71
     0
 91
        1
 92
        1
 93
        3
 72
     1
 10
266.9743120477001
 20
495.4008244621061
 11
271.5076454411347
 21
495.4008244621061
 72
     1
 10
271.5076454411347
 20
495.4008244621061
 11
269.2409787444174
 21
509.0008246424101
 72
     1
 10
269.2409787444174
 20
509.0008246424101
 11
266.9743120477001
 21
495.4008244621061
 97
        0
 75
     0
 76
     1
 98
        0
  0
HATCH
  5
49A
330
497
100
AcDbEntity
  8
Default
  6
Continuous
 62
   136
370
     9
100
AcDbHatch
 10
0.0
 20
0.0
 30
0.0
210
0.0
220
0.0
230
1.0
  2
SOLID
 70
     1
 71
     0
 91
        1
 92
        1
 93
        3
 72
     1
 10
266.9743120477001
 20
203.2814574139618
 11
269.2409787444174
 21
189.6814572336577
 72
     1
 10
269.2409787444174
 20
189.6814572336577
 11
271.5076454411347
 21
203.2814574139618
 72
     1
 10
271.5076454411347
 20
203.2814574139618
 11
266.9743120477001
 21
203.2814574139618
 97
        0
 75
     0
 76
     1
 98
        0
  0
LINE
  5
49B
330
497
100
AcDbEntity
  8
Default
  6
Continuous
 62
   136
370
     9
100
AcDbLine
 10
394.416828279
 20
509.0008246424
 30
0.0
 11
261.2409783644
 21
509.0008246424
 31
0.0
  0
LINE
  5
49C
330
497
100
AcDbEntity
  8
Default
  6
Continuous
 62
   136
370
     9
100
AcDbLine
 10
571.2323871021
 20
189.6814574812
 30
0.0
 11
261.2409783644
 21
189.6814574812
 31
0.0
  0
LINE
  5
49D
330
497
100
AcDbEntity
  8
Default
  6
Continuous
 62
   136
370
     9
100
AcDbLine
 10
269.2409787444
 20
509.0008246424
 30
0.0
 11
269.2409787444
 21
189.6814572337
 31
0.0
  0
TEXT
  5
49E
330
497
100
AcDbEntity
  8
Default
  6
Continuous
 62
   136
370
     9
100
AcDbText
 10
265.2409787444
 20
330.5585322424
 30
0.0
 40
16.0
  1
319
 50
90.0
  7
SEACAD_arial_ttf
 11
249.2409787444
 21
330.5585322424
 31
0.0
100
AcDbText
 73
     3
  0
ENDBLK
  5
4A0
330
497
100
AcDbEntity
  8
0
100
AcDbBlockEnd
  0
BLOCK
  5
4A9
330
4A1
100
AcDbEntity
  8
0
100
AcDbBlockBegin
  2
GDimGGroup26
 70
     0
 71
     0
 10
0.0
 20
0.0
 30
0.0
  3
GDimGGroup26
  1

  0
HATCH
  5
4A3
330
4A1
100
AcDbEntity
  8
Default
  6
Continuous
 62
   136
370
     9
100
AcDbHatch
 10
0.0
 20
0.0
 30
0.0
210
0.0
220
0.0
230
1.0
  2
SOLID
 70
     1
 71
     0
 91
        1
 92
        1
 93
        3
 72
     1
 10
296.3215111620494
 20
1458.280712365995
 11
298.5881778587667
 21
1444.680712185691
 72
     1
 10
298.5881778587667
 20
1444.680712185691
 11
300.854844555484
 21
1458.280712365995
 72
     1
 10
300.854844555484
 20
1458.280712365995
 11
296.3215111620494
 21
1458.280712365995
 97
        0
 75
     0
 76
     1
 98
        0
  0
HATCH
  5
4A4
330
4A1
100
AcDbEntity
  8
Default
  6
Continuous
 62
   136
370
     9
100
AcDbHatch
 10
0.0
 20
0.0
 30
0.0
210
0.0
220
0.0
230
1.0
  2
SOLID
 70
     1
 71
     0
 91
        1
 92
        1
 93
        3
 72
     1
 10
296.3215111620494
 20
1416.740941282035
 11
300.854844555484
 21
1416.740941282035
 72
     1
 10
300.854844555484
 20
1416.740941282035
 11
298.5881778587667
 21
1430.340941462339
 72
     1
 10
298.5881778587667
 20
1430.340941462339
 11
296.3215111620494
 21
1416.740941282035
 97
        0
 75
     0
 76
     1
 98
        0
  0
LINE
  5
4A5
330
4A1
100
AcDbEntity
  8
Default
  6
Continuous
 62
   136
370
     9
100
AcDbLine
 10
557.2323871021
 20
1444.6807121857
 30
0.0
 11
290.5881774788
 21
1444.6807121857
 31
0.0
  0
LINE
  5
4A6
330
4A1
100
AcDbEntity
  8
Default
  6
Continuous
 62
   136
370
     9
100
AcDbLine
 10
347.7323871021
 20
1430.3409414623
 30
0.0
 11
290.5881774788
 21
1430.3409414623
 31
0.0
  0
LINE
  5
4A7
330
4A1
100
AcDbEntity
  8
Default
  6
Continuous
 62
   136
370
     9
100
AcDbLine
 10
298.5881778588
 20
1487.7302749081
 30
0.0
 11
298.5881778588
 21
1403.140942566
 31
0.0
  0
TEXT
  5
4A8
330
4A1
100
AcDbEntity
  8
Default
  6
Continuous
 62
   136
370
     9
100
AcDbText
 10
294.5881778588
 20
1457.0867947436
 30
0.0
 40
16.0
  1
14
 50
90.0
  7
SEACAD_arial_ttf
 11
278.5881778588
 21
1457.0867947436
 31
0.0
100
AcDbText
 73
     3
  0
ENDBLK
  5
4AA
330
4A1
100
AcDbEntity
  8
0
100
AcDbBlockEnd
  0
BLOCK
  5
4B3
330
4AB
100
AcDbEntity
  8
0
100
AcDbBlockBegin
  2
GDimGGroup27
 70
     0
 71
     0
 10
0.0
 20
0.0
 30
0.0
  3
GDimGGroup27
  1

  0
HATCH
  5
4AD
330
4AB
100
AcDbEntity
  8
Default
  6
Continuous
 62
   136
370
     9
100
AcDbHatch
 10
0.0
 20
0.0
 30
0.0
210
0.0
220
0.0
230
1.0
  2
SOLID
 70
     1
 71
     0
 91
        1
 92
        1
 93
        3
 72
     1
 10
1288.378393849242
 20
1431.060308443246
 11
1292.911727242677
 21
1431.060308443246
 72
     1
 10
1292.911727242677
 20
1431.060308443246
 11
1290.645060545959
 21
1444.66030862355
 72
     1
 10
1290.645060545959
 20
1444.66030862355
 11
1288.378393849242
 21
1431.060308443246
 97
        0
 75
     0
 76
     1
 98
        0
  0
HATCH
  5
4AE
330
4AB
100
AcDbEntity
  8
Default
  6
Continuous
 62
   136
370
     9
100
AcDbHatch
 10
0.0
 20
0.0
 30
0.0
210
0.0
220
0.0
230
1.0
  2
SOLID
 70
     1
 71
     0
 91
        1
 92
        1
 93
        3
 72
     1
 10
1288.378393849242
 20
1323.940943779287
 11
1290.645060545959
 21
1310.340943598983
 72
     1
 10
1290.645060545959
 20
1310.340943598983
 11
1292.911727242677
 21
1323.940943779287
 72
     1
 10
1292.911727242677
 20
1323.940943779287
 11
1288.378393849242
 21
1323.940943779287
 97
        0
 75
     0
 76
     1
 98
        0
  0
LINE
  5
4AF
330
4AB
100
AcDbEntity
  8
Default
  6
Continuous
 62
   136
370
     9
100
AcDbLine
 10
1567.8218737684
 20
1444.6603086235
 30
0.0
 11
1282.645060166
 21
1444.6603086235
 31
0.0
  0
LINE
  5
4B0
330
4AB
100
AcDbEntity
  8
Default
  6
Continuous
 62
   136
370
     9
100
AcDbLine
 10
1345.46035238
 20
1310.3409414623
 30
0.0
 11
1282.645060166
 21
1310.3409414623
 31
0.0
  0
LINE
  5
4B1
330
4AB
100
AcDbEntity
  8
Default
  6
Continuous
 62
   136
370
     9
100
AcDbLine
 10
1290.645060546
 20
1444.6603086235
 30
0.0
 11
1290.645060546
 21
1310.340943599
 31
0.0
  0
TEXT
  5
4B2
330
4AB
100
AcDbEntity
  8
Default
  6
Continuous
 62
   136
370
     9
100
AcDbText
 10
1286.645060546
 20
1358.7180174156
 30
0.0
 40
16.0
  1
134
 50
90.0
  7
SEACAD_arial_ttf
 11
1270.645060546
 21
1358.7180174156
 31
0.0
100
AcDbText
 73
     3
  0
ENDBLK
  5
4B4
330
4AB
100
AcDbEntity
  8
0
100
AcDbBlockEnd
  0
BLOCK
  5
4BE
330
4B5
100
AcDbEntity
  8
0
100
AcDbBlockBegin
  2
GDimGGroup28
 70
     0
 71
     0
 10
0.0
 20
0.0
 30
0.0
  3
GDimGGroup28
  1

  0
HATCH
  5
4B7
330
4B5
100
AcDbEntity
  8
Default
  6
Continuous
 62
   136
370
     9
100
AcDbHatch
 10
0.0
 20
0.0
 30
0.0
210
0.0
220
0.0
230
1.0
  2
SOLID
 70
     1
 71
     0
 91
        1
 92
        1
 93
        3
 72
     1
 10
1326.263842315769
 20
1358.517130846373
 11
1328.530509012486
 21
1344.917130666069
 72
     1
 10
1328.530509012486
 20
1344.917130666069
 11
1330.797175709204
 21
1358.517130846373
 72
     1
 10
1330.797175709204
 20
1358.517130846373
 11
1326.263842315769
 21
1358.517130846373
 97
        0
 75
     0
 76
     1
 98
        0
  0
HATCH
  5
4B8
330
4B5
100
AcDbEntity
  8
Default
  6
Continuous
 62
   136
370
     9
100
AcDbHatch
 10
0.0
 20
0.0
 30
0.0
210
0.0
220
0.0
230
1.0
  2
SOLID
 70
     1
 71
     0
 91
        1
 92
        1
 93
        3
 72
     1
 10
1326.263842315769
 20
1261.740941282035
 11
1330.797175709204
 21
1261.740941282035
 72
     1
 10
1330.797175709204
 20
1261.740941282035
 11
1328.530509012486
 21
1275.340941462339
 72
     1
 10
1328.530509012486
 20
1275.340941462339
 11
1326.263842315769
 21
1261.740941282035
 97
        0
 75
     0
 76
     1
 98
        0
  0
LINE
  5
4B9
330
4B5
100
AcDbEntity
  8
Default
  6
Continuous
 62
   136
370
     9
100
AcDbLine
 10
1376.4457823585
 20
1344.9171306661
 30
0.0
 11
1320.5305086325
 21
1344.9171306661
 31
0.0
  0
LINE
  5
4BA
330
4B5
100
AcDbEntity
  8
Default
  6
Continuous
 62
   136
370
     9
100
AcDbLine
 10
1378.46035238
 20
1275.3409414623
 30
0.0
 11
1320.5305086325
 21
1275.3409414623
 31
0.0
  0
LINE
  5
4BB
330
4B5
100
AcDbEntity
  8
Default
  6
Continuous
 62
   136
370
     9
100
AcDbLine
 10
1328.5305090125
 20
1372.1171310267
 30
0.0
 11
1328.5305090125
 21
1184.5247270635
 31
0.0
  0
TEXT
  5
4BC
330
4B5
100
AcDbEntity
  8
Default
  6
Continuous
 62
   136
370
     9
100
AcDbText
 10
1324.5305090125
 20
1219.5703431672
 30
0.0
 40
16.0
  1
70
 50
90.0
  7
SEACAD_arial_ttf
 11
1308.5305090125
 21
1219.5703431672
 31
0.0
100
AcDbText
 73
     3
  0
TEXT
  5
4BD
330
4B5
100
AcDbEntity
  8
Default
  6
Continuous
 62
   136
370
     9
100
AcDbText
 10
1324.5305090125
 20
1190.1247291322
 30
0.0
 40
16.0
  1
O
 50
90.0
  7
SEACAD_semeca1_ttf
 11
1308.5305090125
 21
1190.1247291322
 31
0.0
100
AcDbText
 73
     3
  0
ENDBLK
  5
4BF
330
4B5
100
AcDbEntity
  8
0
100
AcDbBlockEnd
  0
BLOCK
  5
4C8
330
4C0
100
AcDbEntity
  8
0
100
AcDbBlockBegin
  2
GDimGGroup29
 70
     0
 71
     0
 10
0.0
 20
0.0
 30
0.0
  3
GDimGGroup29
  1

  0
HATCH
  5
4C2
330
4C0
100
AcDbEntity
  8
Default
  6
Continuous
 62
   136
370
     9
100
AcDbHatch
 10
0.0
 20
0.0
 30
0.0
210
0.0
220
0.0
230
1.0
  2
SOLID
 70
     1
 71
     0
 91
        1
 92
        1
 93
        3
 72
     1
 10
917.3727368289367
 20
522.6008248227142
 11
912.8394034355019
 21
522.6008248227142
 72
     1
 10
912.8394034355019
 20
522.6008248227142
 11
915.1060701322193
 21
509.0008246424102
 72
     1
 10
915.1060701322193
 20
509.0008246424101
 11
917.3727368289367
 21
522.6008248227142
 97
        0
 75
     0
 76
     1
 98
        0
  0
HATCH
  5
4C3
330
4C0
100
AcDbEntity
  8
Default
  6
Continuous
 62
   136
370
     9
100
AcDbHatch
 10
0.0
 20
0.0
 30
0.0
210
0.0
220
0.0
230
1.0
  2
SOLID
 70
     1
 71
     0
 91
        1
 92
        1
 93
        3
 72
     1
 10
917.3727368289367
 20
454.5963226179925
 11
915.1060701322193
 21
468.1963227982966
 72
     1
 10
915.1060701322193
 20
468.1963227982966
 11
912.8394034355019
 21
454.5963226179925
 72
     1
 10
912.8394034355019
 20
454.5963226179925
 11
917.3727368289367
 21
454.5963226179925
 97
        0
 75
     0
 76
     1
 98
        0
  0
LINE
  5
4C4
330
4C0
100
AcDbEntity
  8
Default
  6
Continuous
 62
   136
370
     9
100
AcDbLine
 10
764.0479466852
 20
509.0008246424
 30
0.0
 11
923.1060705122
 21
509.0008246424
 31
0.0
  0
LINE
  5
4C5
330
4C0
100
AcDbEntity
  8
Default
  6
Continuous
 62
   136
370
     9
100
AcDbLine
 10
758.927886018
 20
468.1963227983
 30
0.0
 11
923.1060705122
 21
468.1963227983
 31
0.0
  0
LINE
  5
4C6
330
4C0
100
AcDbEntity
  8
Default
  6
Continuous
 62
   136
370
     9
100
AcDbLine
 10
915.1060701322
 20
536.200825003
 30
0.0
 11
915.1060701322
 21
440.9963207962
 31
0.0
  0
TEXT
  5
4C7
330
4C0
100
AcDbEntity
  8
Default
  6
Continuous
 62
   136
370
     9
100
AcDbText
 10
911.1060701322
 20
476.0768347005
 30
0.0
 40
16.0
  1
41
 50
90.0
  7
SEACAD_arial_ttf
 11
895.1060701322
 21
476.0768347005
 31
0.0
100
AcDbText
 73
     3
  0
ENDBLK
  5
4C9
330
4C0
100
AcDbEntity
  8
0
100
AcDbBlockEnd
  0
BLOCK
  5
4D3
330
4D0
100
AcDbEntity
  8
0
100
AcDbBlockBegin
  2
SEANNOT_GROUP4
 70
     0
 71
     0
 10
0.0
 20
0.0
 30
0.0
  3
SEANNOT_GROUP4
  1

  0
TEXT
  5
4D2
330
4D0
100
AcDbEntity
  8
Default
  6
Continuous
 62
     7
370
     0
100
AcDbText
 10
1514.2895510415
 20
137.8046408992
 30
0.0
 40
24.0
  1
13/10/07
  7
SEACAD_arial_ttf
 11
1514.2895510415
 21
161.8046408992
 31
0.0
100
AcDbText
 73
     3
  0
ENDBLK
  5
4D4
330
4D0
100
AcDbEntity
  8
0
100
AcDbBlockEnd
  0
BLOCK
  5
4E3
330
4DF
100
AcDbEntity
  8
0
100
AcDbBlockBegin
  2
SEANNOT_GROUP5
 70
     0
 71
     0
 10
0.0
 20
0.0
 30
0.0
  3
SEANNOT_GROUP5
  1

  0
TEXT
  5
4E2
330
4DF
100
AcDbEntity
  8
Default
  6
Continuous
 62
     7
370
     0
100
AcDbText
 10
2196.2207174568
 20
71.728887387
 30
0.0
 40
32.0
  1
1 / 1
  7
SEACAD_seiso_ttfB
 11
2196.2207174568
 21
103.728887387
 31
0.0
100
AcDbText
 73
     3
  0
ENDBLK
  5
4E4
330
4DF
100
AcDbEntity
  8
0
100
AcDbBlockEnd
  0
BLOCK
  5
4EC
330
4E8
100
AcDbEntity
  8
0
100
AcDbBlockBegin
  2
SEANNOT_GROUP6
 70
     0
 71
     0
 10
0.0
 20
0.0
 30
0.0
  3
SEANNOT_GROUP6
  1

  0
LINE
  5
4EA
330
4E8
100
AcDbEntity
  8
Predefinito
  6
CENTER2
 62
   136
370
     9
100
AcDbLine
 10
2179.406079177
 20
225.1057846513
 30
0.0
 11
2109.406078879
 21
225.1057846513
 31
0.0
  0
LINE
  5
4EB
330
4E8
100
AcDbEntity
  8
Predefinito
  6
CENTER2
 62
   136
370
     9
100
AcDbLine
 10
2144.406079028
 20
260.1057848004
 30
0.0
 11
2144.406079028
 21
190.1057845023
 31
0.0
  0
ENDBLK
  5
4ED
330
4E8
100
AcDbEntity
  8
0
100
AcDbBlockEnd
  0
BLOCK
  5
4F5
330
4F2
100
AcDbEntity
  8
0
100
AcDbBlockBegin
  2
SEANNOT_GROUP7
 70
     0
 71
     0
 10
0.0
 20
0.0
 30
0.0
  3
SEANNOT_GROUP7
  1

  0
LINE
  5
4F4
330
4F2
100
AcDbEntity
  8
Predefinito
  6
CENTER2
 62
   136
370
     9
100
AcDbLine
 10
2116.6588384705
 20
225.1057846513
 30
0.0
 11
2041.3654380774
 21
225.1057846513
 31
0.0
  0
ENDBLK
  5
4F6
330
4F2
100
AcDbEntity
  8
0
100
AcDbBlockEnd
  0
BLOCK
  5
50E
330
50B
100
AcDbEntity
  8
0
100
AcDbBlockBegin
  2
SEANNOT_GROUP8
 70
     0
 71
     0
 10
0.0
 20
0.0
 30
0.0
  3
SEANNOT_GROUP8
  1

  0
TEXT
  5
50D
330
50B
100
AcDbEntity
  8
Predefinito
  6
Continuous
 62
     7
370
     0
100
AcDbText
 10
1602.1177541425
 20
73.0933328908
 30
0.0
 40
38.0
  1
Miky 40 40x32 cm
  7
SEACAD_arial_ttf
 11
1602.1177541425
 21
111.0933328908
 31
0.0
100
AcDbText
 73
     3
  0
ENDBLK
  5
50F
330
50B
100
AcDbEntity
  8
0
100
AcDbBlockEnd
  0
BLOCK
  5
512
330
510
100
AcDbEntity
  8
0
100
AcDbBlockBegin
  2
SEANNOT_GROUP9
 70
     0
 71
     0
 10
0.0
 20
0.0
 30
0.0
  3
SEANNOT_GROUP9
  1

  0
ENDBLK
  5
513
330
510
100
AcDbEntity
  8
0
100
AcDbBlockEnd
  0
BLOCK
  5
519
330
516
100
AcDbEntity
  8
0
100
AcDbBlockBegin
  2
SEANNOT_GROUP10
 70
     0
 71
     0
 10
0.0
 20
0.0
 30
0.0
  3
SEANNOT_GROUP10
  1

  0
TEXT
  5
518
330
516
100
AcDbEntity
  8
Predefinito
  6
Continuous
 62
     7
370
     0
100
AcDbText
 10
1643.3909630789
 20
137.7709522727
 30
0.0
 40
24.0
  1
DESYS
  7
SEACAD_arial_ttf
 11
1643.3909630789
 21
161.7709522727
 31
0.0
100
AcDbText
 73
     3
  0
ENDBLK
  5
51A
330
516
100
AcDbEntity
  8
0
100
AcDbBlockEnd
  0
BLOCK
  5
51E
330
51C
100
AcDbEntity
  8
0
100
AcDbBlockBegin
  2
SEANNOT_GROUP11
 70
     0
 71
     0
 10
0.0
 20
0.0
 30
0.0
  3
SEANNOT_GROUP11
  1

  0
ENDBLK
  5
51F
330
51C
100
AcDbEntity
  8
0
100
AcDbBlockEnd
  0
BLOCK
  5
524
330
521
100
AcDbEntity
  8
0
100
AcDbBlockBegin
  2
SEANNOT_GROUP12
 70
     0
 71
     0
 10
0.0
 20
0.0
 30
0.0
  3
SEANNOT_GROUP12
  1

  0
TEXT
  5
523
330
521
100
AcDbEntity
  8
Predefinito
  6
Continuous
 62
     7
370
     0
100
AcDbText
 10
1931.9481016641
 20
135.926799644
 30
0.0
 40
48.0
  1
8090
  7
SEACAD_arial_ttf
 11
1931.9481016641
 21
183.926799644
 31
0.0
100
AcDbText
 73
     3
  0
ENDBLK
  5
525
330
521
100
AcDbEntity
  8
0
100
AcDbBlockEnd
  0
BLOCK
  5
52A
330
527
100
AcDbEntity
  8
0
100
AcDbBlockBegin
  2
SEANNOT_GROUP13
 70
     0
 71
     0
 10
0.0
 20
0.0
 30
0.0
  3
SEANNOT_GROUP13
  1

  0
TEXT
  5
529
330
527
100
AcDbEntity
  8
Predefinito
  6
Continuous
 62
     7
370
     0
100
AcDbText
 10
2218.2664727054
 20
132.7427435071
 30
0.0
 40
52.0
  1
0
  7
SEACAD_arial_ttf
 11
2218.2664727054
 21
184.7427435071
 31
0.0
100
AcDbText
 73
     3
  0
ENDBLK
  5
52B
330
527
100
AcDbEntity
  8
0
100
AcDbBlockEnd
  0
ENDSEC
  0
SECTION
  2
ENTITIES
  0
TEXT
  5
2B
330
1F
100
AcDbEntity
  8
Default
  6
Continuous
 62
     7
100
AcDbText
 10
1789.5876400532
 20
513.6811604639
 30
0.0
 40
40.0
  1
Tolleranza    ± 5%
  7
SEACAD_seiso_ttf
 11
1789.5876400532
 21
553.6811604639
 31
0.0
100
AcDbText
 73
     3
  0
TEXT
  5
2D
330
1F
100
AcDbEntity
  8
Default
  6
Continuous
 62
     7
100
AcDbText
 10
1789.5876400532
 20
448.2266150094
 30
0.0
 40
40.0
  1
Tolerance     ± 5%
  7
SEACAD_seiso_ttf
 11
1789.5876400532
 21
488.2266150094
 31
0.0
100
AcDbText
 73
     3
  0
INSERT
  5
2F
330
1F
100
AcDbEntity
  8
Default
100
AcDbBlockReference
  2
SEANNOT_GROUP
 10
0.0
 20
0.0
 30
0.0
  0
INSERT
  5
35
330
1F
100
AcDbEntity
  8
Default
100
AcDbBlockReference
  2
SEANNOT_GROUP1
 10
0.0
 20
0.0
 30
0.0
  0
INSERT
  5
3A
330
1F
100
AcDbEntity
  8
Default
100
AcDbBlockReference
  2
SEANNOT_GROUP2
 10
0.0
 20
0.0
 30
0.0
  0
INSERT
  5
44
330
1F
100
AcDbEntity
  8
Default
100
AcDbBlockReference
  2
SEANNOT_GROUP3
 10
0.0
 20
0.0
 30
0.0
  0
ELLIPSE
  5
4E
330
1F
100
AcDbEntity
  8
MIKY
  6
Continuous
 62
     7
100
AcDbEllipse
 10
579.2323874821
 20
1388.3834027741
 30
0.0
 11
10.0
 21
0.0
 31
0.0
210
0.0
220
0.0
230
1.0
 40
0.1051042353
 41
0.0
 42
6.283185307179586
  0
LINE
  5
4F
330
1F
100
AcDbEntity
  8
MIKY
  6
Continuous
 62
     7
100
AcDbLine
 10
366.7283470391
 20
1402.1171338041
 30
0.0
 11
791.7364279251
 21
1402.1171338041
 31
0.0
  0
LINE
  5
50
330
1F
100
AcDbEntity
  8
MIKY
  6
Continuous
 62
     7
100
AcDbLine
 10
791.7364279251
 20
1402.1171338041
 30
0.0
 11
791.7364279251
 21
1135.3409414623
 31
0.0
  0
LINE
  5
51
330
1F
100
AcDbEntity
  8
MIKY
  6
Continuous
 62
     7
100
AcDbLine
 10
366.7283470391
 20
1135.3409414623
 30
0.0
 11
366.7283470391
 21
1402.1171338041
 31
0.0
  0
LINE
  5
52
330
1F
100
AcDbEntity
  8
MIKY
  6
Continuous
 62
     7
100
AcDbLine
 10
791.7364279251
 20
1135.3409414623
 30
0.0
 11
802.7323874821
 21
1135.3409414623
 31
0.0
  0
LINE
  5
53
330
1F
100
AcDbEntity
  8
MIKY
  6
Continuous
 62
     7
100
AcDbLine
 10
802.7323874821
 20
1135.3409414623
 30
0.0
 11
802.7323874821
 21
1420.3409414623
 31
0.0
  0
LINE
  5
54
330
1F
100
AcDbEntity
  8
MIKY
  6
Continuous
 62
     7
100
AcDbLine
 10
802.7323874821
 20
1420.3409414623
 30
0.0
 11
588.2323874821
 21
1420.3409414623
 31
0.0
  0
LINE
  5
55
330
1F
100
AcDbEntity
  8
MIKY
  6
Continuous
 62
     7
100
AcDbLine
 10
588.2323874821
 20
1420.3409414623
 30
0.0
 11
588.2323874821
 21
1434.6807121857
 31
0.0
  0
LINE
  5
56
330
1F
100
AcDbEntity
  8
MIKY
  6
Continuous
 62
     7
100
AcDbLine
 10
588.2323874821
 20
1434.6807121857
 30
0.0
 11
570.2323874821
 21
1434.6807121857
 31
0.0
  0
LINE
  5
57
330
1F
100
AcDbEntity
  8
MIKY
  6
Continuous
 62
     7
100
AcDbLine
 10
570.2323874821
 20
1434.6807121857
 30
0.0
 11
570.2323874821
 21
1420.3409414623
 31
0.0
  0
LINE
  5
58
330
1F
100
AcDbEntity
  8
MIKY
  6
Continuous
 62
     7
100
AcDbLine
 10
570.2323874821
 20
1420.3409414623
 30
0.0
 11
355.7323874821
 21
1420.3409414623
 31
0.0
  0
LINE
  5
59
330
1F
100
AcDbEntity
  8
MIKY
  6
Continuous
 62
     7
100
AcDbLine
 10
355.7323874821
 20
1420.3409414623
 30
0.0
 11
355.7323874821
 21
1135.3409414623
 31
0.0
  0
LINE
  5
5A
330
1F
100
AcDbEntity
  8
MIKY
  6
Continuous
 62
     7
100
AcDbLine
 10
355.7323874821
 20
1135.3409414623
 30
0.0
 11
366.7283470391
 21
1135.3409414623
 31
0.0
  0
LINE
  5
5B
330
1F
100
AcDbEntity
  8
MIKY
  6
Continuous
 62
     7
100
AcDbLine
 10
560.2323874821
 20
1430.3409414623
 30
0.0
 11
560.2323874821
 21
1439.6807121857
 31
0.0
  0
LINE
  5
5C
330
1F
100
AcDbEntity
  8
MIKY
  6
Continuous
 62
     7
100
AcDbLine
 10
598.2323874821
 20
1430.3409414623
 30
0.0
 11
802.7323874821
 21
1430.3409414623
 31
0.0
  0
LINE
  5
5D
330
1F
100
AcDbEntity
  8
MIKY
  6
Continuous
 62
     7
100
AcDbLine
 10
366.7283470391
 20
1135.3409414623
 30
0.0
 11
367.9793571499
 21
1134.0899313516
 31
0.0
  0
LINE
  5
5E
330
1F
100
AcDbEntity
  8
MIKY
  6
Continuous
 62
     7
100
AcDbLine
 10
588.2323874821
 20
1420.3409414623
 30
0.0
 11
598.2323874821
 21
1430.3409414623
 31
0.0
  0
LINE
  5
5F
330
1F
100
AcDbEntity
  8
MIKY
  6
Continuous
 62
     7
100
AcDbLine
 10
560.2323874821
 20
1430.3409414623
 30
0.0
 11
570.2323874821
 21
1420.3409414623
 31
0.0
  0
LINE
  5
60
330
1F
100
AcDbEntity
  8
MIKY
  6
Continuous
 62
     7
100
AcDbLine
 10
565.2323874821
 20
1444.6807121857
 30
0.0
 11
570.2323874821
 21
1434.6807121857
 31
0.0
  0
LINE
  5
61
330
1F
100
AcDbEntity
  8
MIKY
  6
Continuous
 62
     7
100
AcDbLine
 10
588.2323874821
 20
1434.6807121857
 30
0.0
 11
593.2323874821
 21
1444.6807121857
 31
0.0
  0
LINE
  5
62
330
1F
100
AcDbEntity
  8
MIKY
  6
Continuous
 62
     7
100
AcDbLine
 10
598.2323874821
 20
1439.6807121857
 30
0.0
 11
598.2323874821
 21
1430.3409414623
 31
0.0
  0
LINE
  5
63
330
1F
100
AcDbEntity
  8
MIKY
  6
Continuous
 62
     7
100
AcDbLine
 10
598.2323874821
 20
1439.6807121857
 30
0.0
 11
588.2323874821
 21
1434.6807121857
 31
0.0
  0
LINE
  5
64
330
1F
100
AcDbEntity
  8
MIKY
  6
Continuous
 62
     7
100
AcDbLine
 10
570.2323874821
 20
1434.6807121857
 30
0.0
 11
560.2323874821
 21
1439.6807121857
 31
0.0
  0
ARC
  5
65
330
1F
100
AcDbEntity
  8
MIKY
  6
Continuous
 62
     7
100
AcDbCircle
 10
565.2323874821
 20
1439.6807121857
 30
0.0
 40
5.000000000000001
100
AcDbArc
 50
90.0
 51
180.0
  0
ARC
  5
66
330
1F
100
AcDbEntity
  8
MIKY
  6
Continuous
 62
     7
100
AcDbCircle
 10
593.2323874821
 20
1439.6807121857
 30
0.0
 40
5.000000000000001
100
AcDbArc
 50
0.0
 51
90.0
  0
LINE
  5
67
330
1F
100
AcDbEntity
  8
MIKY
  6
Continuous
 62
     7
100
AcDbLine
 10
790.4854178143
 20
1134.0899313516
 30
0.0
 11
791.7364279251
 21
1135.3409414623
 31
0.0
  0
LINE
  5
68
330
1F
100
AcDbEntity
  8
MIKY
  6
Continuous
 62
     7
100
AcDbLine
 10
781.7912089714
 20
1160.1725578804
 30
0.0
 11
781.7912089714
 21
1372.281476943
 31
0.0
  0
LINE
  5
69
330
1F
100
AcDbEntity
  8
MIKY
  6
Continuous
 62
     7
100
AcDbLine
 10
791.7364279251
 20
1402.1171338041
 30
0.0
 11
781.7912089714
 21
1372.281476943
 31
0.0
  0
LINE
  5
6A
330
1F
100
AcDbEntity
  8
MIKY
  6
Continuous
 62
     7
100
AcDbLine
 10
781.7912089714
 20
1160.1725578804
 30
0.0
 11
790.4854178143
 21
1134.0899313516
 31
0.0
  0
LINE
  5
6B
330
1F
100
AcDbEntity
  8
MIKY
  6
Continuous
 62
     7
100
AcDbLine
 10
374.2344077036
 20
1132.8389212408
 30
0.0
 11
784.2303672606
 21
1132.8389212408
 31
0.0
  0
LINE
  5
6C
330
1F
100
AcDbEntity
  8
MIKY
  6
Continuous
 62
     7
100
AcDbLine
 10
396.5640039002
 20
1140.282119973
 30
0.0
 11
761.900771064
 21
1140.282119973
 31
0.0
  0
LINE
  5
6D
330
1F
100
AcDbEntity
  8
MIKY
  6
Continuous
 62
     7
100
AcDbLine
 10
396.5640039002
 20
1140.282119973
 30
0.0
 11
374.2344077036
 21
1132.8389212408
 31
0.0
  0
LINE
  5
6E
330
1F
100
AcDbEntity
  8
MIKY
  6
Continuous
 62
     7
100
AcDbLine
 10
784.2303672606
 20
1132.8389212408
 30
0.0
 11
761.900771064
 21
1140.282119973
 31
0.0
  0
LINE
  5
6F
330
1F
100
AcDbEntity
  8
MIKY
  6
Continuous
 62
     7
100
AcDbLine
 10
761.900771064
 20
1392.1719148504
 30
0.0
 11
396.5640039002
 21
1392.1719148504
 31
0.0
  0
LINE
  5
70
330
1F
100
AcDbEntity
  8
MIKY
  6
Continuous
 62
     7
100
AcDbLine
 10
366.7283470391
 20
1402.1171338041
 30
0.0
 11
396.5640039002
 21
1392.1719148504
 31
0.0
  0
LINE
  5
71
330
1F
100
AcDbEntity
  8
MIKY
  6
Continuous
 62
     7
100
AcDbLine
 10
761.900771064
 20
1392.1719148504
 30
0.0
 11
791.7364279251
 21
1402.1171338041
 31
0.0
  0
LINE
  5
72
330
1F
100
AcDbEntity
  8
MIKY
  6
Continuous
 62
     7
100
AcDbLine
 10
781.7912089714
 20
1372.281476943
 30
0.0
 11
768.3235880373
 21
1358.8138560089
 31
0.0
  0
LINE
  5
73
330
1F
100
AcDbEntity
  8
MIKY
  6
Continuous
 62
     7
100
AcDbLine
 10
768.3235880373
 20
1358.8138560089
 30
0.0
 11
768.3235880373
 21
1173.6401788145
 31
0.0
  0
LINE
  5
74
330
1F
100
AcDbEntity
  8
MIKY
  6
Continuous
 62
     7
100
AcDbLine
 10
768.3235880373
 20
1173.6401788145
 30
0.0
 11
781.7912089714
 21
1160.1725578804
 31
0.0
  0
LINE
  5
75
330
1F
100
AcDbEntity
  8
MIKY
  6
Continuous
 62
     7
100
AcDbLine
 10
410.0316248342
 20
1153.7497409071
 30
0.0
 11
396.5640039002
 21
1140.282119973
 31
0.0
  0
LINE
  5
76
330
1F
100
AcDbEntity
  8
MIKY
  6
Continuous
 62
     7
100
AcDbLine
 10
748.43315013
 20
1153.7497409071
 30
0.0
 11
410.0316248342
 21
1153.7497409071
 31
0.0
  0
LINE
  5
77
330
1F
100
AcDbEntity
  8
MIKY
  6
Continuous
 62
     7
100
AcDbLine
 10
761.900771064
 20
1140.282119973
 30
0.0
 11
748.43315013
 21
1153.7497409071
 31
0.0
  0
LINE
  5
78
330
1F
100
AcDbEntity
  8
MIKY
  6
Continuous
 62
     7
100
AcDbLine
 10
376.6735659928
 20
1372.281476943
 30
0.0
 11
376.6735659928
 21
1160.1725578804
 31
0.0
  0
LINE
  5
79
330
1F
100
AcDbEntity
  8
MIKY
  6
Continuous
 62
     7
100
AcDbLine
 10
376.6735659928
 20
1372.281476943
 30
0.0
 11
366.7283470391
 21
1402.1171338041
 31
0.0
  0
LINE
  5
7A
330
1F
100
AcDbEntity
  8
MIKY
  6
Continuous
 62
     7
100
AcDbLine
 10
367.9793571499
 20
1134.0899313516
 30
0.0
 11
376.6735659928
 21
1160.1725578804
 31
0.0
  0
LINE
  5
7B
330
1F
100
AcDbEntity
  8
MIKY
  6
Continuous
 62
     7
100
AcDbLine
 10
410.0316248342
 20
1358.8138560089
 30
0.0
 11
410.0316248342
 21
1173.6401788145
 31
0.0
  0
LINE
  5
7C
330
1F
100
AcDbEntity
  8
MIKY
  6
Continuous
 62
     7
100
AcDbLine
 10
748.43315013
 20
1358.8138560089
 30
0.0
 11
410.0316248342
 21
1358.8138560089
 31
0.0
  0
LINE
  5
7D
330
1F
100
AcDbEntity
  8
MIKY
  6
Continuous
 62
     7
100
AcDbLine
 10
410.0316248342
 20
1173.6401788145
 30
0.0
 11
748.43315013
 21
1173.6401788145
 31
0.0
  0
LINE
  5
7E
330
1F
100
AcDbEntity
  8
MIKY
  6
Continuous
 62
     7
100
AcDbLine
 10
748.43315013
 20
1173.6401788145
 30
0.0
 11
748.43315013
 21
1358.8138560089
 31
0.0
  0
LINE
  5
7F
330
1F
100
AcDbEntity
  8
MIKY
  6
Continuous
 62
     7
100
AcDbLine
 10
396.5640039002
 20
1392.1719148504
 30
0.0
 11
410.0316248342
 21
1378.7042939163
 31
0.0
  0
LINE
  5
80
330
1F
100
AcDbEntity
  8
MIKY
  6
Continuous
 62
     7
100
AcDbLine
 10
410.0316248342
 20
1378.7042939163
 30
0.0
 11
748.43315013
 21
1378.7042939163
 31
0.0
  0
LINE
  5
81
330
1F
100
AcDbEntity
  8
MIKY
  6
Continuous
 62
     7
100
AcDbLine
 10
748.43315013
 20
1378.7042939163
 30
0.0
 11
761.900771064
 21
1392.1719148504
 31
0.0
  0
LINE
  5
82
330
1F
100
AcDbEntity
  8
MIKY
  6
Continuous
 62
     7
100
AcDbLine
 10
390.1411869269
 20
1173.6401788145
 30
0.0
 11
390.1411869269
 21
1358.8138560089
 31
0.0
  0
LINE
  5
83
330
1F
100
AcDbEntity
  8
MIKY
  6
Continuous
 62
     7
100
AcDbLine
 10
390.1411869269
 20
1358.8138560089
 30
0.0
 11
376.6735659928
 21
1372.281476943
 31
0.0
  0
LINE
  5
84
330
1F
100
AcDbEntity
  8
MIKY
  6
Continuous
 62
     7
100
AcDbLine
 10
376.6735659928
 20
1160.1725578804
 30
0.0
 11
390.1411869269
 21
1173.6401788145
 31
0.0
  0
SPLINE
  5
85
330
1F
100
AcDbEntity
  8
MIKY
  6
Continuous
 62
     7
100
AcDbSpline
210
0.0
220
0.0
230
1.0
 70
     8
 71
     3
 72
    16
 73
    12
 74
     0
 42
0.0000000015375187
 43
0.0000000001
 40
0.0
 40
0.0
 40
0.0
 40
0.0
 40
0.125
 40
0.125
 40
0.25
 40
0.25
 40
0.5
 40
0.5
 40
0.75
 40
0.75
 40
1.0
 40
1.0
 40
1.0
 40
1.0
 10
790.4854178143373
 20
1134.089931351594
 30
0.0
 10
790.2904232089297
 20
1133.894936746187
 30
0.0
 10
790.0615024906942
 20
1133.752093537292
 30
0.0
 10
789.5733323451834
 20
1133.512505606364
 30
0.0
 10
789.3163370682419
 20
1133.419284176844
 30
0.0
 10
788.5416698598684
 20
1133.187347558958
 30
0.0
 10
788.0107405319064
 20
1133.091376783914
 30
0.0
 10
786.9364223950917
 20
1132.949102813977
 30
0.0
 10
786.3956205039829
 20
1132.905473989636
 30
0.0
 10
785.3142058584568
 20
1132.850194855739
 30
0.0
 10
784.7725977279102
 20
1132.838921240849
 30
0.0
 10
784.2303672606142
 20
1132.83892124085
 30
0.0
  0
SPLINE
  5
86
330
1F
100
AcDbEntity
  8
MIKY
  6
Continuous
 62
     7
100
AcDbSpline
210
0.0
220
0.0
230
1.0
 70
     8
 71
     3
 72
    18
 73
    14
 74
     0
 42
0.000000001538268
 43
0.0000000001
 40
0.0
 40
0.0
 40
0.0
 40
0.0
 40
0.2499999999999998
 40
0.2499999999999998
 40
0.4999999999999996
 40
0.4999999999999996
 40
0.7499999999999993
 40
0.7499999999999993
 40
0.8750000000000053
 40
0.8750000000000053
 40
0.9375000000000026
 40
0.9375000000000026
 40
1.0
 40
1.0
 40
1.0
 40
1.0
 10
374.2344077035928
 20
1132.83892124085
 30
0.0
 10
373.6924312096722
 20
1132.83892124085
 30
0.0
 10
373.151036468223
 20
1132.850183827137
 30
0.0
 10
372.0699317439676
 20
1132.905421409925
 30
0.0
 10
371.5288569848673
 20
1132.949081216387
 30
0.0
 10
370.4560428185859
 20
1133.091065712169
 30
0.0
 10
369.9253626212483
 20
1133.186800404496
 30
0.0
 10
369.149501529485
 20
1133.418901620895
 30
0.0
 10
368.8917678535818
 20
1133.512472897809
 30
0.0
 10
368.5272104468677
 20
1133.691203377012
 30
0.0
 10
368.4093747518548
 20
1133.75720480492
 30
0.0
 10
368.1842890798998
 20
1133.907760803556
 30
0.0
 10
368.0762721263541
 20
1133.99301637511
 30
0.0
 10
367.9793571498697
 20
1134.089931351594
 30
0.0
  0
SPLINE
  5
87
330
1F
100
AcDbEntity
  8
MIKY
  6
Continuous
 62
     7
100
AcDbSpline
210
0.0
220
0.0
230
1.0
 70
    12
 71
     2
 72
     6
 73
     3
 74
     0
 42
0.0000000002541085
 43
0.0000000001
 40
0.0
 40
0.0
 40
0.0
 40
1.0
 40
1.0
 40
1.0
 10
396.5640039001735
 20
1392.171914850369
 30
0.0
 41
1.0
 10
376.8885439955984
 20
1391.956936847578
 30
0.0
 41
0.7109592814054139
 10
376.6735659928079
 20
1372.281476943003
 30
0.0
 41
1.0
  0
SPLINE
  5
88
330
1F
100
AcDbEntity
  8
MIKY
  6
Continuous
 62
     7
100
AcDbSpline
210
0.0
220
0.0
230
1.0
 70
    12
 71
     2
 72
     6
 73
     3
 74
     0
 42
0.0000000002541085
 43
0.0000000001
 40
0.0
 40
0.0
 40
0.0
 40
1.0
 40
1.0
 40
1.0
 10
410.0316248342397
 20
1378.704293916302
 30
0.0
 41
1.0
 10
390.3561649296648
 20
1378.489315913511
 30
0.0
 41
0.7109592814054678
 10
390.1411869268746
 20
1358.813856008936
 30
0.0
 41
1.0
  0
SPLINE
  5
89
330
1F
100
AcDbEntity
  8
MIKY
  6
Continuous
 62
     7
100
AcDbSpline
210
0.0
220
0.0
230
1.0
 70
    12
 71
     2
 72
     6
 73
     3
 74
     0
 42
0.0000000002541085
 43
0.0000000001
 40
0.0
 40
0.0
 40
0.0
 40
1.0
 40
1.0
 40
1.0
 10
376.6735659928078
 20
1160.172557880408
 30
0.0
 41
1.0
 10
376.8885439955984
 20
1140.497097975833
 30
0.0
 41
0.7109592814054108
 10
396.5640039001734
 20
1140.282119973043
 30
0.0
 41
1.0
  0
LINE
  5
8A
330
1F
100
AcDbEntity
  8
MIKY
  6
Continuous
 62
     7
100
AcDbLine
 10
410.0316248342
 20
1358.8138560089
 30
0.0
 11
390.1411869269
 21
1358.8138560089
 31
0.0
  0
LINE
  5
8B
330
1F
100
AcDbEntity
  8
MIKY
  6
Continuous
 62
     7
100
AcDbLine
 10
410.0316248342
 20
1378.7042939163
 30
0.0
 11
410.0316248342
 21
1358.8138560089
 31
0.0
  0
SPLINE
  5
8C
330
1F
100
AcDbEntity
  8
MIKY
  6
Continuous
 62
     7
100
AcDbSpline
210
0.0
220
0.0
230
1.0
 70
    12
 71
     2
 72
     6
 73
     3
 74
     0
 42
0.0000000002541085
 43
0.0000000001
 40
0.0
 40
0.0
 40
0.0
 40
1.0
 40
1.0
 40
1.0
 10
781.7912089713992
 20
1372.281476943003
 30
0.0
 41
1.0
 10
781.5762309686089
 20
1391.956936847578
 30
0.0
 41
0.7109592814054452
 10
761.9007710640334
 20
1392.171914850368
 30
0.0
 41
1.0
  0
SPLINE
  5
8D
330
1F
100
AcDbEntity
  8
MIKY
  6
Continuous
 62
     7
100
AcDbSpline
210
0.0
220
0.0
230
1.0
 70
    12
 71
     2
 72
     6
 73
     3
 74
     0
 42
0.0000000002541085
 43
0.0000000001
 40
0.0
 40
0.0
 40
0.0
 40
1.0
 40
1.0
 40
1.0
 10
390.1411869268746
 20
1173.640178814476
 30
0.0
 41
1.0
 10
390.3561649296651
 20
1153.964718909901
 30
0.0
 41
0.7109592814054547
 10
410.0316248342402
 20
1153.74974090711
 30
0.0
 41
1.0
  0
LINE
  5
8E
330
1F
100
AcDbEntity
  8
MIKY
  6
Continuous
 62
     7
100
AcDbLine
 10
410.0316248342
 20
1173.6401788145
 30
0.0
 11
390.1411869269
 21
1173.6401788145
 31
0.0
  0
LINE
  5
8F
330
1F
100
AcDbEntity
  8
MIKY
  6
Continuous
 62
     7
100
AcDbLine
 10
748.43315013
 20
1378.7042939163
 30
0.0
 11
748.43315013
 21
1358.8138560089
 31
0.0
  0
SPLINE
  5
90
330
1F
100
AcDbEntity
  8
MIKY
  6
Continuous
 62
     7
100
AcDbSpline
210
0.0
220
0.0
230
1.0
 70
    12
 71
     2
 72
     6
 73
     3
 74
     0
 42
0.0000000002541085
 43
0.0000000001
 40
0.0
 40
0.0
 40
0.0
 40
1.0
 40
1.0
 40
1.0
 10
768.3235880373325
 20
1358.813856008936
 30
0.0
 41
1.0
 10
768.1086100345418
 20
1378.489315913511
 30
0.0
 41
0.7109592814054719
 10
748.4331501299671
 20
1378.704293916302
 30
0.0
 41
1.0
  0
LINE
  5
91
330
1F
100
AcDbEntity
  8
MIKY
  6
Continuous
 62
     7
100
AcDbLine
 10
410.0316248342
 20
1173.6401788145
 30
0.0
 11
410.0316248342
 21
1153.7497409071
 31
0.0
  0
LINE
  5
92
330
1F
100
AcDbEntity
  8
MIKY
  6
Continuous
 62
     7
100
AcDbLine
 10
768.3235880373
 20
1358.8138560089
 30
0.0
 11
748.43315013
 21
1358.8138560089
 31
0.0
  0
LINE
  5
93
330
1F
100
AcDbEntity
  8
MIKY
  6
Continuous
 62
     7
100
AcDbLine
 10
748.43315013
 20
1173.6401788145
 30
0.0
 11
748.43315013
 21
1153.7497409071
 31
0.0
  0
LINE
  5
94
330
1F
100
AcDbEntity
  8
MIKY
  6
Continuous
 62
     7
100
AcDbLine
 10
768.3235880373
 20
1173.6401788145
 30
0.0
 11
748.43315013
 21
1173.6401788145
 31
0.0
  0
SPLINE
  5
95
330
1F
100
AcDbEntity
  8
MIKY
  6
Continuous
 62
     7
100
AcDbSpline
210
0.0
220
0.0
230
1.0
 70
    12
 71
     2
 72
     6
 73
     3
 74
     0
 42
0.0000000002541085
 43
0.0000000001
 40
0.0
 40
0.0
 40
0.0
 40
1.0
 40
1.0
 40
1.0
 10
748.4331501299666
 20
1153.74974090711
 30
0.0
 41
1.0
 10
768.1086100345417
 20
1153.964718909901
 30
0.0
 41
0.7109592814054414
 10
768.3235880373323
 20
1173.640178814476
 30
0.0
 41
1.0
  0
SPLINE
  5
96
330
1F
100
AcDbEntity
  8
MIKY
  6
Continuous
 62
     7
100
AcDbSpline
210
0.0
220
0.0
230
1.0
 70
    12
 71
     2
 72
     6
 73
     3
 74
     0
 42
0.0000000002541085
 43
0.0000000001
 40
0.0
 40
0.0
 40
0.0
 40
1.0
 40
1.0
 40
1.0
 10
761.9007710640335
 20
1140.282119973043
 30
0.0
 41
1.0
 10
781.5762309686086
 20
1140.497097975833
 30
0.0
 41
0.7109592814054294
 10
781.7912089713991
 20
1160.172557880408
 30
0.0
 41
1.0
  0
CIRCLE
  5
97
330
1F
100
AcDbEntity
  8
MIKY
  6
Continuous
 62
     7
100
AcDbCircle
 10
579.2323874821
 20
1310.3409414623
 30
0.0
 40
25.0
  0
CIRCLE
  5
98
330
1F
100
AcDbEntity
  8
MIKY
  6
Continuous
 62
     7
100
AcDbCircle
 10
579.2323874821
 20
1310.3409414623
 30
0.0
 40
40.0
  0
LINE
  5
99
330
1F
100
AcDbEntity
  8
MIKY
  6
Continuous
 62
     7
100
AcDbLine
 10
345.7323874821
 20
1135.3409414623
 30
0.0
 11
345.7323874821
 21
1420.3409414623
 31
0.0
  0
LINE
  5
9A
330
1F
100
AcDbEntity
  8
MIKY
  6
Continuous
 62
     7
100
AcDbLine
 10
345.7323874821
 20
1135.3409414623
 30
0.0
 11
355.7323874821
 21
1135.3409414623
 31
0.0
  0
LINE
  5
9B
330
1F
100
AcDbEntity
  8
MIKY
  6
Continuous
 62
     7
100
AcDbLine
 10
355.7323874821
 20
1135.3409414623
 30
0.0
 11
355.7323874821
 21
1125.3409414623
 31
0.0
  0
ARC
  5
9C
330
1F
100
AcDbEntity
  8
MIKY
  6
Continuous
 62
     7
100
AcDbCircle
 10
355.7323874821
 20
1135.3409414623
 30
0.0
 40
10.00000000000001
100
AcDbArc
 50
180.0
 51
270.0
  0
LINE
  5
9D
330
1F
100
AcDbEntity
  8
MIKY
  6
Continuous
 62
     7
100
AcDbLine
 10
802.7323874821
 20
1135.3409414623
 30
0.0
 11
812.7323874821
 21
1135.3409414623
 31
0.0
  0
LINE
  5
9E
330
1F
100
AcDbEntity
  8
MIKY
  6
Continuous
 62
     7
100
AcDbLine
 10
802.7323874821
 20
1125.3409414623
 30
0.0
 11
355.7323874821
 21
1125.3409414623
 31
0.0
  0
LINE
  5
9F
330
1F
100
AcDbEntity
  8
MIKY
  6
Continuous
 62
     7
100
AcDbLine
 10
802.7323874821
 20
1125.3409414623
 30
0.0
 11
802.7323874821
 21
1135.3409414623
 31
0.0
  0
ARC
  5
A0
330
1F
100
AcDbEntity
  8
MIKY
  6
Continuous
 62
     7
100
AcDbCircle
 10
802.7323874821
 20
1135.3409414623
 30
0.0
 40
10.00000000000001
100
AcDbArc
 50
270.0
 51
360.0
  0
LINE
  5
A1
330
1F
100
AcDbEntity
  8
MIKY
  6
Continuous
 62
     7
100
AcDbLine
 10
802.7323874821
 20
1420.3409414623
 30
0.0
 11
802.7323874821
 21
1430.3409414623
 31
0.0
  0
LINE
  5
A2
330
1F
100
AcDbEntity
  8
MIKY
  6
Continuous
 62
     7
100
AcDbLine
 10
812.7323874821
 20
1420.3409414623
 30
0.0
 11
812.7323874821
 21
1135.3409414623
 31
0.0
  0
LINE
  5
A3
330
1F
100
AcDbEntity
  8
MIKY
  6
Continuous
 62
     7
100
AcDbLine
 10
812.7323874821
 20
1420.3409414623
 30
0.0
 11
802.7323874821
 21
1420.3409414623
 31
0.0
  0
ARC
  5
A4
330
1F
100
AcDbEntity
  8
MIKY
  6
Continuous
 62
     7
100
AcDbCircle
 10
802.7323874821
 20
1420.3409414623
 30
0.0
 40
10.00000000000001
100
AcDbArc
 50
0.0
 51
90.0
  0
LINE
  5
A5
330
1F
100
AcDbEntity
  8
MIKY
  6
Continuous
 62
     7
100
AcDbLine
 10
355.7323874821
 20
1430.3409414623
 30
0.0
 11
560.2323874821
 21
1430.3409414623
 31
0.0
  0
LINE
  5
A6
330
1F
100
AcDbEntity
  8
MIKY
  6
Continuous
 62
     7
100
AcDbLine
 10
355.7323874821
 20
1430.3409414623
 30
0.0
 11
355.7323874821
 21
1420.3409414623
 31
0.0
  0
LINE
  5
A7
330
1F
100
AcDbEntity
  8
MIKY
  6
Continuous
 62
     7
100
AcDbLine
 10
355.7323874821
 20
1420.3409414623
 30
0.0
 11
345.7323874821
 21
1420.3409414623
 31
0.0
  0
ARC
  5
A8
330
1F
100
AcDbEntity
  8
MIKY
  6
Continuous
 62
     7
100
AcDbCircle
 10
355.7323874821
 20
1420.3409414623
 30
0.0
 40
10.00000000000001
100
AcDbArc
 50
90.0
 51
180.0
  0
LINE
  5
A9
330
1F
100
AcDbEntity
  8
MIKY
  6
Continuous
 62
     7
100
AcDbLine
 10
593.2323874821
 20
1444.6807121857
 30
0.0
 11
565.2323874821
 21
1444.6807121857
 31
0.0
  0
INSERT
  5
AB
330
1F
100
AcDbEntity
  8
Default
100
AcDbBlockReference
  2
SE
 10
0.0
 20
0.0
 30
0.0
  0
TEXT
  5
C8
330
1F
100
AcDbEntity
  8
0
  6
Continuous
 62
     7
100
AcDbText
 10
1394.0529440692
 20
931.2355015551
 30
0.0
 40
24.0
  1
SEZIONE A-A
  7
SEACAD_arial_ttf
 11
1394.0529440692
 21
955.2355015551
 31
0.0
100
AcDbText
 73
     3
  0
ARC
  5
C9
330
1F
100
AcDbEntity
  8
MIKY
  6
Continuous
 62
     7
100
AcDbCircle
 10
1416.46035276
 20
1350.3409414623
 30
0.0
 40
14.99999999999999
100
AcDbArc
 50
270.0
 51
360.0
  0
ARC
  5
CA
330
1F
100
AcDbEntity
  8
MIKY
  6
Continuous
 62
     7
100
AcDbCircle
 10
1416.46035276
 20
1270.3409414623
 30
0.0
 40
15.00000000000001
100
AcDbArc
 50
0.0
 51
90.0
  0
LINE
  5
CB
330
1F
100
AcDbEntity
  8
MIKY
  6
Continuous
 62
     7
100
AcDbLine
 10
1431.46035276
 20
1350.3409414623
 30
0.0
 11
1431.46035276
 21
1270.3409414623
 31
0.0
  0
LINE
  5
CC
330
1F
100
AcDbEntity
  8
MIKY
  6
Continuous
 62
     7
100
AcDbLine
 10
1416.46035276
 20
1285.3409414623
 30
0.0
 11
1416.46035276
 21
1335.3409414623
 31
0.0
  0
ARC
  5
CD
330
1F
100
AcDbEntity
  8
MIKY
  6
Continuous
 62
     7
100
AcDbCircle
 10
1576.46035276
 20
1135.3409414623
 30
0.0
 40
9.99999999999534
100
AcDbArc
 50
345.5105328663
 51
352.8134109211
  0
LINE
  5
CE
330
1F
100
AcDbEntity
  8
MIKY
  6
Continuous
 62
     7
100
AcDbLine
 10
1449.3697834947
 20
1173.6401788145
 30
0.0
 11
1577.5056373927
 21
1160.1725578804
 31
0.0
  0
LINE
  5
CF
330
1F
100
AcDbEntity
  8
MIKY
  6
Continuous
 62
     7
100
AcDbLine
 10
1449.3697834947
 20
1358.8138560089
 30
0.0
 11
1449.3697834947
 21
1173.6401788145
 31
0.0
  0
LINE
  5
D0
330
1F
100
AcDbEntity
  8
MIKY
  6
Continuous
 62
     7
100
AcDbLine
 10
1577.5056373927
 20
1372.281476943
 30
0.0
 11
1449.3697834947
 21
1358.8138560089
 31
0.0
  0
SPLINE
  5
D1
330
1F
100
AcDbEntity
  8
MIKY
  6
Continuous
 62
     7
100
AcDbSpline
210
0.0
220
0.0
230
1.0
 70
    12
 71
     2
 72
     6
 73
     3
 74
     0
 42
0.0000000003136325
 43
0.0000000001
 40
0.0
 40
0.0
 40
0.0
 40
1.0
 40
1.0
 40
1.0
 10
1586.38179286227
 20
1134.089931351594
 30
0.0
 41
1.0
 10
1585.390016061966
 20
1157.686513108667
 30
0.0
 41
0.7836207575656596
 10
1577.505637392684
 20
1160.172557880408
 30
0.0
 41
1.0
  0
SPLINE
  5
D2
330
1F
100
AcDbEntity
  8
MIKY
  6
Continuous
 62
     7
100
AcDbSpline
210
0.0
220
0.0
230
1.0
 70
    12
 71
     2
 72
     6
 73
     3
 74
     0
 42
0.0000000002747144
 43
0.0000000001
 40
0.0
 40
0.0
 40
0.0
 40
1.0
 40
1.0
 40
1.0
 10
1577.505637392682
 20
1372.281476943003
 30
0.0
 41
1.0
 10
1586.460352760006
 20
1375.105012475114
 30
0.0
 41
0.7431448254773494
 10
1586.460352760006
 20
1402.117133804051
 30
0.0
 41
1.0
  0
ARC
  5
D3
330
1F
100
AcDbEntity
  8
MIKY
  6
Continuous
 62
     7
100
AcDbCircle
 10
1386.46035276
 20
1389.5364396182
 30
0.0
 40
5.000000000000007
100
AcDbArc
 50
180.0
 51
260.0
  0
LINE
  5
D4
330
1F
100
AcDbEntity
  8
MIKY
  6
Continuous
 62
     7
100
AcDbLine
 10
1394.9743133661
 20
1382.9580655913
 30
0.0
 11
1385.5921118717
 21
1384.6124008532
 31
0.0
  0
LINE
  5
D5
330
1F
100
AcDbEntity
  8
MIKY
  6
Continuous
 62
     7
100
AcDbLine
 10
1386.1986729788
 20
1413.4745649009
 30
0.0
 11
1401.924866105
 21
1414.2987397592
 31
0.0
  0
LINE
  5
D6
330
1F
100
AcDbEntity
  8
MIKY
  6
Continuous
 62
     7
100
AcDbLine
 10
1400.807561809
 20
1409.2607131155
 30
0.0
 11
1385.9377104437
 21
1408.4814172271
 31
0.0
  0
LINE
  5
D7
330
1F
100
AcDbEntity
  8
MIKY
  6
Continuous
 62
     7
100
AcDbLine
 10
1385.9377104437
 20
1389.5364396182
 30
0.0
 11
1396.0382477333
 21
1387.7554423744
 31
0.0
  0
LINE
  5
D8
330
1F
100
AcDbEntity
  8
MIKY
  6
Continuous
 62
     7
100
AcDbLine
 10
1385.9377104437
 20
1408.4814172271
 30
0.0
 11
1381.46035276
 21
1408.4814172271
 31
0.0
  0
LINE
  5
D9
330
1F
100
AcDbEntity
  8
MIKY
  6
Continuous
 62
     7
100
AcDbLine
 10
1381.46035276
 20
1389.5364396182
 30
0.0
 11
1385.9377104437
 21
1389.5364396182
 31
0.0
  0
ARC
  5
DA
330
1F
100
AcDbEntity
  8
MIKY
  6
Continuous
 62
     7
100
AcDbCircle
 10
1386.46035276
 20
1408.4814172271
 30
0.0
 40
5.000000000000004
100
AcDbArc
 50
93.0
 51
180.0
  0
LINE
  5
DB
330
1F
100
AcDbEntity
  8
MIKY
  6
Continuous
 62
     7
100
AcDbLine
 10
1392.8724565495
 20
1373.4806021275
 30
0.0
 11
1385.5921118717
 21
1374.764323323
 31
0.0
  0
LINE
  5
DC
330
1F
100
AcDbEntity
  8
MIKY
  6
Continuous
 62
     7
100
AcDbLine
 10
1413.1968345367
 20
1185.7850170025
 30
0.0
 11
1413.1968345367
 21
1275.1890189925
 31
0.0
  0
LINE
  5
DD
330
1F
100
AcDbEntity
  8
MIKY
  6
Continuous
 62
     7
100
AcDbLine
 10
1385.5921118717
 20
1180.9175596016
 30
0.0
 11
1413.1968345367
 21
1185.7850170025
 31
0.0
  0
SPLINE
  5
DE
330
1F
100
AcDbEntity
  8
MIKY
  6
Continuous
 62
     7
100
AcDbSpline
210
0.0
220
0.0
230
1.0
 70
    12
 71
     2
 72
     6
 73
     3
 74
     0
 42
0.0000000005793501
 43
0.0000000001
 40
0.0
 40
0.0
 40
0.0
 40
1.0
 40
1.0
 40
1.0
 10
1381.460352760006
 20
1389.536439618225
 30
0.0
 41
1.0
 10
1381.460352760006
 20
1376.949945150566
 30
0.0
 41
0.7660444431189639
 10
1385.592111871672
 20
1374.764323323042
 30
0.0
 41
1.0
  0
SPLINE
  5
DF
330
1F
100
AcDbEntity
  8
MIKY
  6
Continuous
 62
     7
100
AcDbSpline
210
0.0
220
0.0
230
1.0
 70
    12
 71
     2
 72
     6
 73
     3
 74
     0
 42
0.0000000005793501
 43
0.0000000001
 40
0.0
 40
0.0
 40
0.0
 40
1.0
 40
1.0
 40
1.0
 10
1385.592111871672
 20
1180.917559601636
 30
0.0
 41
1.0
 10
1381.460352760006
 20
1178.731937774112
 30
0.0
 41
0.7660444431189126
 10
1381.460352760006
 20
1166.145443306453
 30
0.0
 41
1.0
  0
LINE
  5
E0
330
1F
100
AcDbEntity
  8
MIKY
  6
Continuous
 62
     7
100
AcDbLine
 10
1385.9377104437
 20
1408.4814172271
 30
0.0
 11
1385.9377104437
 21
1389.5364396182
 31
0.0
  0
LINE
  5
E1
330
1F
100
AcDbEntity
  8
MIKY
  6
Continuous
 62
     7
100
AcDbLine
 10
1385.5921118717
 20
1374.764323323
 30
0.0
 11
1385.5921118717
 21
1345.6192113874
 31
0.0
  0
LINE
  5
E2
330
1F
100
AcDbEntity
  8
MIKY
  6
Continuous
 62
     7
100
AcDbLine
 10
1385.5921118717
 20
1275.4169026973
 30
0.0
 11
1385.5921118717
 21
1180.9175596016
 31
0.0
  0
LINE
  5
E3
330
1F
100
AcDbEntity
  8
MIKY
  6
Continuous
 62
     7
100
AcDbLine
 10
1381.46035276
 20
1166.1454433065
 30
0.0
 11
1381.46035276
 21
1280.3409414623
 31
0.0
  0
LINE
  5
E4
330
1F
100
AcDbEntity
  8
MIKY
  6
Continuous
 62
     7
100
AcDbLine
 10
1381.46035276
 20
1340.3409414623
 30
0.0
 11
1381.46035276
 21
1389.5364396182
 31
0.0
  0
LINE
  5
E5
330
1F
100
AcDbEntity
  8
MIKY
  6
Continuous
 62
     7
100
AcDbLine
 10
1381.46035276
 20
1389.5364396182
 30
0.0
 11
1381.46035276
 21
1408.4814172271
 31
0.0
  0
ARC
  5
E6
330
1F
100
AcDbEntity
  8
MIKY
  6
Continuous
 62
     7
100
AcDbCircle
 10
1576.46035276
 20
1135.3409414623
 30
0.0
 40
10.00000000000023
100
AcDbArc
 50
352.8134109211
 51
360.0
  0
LINE
  5
E7
330
1F
100
AcDbEntity
  8
MIKY
  6
Continuous
 62
     7
100
AcDbLine
 10
1586.46035276
 20
1402.1171338041
 30
0.0
 11
1586.46035276
 21
1135.3409414623
 31
0.0
  0
LINE
  5
E8
330
1F
100
AcDbEntity
  8
MIKY
  6
Continuous
 62
     7
100
AcDbLine
 10
1577.5056373927
 20
1160.1725578804
 30
0.0
 11
1577.5056373927
 21
1372.281476943
 31
0.0
  0
LINE
  5
E9
330
1F
100
AcDbEntity
  8
MIKY
  6
Continuous
 62
     7
100
AcDbLine
 10
1551.46035276
 20
1389.4344451268
 30
0.0
 11
1531.46035276
 21
1387.3323604215
 31
0.0
  0
LINE
  5
EA
330
1F
100
AcDbEntity
  8
MIKY
  6
Continuous
 62
     7
100
AcDbLine
 10
1381.46035276
 20
1285.3409414623
 30
0.0
 11
1381.46035276
 21
1335.3409414623
 31
0.0
  0
SPLINE
  5
EB
330
1F
100
AcDbEntity
  8
MIKY
  6
Continuous
 62
     7
100
AcDbSpline
210
0.0
220
0.0
230
1.0
 70
    12
 71
     2
 72
     6
 73
     3
 74
     0
 42
0.0000000008803874
 43
0.0000000001
 40
0.0
 40
0.0
 40
0.0
 40
1.0
 40
1.0
 40
1.0
 10
1385.592111871671
 20
1171.069482071514
 30
0.0
 41
1.0
 10
1387.226936326661
 20
1171.35774573165
 30
0.0
 41
0.7176885430349585
 10
1385.592111871671
 20
1180.917559601636
 30
0.0
 41
1.0
  0
SPLINE
  5
EC
330
1F
100
AcDbEntity
  8
MIKY
  6
Continuous
 62
     7
100
AcDbSpline
210
0.0
220
0.0
230
1.0
 70
    12
 71
     2
 72
     6
 73
     3
 74
     0
 42
0.0000000008803874
 43
0.0000000001
 40
0.0
 40
0.0
 40
0.0
 40
1.0
 40
1.0
 40
1.0
 10
1413.196834536676
 20
1175.936939472328
 30
0.0
 41
1.0
 10
1414.831658991665
 20
1176.225203132465
 30
0.0
 41
0.7176885430349372
 10
1413.196834536676
 20
1185.78501700245
 30
0.0
 41
1.0
  0
LINE
  5
ED
330
1F
100
AcDbEntity
  8
MIKY
  6
Continuous
 62
     7
100
AcDbLine
 10
1413.1968345367
 20
1185.7850170025
 30
0.0
 11
1421.46035276
 21
1185.7850170025
 31
0.0
  0
SPLINE
  5
EE
330
1F
100
AcDbEntity
  8
MIKY
  6
Continuous
 62
     7
100
AcDbSpline
210
0.0
220
0.0
230
1.0
 70
    12
 71
     2
 72
     6
 73
     3
 74
     0
 42
0.0000000008803874
 43
0.0000000001
 40
0.0
 40
0.0
 40
0.0
 40
1.0
 40
1.0
 40
1.0
 10
1385.592111871671
 20
1374.764323323042
 30
0.0
 41
1.0
 10
1387.226936326661
 20
1384.324137193028
 30
0.0
 41
0.7176885430349372
 10
1385.592111871671
 20
1384.612400853164
 30
0.0
 41
1.0
  0
SPLINE
  5
EF
330
1F
100
AcDbEntity
  8
MIKY
  6
Continuous
 62
     7
100
AcDbSpline
210
0.0
220
0.0
230
1.0
 70
    12
 71
     2
 72
     6
 73
     3
 74
     0
 42
0.0000000018467974
 43
0.0000000001
 40
0.0
 40
0.0
 40
0.0
 40
1.0
 40
1.0
 40
1.0
 10
1385.937710443668
 20
1389.536439618225
 30
0.0
 41
1.0
 10
1385.094265644583
 20
1384.700184575244
 30
0.0
 41
0.7134953318560655
 10
1385.592111871672
 20
1384.612400853164
 30
0.0
 41
1.0
  0
SPLINE
  5
F0
330
1F
100
AcDbEntity
  8
MIKY
  6
Continuous
 62
     7
100
AcDbSpline
210
0.0
220
0.0
230
1.0
 70
    12
 71
     2
 72
     6
 73
     3
 74
     0
 42
0.0000000018209184
 43
0.0000000001
 40
0.0
 40
0.0
 40
0.0
 40
1.0
 40
1.0
 40
1.0
 10
1386.198672978792
 20
1413.474564900911
 30
0.0
 41
1.0
 10
1385.680298027595
 20
1413.447398020882
 30
0.0
 41
0.7090382913078009
 10
1385.937710443668
 20
1408.481417227138
 30
0.0
 41
1.0
  0
SPLINE
  5
F1
330
1F
100
AcDbEntity
  8
MIKY
  6
Continuous
 62
     7
100
AcDbSpline
210
0.0
220
0.0
230
1.0
 70
    12
 71
     2
 72
     6
 73
     3
 74
     0
 42
0.0000000004579146
 43
0.0000000001
 40
0.0
 40
0.0
 40
0.0
 40
1.0
 40
1.0
 40
1.0
 10
1577.505637392683
 20
1392.171914850369
 30
0.0
 41
1.0
 10
1575.460258324494
 20
1391.956936847579
 30
0.0
 41
0.7109592814051855
 10
1577.505637392683
 20
1372.281476943003
 30
0.0
 41
1.0
  0
SPLINE
  5
F2
330
1F
100
AcDbEntity
  8
MIKY
  6
Continuous
 62
     7
100
AcDbSpline
210
0.0
220
0.0
230
1.0
 70
    12
 71
     2
 72
     6
 73
     3
 74
     0
 42
0.0000000004579146
 43
0.0000000001
 40
0.0
 40
0.0
 40
0.0
 40
1.0
 40
1.0
 40
1.0
 10
1449.369783494653
 20
1378.704293916302
 30
0.0
 41
1.0
 10
1447.324404426465
 20
1378.489315913512
 30
0.0
 41
0.710959281405339
 10
1449.369783494653
 20
1358.813856008936
 30
0.0
 41
1.0
  0
LINE
  5
F3
330
1F
100
AcDbEntity
  8
MIKY
  6
Continuous
 62
     7
100
AcDbLine
 10
1449.3697834947
 20
1358.8138560089
 30
0.0
 11
1431.46035276
 21
1358.8138560089
 31
0.0
  0
LINE
  5
F4
330
1F
100
AcDbEntity
  8
MIKY
  6
Continuous
 62
     7
100
AcDbLine
 10
1449.3697834947
 20
1173.6401788145
 30
0.0
 11
1431.46035276
 21
1173.6401788145
 31
0.0
  0
SPLINE
  5
F5
330
1F
100
AcDbEntity
  8
MIKY
  6
Continuous
 62
     7
100
AcDbSpline
210
0.0
220
0.0
230
1.0
 70
    12
 71
     2
 72
     6
 73
     3
 74
     0
 42
0.0000000004579146
 43
0.0000000001
 40
0.0
 40
0.0
 40
0.0
 40
1.0
 40
1.0
 40
1.0
 10
1449.369783494653
 20
1173.640178814476
 30
0.0
 41
1.0
 10
1447.324404426465
 20
1153.9647189099
 30
0.0
 41
0.7109592814053222
 10
1449.369783494653
 20
1153.74974090711
 30
0.0
 41
1.0
  0
SPLINE
  5
F6
330
1F
100
AcDbEntity
  8
MIKY
  6
Continuous
 62
     7
100
AcDbSpline
210
0.0
220
0.0
230
1.0
 70
    12
 71
     2
 72
     6
 73
     3
 74
     0
 42
0.0000000004579146
 43
0.0000000001
 40
0.0
 40
0.0
 40
0.0
 40
1.0
 40
1.0
 40
1.0
 10
1577.505637392683
 20
1160.172557880409
 30
0.0
 41
1.0
 10
1575.460258324494
 20
1140.497097975833
 30
0.0
 41
0.7109592814053115
 10
1577.505637392683
 20
1140.282119973043
 30
0.0
 41
1.0
  0
ARC
  5
F7
330
1F
100
AcDbEntity
  8
MIKY
  6
Continuous
 62
     7
100
AcDbCircle
 10
1576.46035276
 20
1434.6807121857
 30
0.0
 40
10.0
100
AcDbArc
 50
0.0
 51
93.660703027
  0
LINE
  5
F8
330
1F
100
AcDbEntity
  8
MIKY
  6
Continuous
 62
     7
100
AcDbLine
 10
1586.46035276
 20
1402.1171338041
 30
0.0
 11
1586.46035276
 21
1434.6807121857
 31
0.0
  0
LINE
  5
F9
330
1F
100
AcDbEntity
  8
MIKY
  6
Continuous
 62
     7
100
AcDbLine
 10
1575.8218741484
 20
1444.6603086235
 30
0.0
 11
1410.0011239246
 21
1434.0513623564
 31
0.0
  0
ARC
  5
FA
330
1F
100
AcDbEntity
  8
MIKY
  6
Continuous
 62
     7
100
AcDbCircle
 10
1576.46035276
 20
1402.1171338041
 30
0.0
 40
10.0
100
AcDbArc
 50
276.0
 51
360.0
  0
ARC
  5
FB
330
1F
100
AcDbEntity
  8
MIKY
  6
Continuous
 62
     7
100
AcDbCircle
 10
1410.3203632304
 20
1429.0615641374
 30
0.0
 40
4.999999999999988
100
AcDbArc
 50
93.660703027
 51
167.4956567554
  0
LINE
  5
FC
330
1F
100
AcDbEntity
  8
MIKY
  6
Continuous
 62
     7
100
AcDbLine
 10
1577.5056373927
 20
1392.1719148504
 30
0.0
 11
1551.46035276
 21
1389.4344451268
 31
0.0
  0
LINE
  5
FD
330
1F
100
AcDbEntity
  8
MIKY
  6
Continuous
 62
     7
100
AcDbLine
 10
1551.46035276
 20
1389.4344451268
 30
0.0
 11
1551.46035276
 21
1422.1355625388
 31
0.0
  0
LINE
  5
FE
330
1F
100
AcDbEntity
  8
MIKY
  6
Continuous
 62
     7
100
AcDbLine
 10
1405.4389652437
 20
1430.1441322393
 30
0.0
 11
1387.3126107037
 21
1348.4107517679
 31
0.0
  0
LINE
  5
FF
330
1F
100
AcDbEntity
  8
MIKY
  6
Continuous
 62
     7
100
AcDbLine
 10
1531.46035276
 20
1421.0874069532
 30
0.0
 11
1551.46035276
 21
1422.1355625388
 31
0.0
  0
ARC
  5
100
330
1F
100
AcDbEntity
  8
MIKY
  6
Continuous
 62
     7
100
AcDbCircle
 10
1382.4312127169
 20
1349.4933198698
 30
0.0
 40
4.999999999999994
100
AcDbArc
 50
293.7604738087
 51
347.4956567554
  0
LINE
  5
101
330
1F
100
AcDbEntity
  8
MIKY
  6
Continuous
 62
     7
100
AcDbLine
 10
1531.46035276
 20
1421.0874069532
 30
0.0
 11
1531.46035276
 21
1387.3323604215
 31
0.0
  0
ARC
  5
102
330
1F
100
AcDbEntity
  8
MIKY
  6
Continuous
 62
     7
100
AcDbCircle
 10
1386.46035276
 20
1340.3409414623
 30
0.0
 40
5.000000000000006
100
AcDbArc
 50
113.7604738087
 51
180.0
  0
LINE
  5
103
330
1F
100
AcDbEntity
  8
MIKY
  6
Continuous
 62
     7
100
AcDbLine
 10
1531.46035276
 20
1387.3323604215
 30
0.0
 11
1449.3697834947
 21
1378.7042939163
 31
0.0
  0
LINE
  5
104
330
1F
100
AcDbEntity
  8
MIKY
  6
Continuous
 62
     7
100
AcDbLine
 10
1381.46035276
 20
1335.3409414623
 30
0.0
 11
1381.46035276
 21
1340.3409414623
 31
0.0
  0
ARC
  5
105
330
1F
100
AcDbEntity
  8
MIKY
  6
Continuous
 62
     7
100
AcDbCircle
 10
1451.46035276
 20
1358.8138560089
 30
0.0
 40
20.0
100
AcDbArc
 50
96.0
 51
180.0
  0
LINE
  5
106
330
1F
100
AcDbEntity
  8
MIKY
  6
Continuous
 62
     7
100
AcDbLine
 10
1416.46035276
 20
1335.3409414623
 30
0.0
 11
1381.46035276
 21
1335.3409414623
 31
0.0
  0
LINE
  5
107
330
1F
100
AcDbEntity
  8
MIKY
  6
Continuous
 62
     7
100
AcDbLine
 10
1431.46035276
 20
1350.3409414623
 30
0.0
 11
1431.46035276
 21
1358.8138560089
 31
0.0
  0
LINE
  5
108
330
1F
100
AcDbEntity
  8
MIKY
  6
Continuous
 62
     7
100
AcDbLine
 10
1381.46035276
 20
1166.1454433065
 30
0.0
 11
1381.46035276
 21
1140.2004656975
 31
0.0
  0
ARC
  5
109
330
1F
100
AcDbEntity
  8
MIKY
  6
Continuous
 62
     7
100
AcDbCircle
 10
1386.46035276
 20
1166.1454433065
 30
0.0
 40
4.999999999999993
100
AcDbArc
 50
100.0
 51
180.0
  0
ARC
  5
10A
330
1F
100
AcDbEntity
  8
MIKY
  6
Continuous
 62
     7
100
AcDbCircle
 10
1386.46035276
 20
1140.2004656975
 30
0.0
 40
5.000000000000004
100
AcDbArc
 50
180.0
 51
267.0
  0
LINE
  5
10B
330
1F
100
AcDbEntity
  8
MIKY
  6
Continuous
 62
     7
100
AcDbLine
 10
1574.46035276
 20
1125.3409414623
 30
0.0
 11
1386.1986729788
 21
1135.2073180238
 31
0.0
  0
LINE
  5
10C
330
1F
100
AcDbEntity
  8
MIKY
  6
Continuous
 62
     7
100
AcDbLine
 10
1385.5921118717
 20
1171.0694820715
 30
0.0
 11
1413.1968345367
 21
1175.9369394723
 31
0.0
  0
ARC
  5
10D
330
1F
100
AcDbEntity
  8
MIKY
  6
Continuous
 62
     7
100
AcDbCircle
 10
1411.46035276
 20
1185.7850170025
 30
0.0
 40
10.0
100
AcDbArc
 50
280.0
 51
360.0
  0
LINE
  5
10E
330
1F
100
AcDbEntity
  8
MIKY
  6
Continuous
 62
     7
100
AcDbLine
 10
1421.46035276
 20
1265.3409414623
 30
0.0
 11
1421.46035276
 21
1185.7850170025
 31
0.0
  0
LINE
  5
10F
330
1F
100
AcDbEntity
  8
MIKY
  6
Continuous
 62
     7
100
AcDbLine
 10
1574.46035276
 20
1125.3409414623
 30
0.0
 11
1576.46035276
 21
1125.3409414623
 31
0.0
  0
ARC
  5
110
330
1F
100
AcDbEntity
  8
MIKY
  6
Continuous
 62
     7
100
AcDbCircle
 10
1576.46035276
 20
1135.3409414623
 30
0.0
 40
10.00000000000001
100
AcDbArc
 50
270.0
 51
345.5105328663
  0
ARC
  5
111
330
1F
100
AcDbEntity
  8
MIKY
  6
Continuous
 62
     7
100
AcDbCircle
 10
1411.46035276
 20
1265.3409414623
 30
0.0
 40
10.00000000000001
100
AcDbArc
 50
0.0
 51
90.0
  0
LINE
  5
112
330
1F
100
AcDbEntity
  8
MIKY
  6
Continuous
 62
     7
100
AcDbLine
 10
1386.46035276
 20
1275.3409414623
 30
0.0
 11
1411.46035276
 21
1275.3409414623
 31
0.0
  0
ARC
  5
113
330
1F
100
AcDbEntity
  8
MIKY
  6
Continuous
 62
     7
100
AcDbCircle
 10
1576.46035276
 20
1130.3369010194
 30
0.0
 40
10.0
100
AcDbArc
 50
14.4894671337
 51
84.0
  0
ARC
  5
114
330
1F
100
AcDbEntity
  8
MIKY
  6
Continuous
 62
     7
100
AcDbCircle
 10
1386.46035276
 20
1280.3409414623
 30
0.0
 40
5.000000000000004
100
AcDbArc
 50
180.0
 51
270.0
  0
LINE
  5
115
330
1F
100
AcDbEntity
  8
MIKY
  6
Continuous
 62
     7
100
AcDbLine
 10
1449.3697834947
 20
1153.7497409071
 30
0.0
 11
1577.5056373927
 21
1140.282119973
 31
0.0
  0
LINE
  5
116
330
1F
100
AcDbEntity
  8
MIKY
  6
Continuous
 62
     7
100
AcDbLine
 10
1381.46035276
 20
1280.3409414623
 30
0.0
 11
1381.46035276
 21
1285.3409414623
 31
0.0
  0
ARC
  5
117
330
1F
100
AcDbEntity
  8
MIKY
  6
Continuous
 62
     7
100
AcDbCircle
 10
1451.46035276
 20
1173.6401788145
 30
0.0
 40
19.99999999999999
100
AcDbArc
 50
180.0
 51
264.0
  0
LINE
  5
118
330
1F
100
AcDbEntity
  8
MIKY
  6
Continuous
 62
     7
100
AcDbLine
 10
1381.46035276
 20
1285.3409414623
 30
0.0
 11
1416.46035276
 21
1285.3409414623
 31
0.0
  0
LINE
  5
119
330
1F
100
AcDbEntity
  8
MIKY
  6
Continuous
 62
     7
100
AcDbLine
 10
1431.46035276
 20
1173.6401788145
 30
0.0
 11
1431.46035276
 21
1270.3409414623
 31
0.0
  0
ARC
  5
11A
330
1F
100
AcDbEntity
  8
MIKY
  6
Continuous
 62
     7
100
AcDbCircle
 10
1569.46035276
 20
1120.5961186288
 30
0.0
 40
5.000000000000004
100
AcDbArc
 50
71.4558589723
 51
86.978838337
  0
HATCH
  5
11B
330
1F
100
AcDbEntity
  8
MIKY
  6
Continuous
 62
     7
100
AcDbHatch
 10
0.0
 20
0.0
 30
0.0
210
0.0
220
0.0
230
1.0
  2
ANSI31
 70
     0
 71
     0
 91
        1
 92
        1
 93
       18
 72
     2
 10
1576.460352760006
 20
1434.680712185691
 40
10.0
 50
0.0
 51
93.66070302695046
 73
     1
 72
     1
 10
1575.821874148407
 20
1444.66030862355
 11
1410.001123924618
 21
1434.051362356378
 72
     2
 10
1410.320363230418
 20
1429.061564137449
 40
5.0
 50
93.66070302695046
 51
167.4956567554202
 73
     1
 72
     1
 10
1405.438965243697
 20
1430.144132239343
 11
1387.31261070366
 21
1348.410751767906
 72
     2
 10
1382.431212716939
 20
1349.4933198698
 40
5.0
 50
12.50434324457787
 51
66.2395261913033
 73
     0
 72
     2
 10
1386.460352760006
 20
1340.340941462339
 40
5.0
 50
113.7604738086967
 51
180.0
 73
     1
 72
     1
 10
1381.460352760006
 20
1340.340941462339
 11
1381.460352760006
 21
1335.340941462339
 72
     1
 10
1381.460352760006
 20
1335.340941462339
 11
1416.460352760006
 21
1335.340941462339
 72
     2
 10
1416.460352760006
 20
1350.340941462339
 40
15.0
 50
270.0
 51
360.0
 73
     1
 72
     1
 10
1431.460352760006
 20
1350.340941462339
 11
1431.460352760006
 21
1358.813856008936
 72
     2
 10
1451.460352760006
 20
1358.813856008936
 40
20.0
 50
180.0
 51
264.0000000000002
 73
     0
 72
     1
 10
1449.369783494653
 20
1378.704293916302
 11
1531.460352760006
 21
1387.332360421461
 72
     1
 10
1531.460352760006
 20
1387.332360421461
 11
1531.460352760006
 21
1421.087406953168
 72
     1
 10
1531.460352760006
 20
1421.087406953168
 11
1551.460352760006
 21
1422.135562538829
 72
     1
 10
1551.460352760006
 20
1422.135562538829
 11
1551.460352760006
 21
1389.434445126774
 72
     1
 10
1551.460352760006
 20
1389.434445126774
 11
1577.505637392683
 21
1392.171914850368
 72
     2
 10
1576.460352760006
 20
1402.117133804051
 40
10.0
 50
275.9999999999991
 51
360.0
 73
     1
 72
     1
 10
1586.460352760006
 20
1402.117133804051
 11
1586.460352760006
 21
1434.680712185691
 97
        0
 75
     0
 76
     2
 52
0.000009362
 41
0.5511811024
 77
     0
 78
     1
 53
45.0
 43
0.0
 44
0.0
 45
-1.237436867076458
 46
1.237436867076458
 79
     0
 98
        0
  0
HATCH
  5
11C
330
1F
100
AcDbEntity
  8
MIKY
  6
Continuous
 62
     7
100
AcDbHatch
 10
0.0
 20
0.0
 30
0.0
210
0.0
220
0.0
230
1.0
  2
ANSI31
 70
     0
 71
     0
 91
        1
 92
        1
 93
       19
 72
     1
 10
1381.460352760006
 20
1166.145443306453
 11
1381.460352760006
 21
1140.20046569754
 72
     2
 10
1386.460352760006
 20
1140.20046569754
 40
5.0
 50
180.0
 51
266.9999999999996
 73
     1
 72
     1
 10
1386.198672978792
 20
1135.207318023767
 11
1574.460352760006
 21
1125.340941462339
 72
     1
 10
1574.460352760006
 20
1125.340941462339
 11
1576.460352760006
 21
1125.340941462339
 72
     2
 10
1576.460352760006
 20
1135.340941462339
 40
10.0
 50
270.0
 51
345.5105328663153
 73
     1
 72
     2
 10
1576.460352760006
 20
1130.336901019361
 40
10.0
 50
14.48946713368476
 51
84.0000000000009
 73
     1
 72
     1
 10
1577.505637392683
 20
1140.282119973043
 11
1449.369783494653
 21
1153.74974090711
 72
     2
 10
1451.460352760006
 20
1173.640178814476
 40
20.0
 50
95.99999999999972
 51
180.0
 73
     0
 72
     1
 10
1431.460352760006
 20
1173.640178814476
 11
1431.460352760006
 21
1270.340941462339
 72
     2
 10
1416.460352760006
 20
1270.340941462339
 40
15.0
 50
0.0
 51
90.0
 73
     1
 72
     1
 10
1416.460352760006
 20
1285.340941462339
 11
1381.460352760006
 21
1285.340941462339
 72
     1
 10
1381.460352760006
 20
1285.340941462339
 11
1381.460352760006
 21
1280.340941462339
 72
     2
 10
1386.460352760006
 20
1280.340941462339
 40
5.0
 50
180.0
 51
270.0
 73
     1
 72
     1
 10
1386.460352760006
 20
1275.340941462339
 11
1411.460352760006
 21
1275.340941462339
 72
     2
 10
1411.460352760006
 20
1265.340941462339
 40
10.0
 50
270.0
 51
360.0
 73
     0
 72
     1
 10
1421.460352760006
 20
1265.340941462339
 11
1421.460352760006
 21
1185.78501700245
 72
     2
 10
1411.460352760006
 20
1185.78501700245
 40
10.0
 50
0.0
 51
80.00000000000138
 73
     0
 72
     1
 10
1413.196834536675
 20
1175.936939472328
 11
1385.592111871671
 21
1171.069482071513
 72
     2
 10
1386.460352760006
 20
1166.145443306453
 40
5.0
 50
100.0000000000001
 51
180.0
 73
     1
 97
        0
 75
     0
 76
     2
 52
0.000009362
 41
0.5511811024
 77
     0
 78
     1
 53
45.0
 43
0.0
 44
0.0
 45
-1.237436867076458
 46
1.237436867076458
 79
     0
 98
        0
  0
LINE
  5
11D
330
1F
100
AcDbEntity
  8
MIKY
  6
Continuous
 62
     7
100
AcDbLine
 10
802.7323874821
 20
670.5389410392
 30
0.0
 11
588.2323874821
 21
670.5389410392
 31
0.0
  0
LINE
  5
11E
330
1F
100
AcDbEntity
  8
MIKY
  6
Continuous
 62
     7
100
AcDbLine
 10
588.2323874821
 20
670.5389410392
 30
0.0
 11
570.2323874821
 21
670.5389410392
 31
0.0
  0
LINE
  5
11F
330
1F
100
AcDbEntity
  8
MIKY
  6
Continuous
 62
     7
100
AcDbLine
 10
570.2323874821
 20
670.5389410392
 30
0.0
 11
355.7323874821
 21
670.5389410392
 31
0.0
  0
LINE
  5
120
330
1F
100
AcDbEntity
  8
MIKY
  6
Continuous
 62
     7
100
AcDbLine
 10
598.2323874821
 20
680.5389410392
 30
0.0
 11
802.7323874821
 21
680.5389410392
 31
0.0
  0
LINE
  5
121
330
1F
100
AcDbEntity
  8
MIKY
  6
Continuous
 62
     7
100
AcDbLine
 10
769.0046196206
 20
687.2772612579
 30
0.0
 11
759.3865678994
 21
870.8006208204
 31
0.0
  0
SPLINE
  5
122
330
1F
100
AcDbEntity
  8
MIKY
  6
Continuous
 62
     7
100
AcDbSpline
210
0.0
220
0.0
230
1.0
 70
    12
 71
     2
 72
     6
 73
     3
 74
     0
 42
0.000000000655482
 43
0.0000000001
 40
0.0
 40
0.0
 40
0.0
 40
1.0
 40
1.0
 40
1.0
 10
769.0046196205864
 20
687.27726125795
 30
0.0
 41
1.0
 10
783.9977017763099
 20
687.0170110702253
 30
0.0
 41
0.7080745202013924
 10
783.984062641905
 20
687.2772612579502
 30
0.0
 41
1.0
  0
ARC
  5
123
330
1F
100
AcDbEntity
  8
MIKY
  6
Continuous
 62
     7
100
AcDbCircle
 10
788.9772103157
 20
687.5389410392
 30
0.0
 40
5.000000000000001
100
AcDbArc
 50
183.0
 51
270.0
  0
LINE
  5
124
330
1F
100
AcDbEntity
  8
MIKY
  6
Continuous
 62
     7
100
AcDbLine
 10
769.0046196206
 20
682.5389410392
 30
0.0
 11
769.0046196206
 21
687.2772612579
 31
0.0
  0
LINE
  5
125
330
1F
100
AcDbEntity
  8
MIKY
  6
Continuous
 62
     7
100
AcDbLine
 10
669.0195251099
 20
875.5389410392
 30
0.0
 11
759.3865678994
 21
875.5389410392
 31
0.0
  0
LINE
  5
126
330
1F
100
AcDbEntity
  8
MIKY
  6
Continuous
 62
     7
100
AcDbLine
 10
759.3865678994
 20
875.5389410392
 30
0.0
 11
769.3728632469
 21
875.5389410392
 31
0.0
  0
LINE
  5
127
330
1F
100
AcDbEntity
  8
MIKY
  6
Continuous
 62
     7
100
AcDbLine
 10
407.5368893262
 20
875.5389410392
 30
0.0
 11
549.2323874821
 21
875.5389410392
 31
0.0
  0
LINE
  5
128
330
1F
100
AcDbEntity
  8
MIKY
  6
Continuous
 62
     7
100
AcDbLine
 10
609.2323874821
 20
875.5389410392
 30
0.0
 11
750.927885638
 21
875.5389410392
 31
0.0
  0
LINE
  5
129
330
1F
100
AcDbEntity
  8
MIKY
  6
Continuous
 62
     7
100
AcDbLine
 10
399.0782070649
 20
875.5389410392
 30
0.0
 11
489.4452498543
 21
875.5389410392
 31
0.0
  0
LINE
  5
12A
330
1F
100
AcDbEntity
  8
MIKY
  6
Continuous
 62
     7
100
AcDbLine
 10
389.0919117173
 20
875.5389410392
 30
0.0
 11
399.0782070649
 21
875.5389410392
 31
0.0
  0
LINE
  5
12B
330
1F
100
AcDbEntity
  8
MIKY
  6
Continuous
 62
     7
100
AcDbLine
 10
399.0782070649
 20
870.8006208204
 30
0.0
 11
389.4601553436
 21
687.2772612579
 31
0.0
  0
SPLINE
  5
12C
330
1F
100
AcDbEntity
  8
MIKY
  6
Continuous
 62
     7
100
AcDbSpline
210
0.0
220
0.0
230
1.0
 70
    12
 71
     2
 72
     6
 73
     3
 74
     0
 42
0.000000000656656
 43
0.0000000001
 40
0.0
 40
0.0
 40
0.0
 40
1.0
 40
1.0
 40
1.0
 10
399.0782070648506
 20
870.8006208203794
 30
0.0
 41
1.0
 10
384.1124031779194
 20
871.0608710081042
 30
0.0
 41
0.7080745202005008
 10
384.098764043532
 20
870.8006208203792
 30
0.0
 41
1.0
  0
LINE
  5
12D
330
1F
100
AcDbEntity
  8
MIKY
  6
Continuous
 62
     7
100
AcDbLine
 10
774.3660109207
 20
870.8006208204
 30
0.0
 11
783.9840626419
 21
687.2772612579
 31
0.0
  0
SPLINE
  5
12E
330
1F
100
AcDbEntity
  8
MIKY
  6
Continuous
 62
     7
100
AcDbSpline
210
0.0
220
0.0
230
1.0
 70
    12
 71
     2
 72
     6
 73
     3
 74
     0
 42
0.000000000656656
 43
0.0000000001
 40
0.0
 40
0.0
 40
0.0
 40
1.0
 40
1.0
 40
1.0
 10
774.366010920675
 20
870.8006208203776
 30
0.0
 41
1.0
 10
774.3523717863803
 20
871.0608710081058
 30
0.0
 41
0.708074520198336
 10
759.3865678993564
 20
870.8006208203794
 30
0.0
 41
1.0
  0
LINE
  5
12F
330
1F
100
AcDbEntity
  8
MIKY
  6
Continuous
 62
     7
100
AcDbLine
 10
759.3865678994
 20
870.8006208204
 30
0.0
 11
669.0195251099
 21
870.8006208204
 31
0.0
  0
LINE
  5
130
330
1F
100
AcDbEntity
  8
MIKY
  6
Continuous
 62
     7
100
AcDbLine
 10
759.3865678994
 20
875.5389410392
 30
0.0
 11
759.3865678994
 21
870.8006208204
 31
0.0
  0
ARC
  5
131
330
1F
100
AcDbEntity
  8
MIKY
  6
Continuous
 62
     7
100
AcDbCircle
 10
769.3728632469
 20
870.5389410392
 30
0.0
 40
5.000000000000004
100
AcDbArc
 50
3.0
 51
90.0
  0
ARC
  5
132
330
1F
100
AcDbEntity
  8
MIKY
  6
Continuous
 62
     7
100
AcDbCircle
 10
389.0919117173
 20
870.5389410392
 30
0.0
 40
5.000000000000004
100
AcDbArc
 50
90.0
 51
177.0
  0
LINE
  5
133
330
1F
100
AcDbEntity
  8
MIKY
  6
Continuous
 62
     7
100
AcDbLine
 10
399.0782070649
 20
870.8006208204
 30
0.0
 11
399.0782070649
 21
875.5389410392
 31
0.0
  0
LINE
  5
134
330
1F
100
AcDbEntity
  8
MIKY
  6
Continuous
 62
     7
100
AcDbLine
 10
389.4601553436
 20
687.2772612579
 30
0.0
 11
555.2323874821
 21
687.2772612579
 31
0.0
  0
LINE
  5
135
330
1F
100
AcDbEntity
  8
MIKY
  6
Continuous
 62
     7
100
AcDbLine
 10
374.4807123223
 20
687.2772612579
 30
0.0
 11
384.0987640435
 21
870.8006208204
 31
0.0
  0
SPLINE
  5
136
330
1F
100
AcDbEntity
  8
MIKY
  6
Continuous
 62
     7
100
AcDbSpline
210
0.0
220
0.0
230
1.0
 70
    12
 71
     2
 72
     6
 73
     3
 74
     0
 42
0.000000000655482
 43
0.0000000001
 40
0.0
 40
0.0
 40
0.0
 40
1.0
 40
1.0
 40
1.0
 10
374.4807123223019
 20
687.2772612579503
 30
0.0
 41
1.0
 10
374.467073187886
 20
687.0170110702252
 30
0.0
 41
0.7080745202012468
 10
389.4601553436206
 20
687.27726125795
 30
0.0
 41
1.0
  0
ARC
  5
137
330
1F
100
AcDbEntity
  8
MIKY
  6
Continuous
 62
     7
100
AcDbCircle
 10
369.4875646485
 20
687.5389410392
 30
0.0
 40
5.000000000000004
100
AcDbArc
 50
270.0
 51
357.0
  0
LINE
  5
138
330
1F
100
AcDbEntity
  8
MIKY
  6
Continuous
 62
     7
100
AcDbLine
 10
389.4601553436
 20
687.2772612579
 30
0.0
 11
389.4601553436
 21
682.5389410392
 31
0.0
  0
LINE
  5
139
330
1F
100
AcDbEntity
  8
MIKY
  6
Continuous
 62
     7
100
AcDbLine
 10
664.0954863448
 20
871.4071819275
 30
0.0
 11
614.1564262472
 21
871.4071819275
 31
0.0
  0
LINE
  5
13A
330
1F
100
AcDbEntity
  8
MIKY
  6
Continuous
 62
     7
100
AcDbLine
 10
544.308348717
 20
871.4071819275
 30
0.0
 11
494.3692886194
 21
871.4071819275
 31
0.0
  0
LINE
  5
13B
330
1F
100
AcDbEntity
  8
MIKY
  6
Continuous
 62
     7
100
AcDbLine
 10
497.282908723
 20
843.8024592625
 30
0.0
 11
544.0804650122
 21
843.8024592625
 31
0.0
  0
LINE
  5
13C
330
1F
100
AcDbEntity
  8
MIKY
  6
Continuous
 62
     7
100
AcDbLine
 10
614.384309952
 20
843.8024592625
 30
0.0
 11
661.1818662412
 21
843.8024592625
 31
0.0
  0
ARC
  5
13D
330
1F
100
AcDbEntity
  8
MIKY
  6
Continuous
 62
     7
100
AcDbCircle
 10
489.4452498543
 20
870.5389410392
 30
0.0
 40
5.000000000000004
100
AcDbArc
 50
6.0
 51
90.0
  0
LINE
  5
13E
330
1F
100
AcDbEntity
  8
MIKY
  6
Continuous
 62
     7
100
AcDbLine
 10
494.4178593312
 20
871.0615833555
 30
0.0
 11
498.3818289021
 21
833.3469321726
 31
0.0
  0
LINE
  5
13F
330
1F
100
AcDbEntity
  8
MIKY
  6
Continuous
 62
     7
100
AcDbLine
 10
489.4452498543
 20
870.8006208204
 30
0.0
 11
399.0782070649
 21
870.8006208204
 31
0.0
  0
LINE
  5
140
330
1F
100
AcDbEntity
  8
MIKY
  6
Continuous
 62
     7
100
AcDbLine
 10
489.4452498543
 20
870.8006208204
 30
0.0
 11
489.4452498543
 21
875.5389410392
 31
0.0
  0
LINE
  5
141
330
1F
100
AcDbEntity
  8
MIKY
  6
Continuous
 62
     7
100
AcDbLine
 10
502.6534597079
 20
835.5389410392
 30
0.0
 11
555.2323874821
 21
835.5389410392
 31
0.0
  0
LINE
  5
142
330
1F
100
AcDbEntity
  8
MIKY
  6
Continuous
 62
     7
100
AcDbLine
 10
493.4092194252
 20
833.0859696375
 30
0.0
 11
489.4452498543
 21
870.8006208204
 31
0.0
  0
LINE
  5
143
330
1F
100
AcDbEntity
  8
MIKY
  6
Continuous
 62
     7
100
AcDbLine
 10
502.6534597079
 20
835.5389410392
 30
0.0
 11
505.6415648462
 21
811.8473399452
 31
0.0
  0
SPLINE
  5
144
330
1F
100
AcDbEntity
  8
MIKY
  6
Continuous
 62
     7
100
AcDbSpline
210
0.0
220
0.0
230
1.0
 70
     8
 71
     3
 72
    12
 73
     8
 74
     0
 42
0.0000000004007286
 43
0.0000000001
 40
0.0
 40
0.0
 40
0.0
 40
0.0
 40
0.4999999999999999
 40
0.4999999999999999
 40
0.75
 40
0.75
 40
1.0
 40
1.0
 40
1.0
 40
1.0
 10
505.6415648461801
 20
811.8473399452383
 30
0.0
 10
502.9113795594054
 20
814.9798867751286
 30
0.0
 10
500.1858232659093
 20
818.1084444488841
 30
0.0
 10
496.8068364783588
 20
823.2993060688925
 30
0.0
 10
495.791397791189
 20
825.1271441803634
 30
0.0
 10
494.197748915877
 20
828.9931887061847
 30
0.0
 10
493.6294548726133
 20
830.9905693253278
 30
0.0
 10
493.4092194252283
 20
833.0859696374877
 30
0.0
  0
SPLINE
  5
145
330
1F
100
AcDbEntity
  8
MIKY
  6
Continuous
 62
     7
100
AcDbSpline
210
0.0
220
0.0
230
1.0
 70
    12
 71
     2
 72
     6
 73
     3
 74
     0
 42
0.0000000019115059
 43
0.0000000001
 40
0.0
 40
0.0
 40
0.0
 40
1.0
 40
1.0
 40
1.0
 10
494.41785933118
 20
871.061583355503
 30
0.0
 41
1.0
 10
494.3908041960407
 20
871.3189957715764
 30
0.0
 41
0.7090382913081422
 10
489.4452498543387
 20
870.8006208203793
 30
0.0
 41
1.0
  0
SPLINE
  5
146
330
1F
100
AcDbEntity
  8
MIKY
  6
Continuous
 62
     7
100
AcDbSpline
210
0.0
220
0.0
230
1.0
 70
    12
 71
     2
 72
     6
 73
     3
 74
     0
 42
0.0000000019115059
 43
0.0000000001
 40
0.0
 40
0.0
 40
0.0
 40
1.0
 40
1.0
 40
1.0
 10
498.3818289020696
 20
833.3469321726113
 30
0.0
 41
1.0
 10
498.3547737669304
 20
833.6043445886847
 30
0.0
 41
0.7090382913081543
 10
493.4092194252283
 20
833.0859696374877
 30
0.0
 41
1.0
  0
ARC
  5
147
330
1F
100
AcDbEntity
  8
MIKY
  6
Continuous
 62
     7
100
AcDbCircle
 10
581.5509797141
 20
849.4550496647
 30
0.0
 40
84.71469232628188
100
AcDbArc
 50
190.9612755058
 51
206.3551395602
  0
ARC
  5
148
330
1F
100
AcDbEntity
  8
MIKY
  6
Continuous
 62
     7
100
AcDbCircle
 10
502.6534597079
 20
840.5389410392
 30
0.0
 40
4.999999999999996
100
AcDbArc
 50
186.0
 51
270.0
  0
LINE
  5
149
330
1F
100
AcDbEntity
  8
MIKY
  6
Continuous
 62
     7
100
AcDbLine
 10
669.0195251099
 20
875.5389410392
 30
0.0
 11
669.0195251099
 21
870.8006208204
 31
0.0
  0
ARC
  5
14A
330
1F
100
AcDbEntity
  8
MIKY
  6
Continuous
 62
     7
100
AcDbCircle
 10
669.0195251099
 20
870.5389410392
 30
0.0
 40
4.999999999999979
100
AcDbArc
 50
90.0
 51
174.0
  0
LINE
  5
14B
330
1F
100
AcDbEntity
  8
MIKY
  6
Continuous
 62
     7
100
AcDbLine
 10
660.0829460621
 20
833.3469321726
 30
0.0
 11
664.046915633
 21
871.0615833555
 31
0.0
  0
LINE
  5
14C
330
1F
100
AcDbEntity
  8
MIKY
  6
Continuous
 62
     7
100
AcDbLine
 10
652.823210118
 20
811.8473399452
 30
0.0
 11
603.2323874821
 21
811.8473399452
 31
0.0
  0
LINE
  5
14D
330
1F
100
AcDbEntity
  8
MIKY
  6
Continuous
 62
     7
100
AcDbLine
 10
669.0195251099
 20
870.8006208204
 30
0.0
 11
665.055555539
 21
833.0859696375
 31
0.0
  0
LINE
  5
14E
330
1F
100
AcDbEntity
  8
MIKY
  6
Continuous
 62
     7
100
AcDbLine
 10
652.823210118
 20
811.8473399452
 30
0.0
 11
655.8113152563
 21
835.5389410392
 31
0.0
  0
SPLINE
  5
14F
330
1F
100
AcDbEntity
  8
MIKY
  6
Continuous
 62
     7
100
AcDbSpline
210
0.0
220
0.0
230
1.0
 70
     8
 71
     3
 72
    12
 73
     8
 74
     0
 42
0.0000000004007286
 43
0.0000000001
 40
0.0
 40
0.0
 40
0.0
 40
0.0
 40
0.2500000000000001
 40
0.2500000000000001
 40
0.5000000000000001
 40
0.5000000000000001
 40
1.0
 40
1.0
 40
1.0
 40
1.0
 10
665.0555555389786
 20
833.0859696374877
 30
0.0
 10
664.8353200915936
 20
830.9905693253278
 30
0.0
 10
664.26702604833
 20
828.9931887061847
 30
0.0
 10
662.673377173018
 20
825.1271441803635
 30
0.0
 10
661.657938485848
 20
823.2993060688925
 30
0.0
 10
658.2789516982976
 20
818.1084444488841
 30
0.0
 10
655.5533954038319
 20
814.9798867759715
 30
0.0
 10
652.823210118027
 20
811.8473399452383
 30
0.0
  0
ARC
  5
150
330
1F
100
AcDbEntity
  8
MIKY
  6
Continuous
 62
     7
100
AcDbCircle
 10
655.8113152563
 20
840.5389410392
 30
0.0
 40
4.999999999999996
100
AcDbArc
 50
270.0
 51
354.0
  0
ARC
  5
151
330
1F
100
AcDbEntity
  8
MIKY
  6
Continuous
 62
     7
100
AcDbCircle
 10
576.9137952501
 20
849.4550496647
 30
0.0
 40
84.71469232628019
100
AcDbArc
 50
333.6448604398
 51
349.0387244942
  0
SPLINE
  5
152
330
1F
100
AcDbEntity
  8
MIKY
  6
Continuous
 62
     7
100
AcDbSpline
210
0.0
220
0.0
230
1.0
 70
    12
 71
     2
 72
     6
 73
     3
 74
     0
 42
0.0000000019115059
 43
0.0000000001
 40
0.0
 40
0.0
 40
0.0
 40
1.0
 40
1.0
 40
1.0
 10
665.0555555389786
 20
833.0859696374877
 30
0.0
 41
1.0
 10
660.1100011972766
 20
833.6043445886849
 30
0.0
 41
0.7090382913076301
 10
660.0829460621372
 20
833.3469321726113
 30
0.0
 41
1.0
  0
SPLINE
  5
153
330
1F
100
AcDbEntity
  8
MIKY
  6
Continuous
 62
     7
100
AcDbSpline
210
0.0
220
0.0
230
1.0
 70
    12
 71
     2
 72
     6
 73
     3
 74
     0
 42
0.0000000019115059
 43
0.0000000001
 40
0.0
 40
0.0
 40
0.0
 40
1.0
 40
1.0
 40
1.0
 10
669.0195251098683
 20
870.8006208203793
 30
0.0
 41
1.0
 10
664.0739707681661
 20
871.3189957715764
 30
0.0
 41
0.7090382913082042
 10
664.0469156330267
 20
871.061583355503
 30
0.0
 41
1.0
  0
LINE
  5
154
330
1F
100
AcDbEntity
  8
MIKY
  6
Continuous
 62
     7
100
AcDbLine
 10
565.2323874821
 20
681.1774196508
 30
0.0
 11
593.2323874821
 21
681.1774196508
 31
0.0
  0
LINE
  5
155
330
1F
100
AcDbEntity
  8
MIKY
  6
Continuous
 62
     7
100
AcDbLine
 10
565.2323874821
 20
681.1774196508
 30
0.0
 11
565.2323874821
 21
680.5389410392
 31
0.0
  0
SPLINE
  5
156
330
1F
100
AcDbEntity
  8
MIKY
  6
Continuous
 62
     7
100
AcDbSpline
210
0.0
220
0.0
230
1.0
 70
    12
 71
     2
 72
     6
 73
     3
 74
     0
 42
0.0000000006666667
 43
0.0000000001
 40
0.0
 40
0.0
 40
0.0
 40
1.0
 40
1.0
 40
1.0
 10
565.2323874821035
 20
680.5389410391647
 30
0.0
 41
1.0
 10
565.2323874821035
 20
670.5389410391647
 30
0.0
 41
0.7071067811865462
 10
570.2323874821035
 20
670.5389410391647
 30
0.0
 41
1.0
  0
LINE
  5
157
330
1F
100
AcDbEntity
  8
MIKY
  6
Continuous
 62
     7
100
AcDbLine
 10
593.2323874821
 20
680.5389410392
 30
0.0
 11
593.2323874821
 21
681.1774196508
 31
0.0
  0
SPLINE
  5
158
330
1F
100
AcDbEntity
  8
MIKY
  6
Continuous
 62
     7
100
AcDbSpline
210
0.0
220
0.0
230
1.0
 70
    12
 71
     2
 72
     6
 73
     3
 74
     0
 42
0.0000000006666667
 43
0.0000000001
 40
0.0
 40
0.0
 40
0.0
 40
1.0
 40
1.0
 40
1.0
 10
588.2323874821034
 20
670.5389410391647
 30
0.0
 41
1.0
 10
593.2323874821034
 20
670.5389410391647
 30
0.0
 41
0.7071067811865462
 10
593.2323874821034
 20
680.5389410391647
 30
0.0
 41
1.0
  0
ARC
  5
159
330
1F
100
AcDbEntity
  8
MIKY
  6
Continuous
 62
     7
100
AcDbCircle
 10
588.2323874821
 20
680.5389410392
 30
0.0
 40
10.0
100
AcDbArc
 50
270.0
 51
360.0
  0
LINE
  5
15A
330
1F
100
AcDbEntity
  8
MIKY
  6
Continuous
 62
     7
100
AcDbLine
 10
598.2323874821
 20
846.6789305688
 30
0.0
 11
598.2323874821
 21
680.858180345
 31
0.0
  0
LINE
  5
15B
330
1F
100
AcDbEntity
  8
MIKY
  6
Continuous
 62
     7
100
AcDbLine
 10
598.2323874821
 20
680.858180345
 30
0.0
 11
598.2323874821
 21
680.5389410392
 31
0.0
  0
ARC
  5
15C
330
1F
100
AcDbEntity
  8
MIKY
  6
Continuous
 62
     7
100
AcDbCircle
 10
570.2323874821
 20
680.5389410392
 30
0.0
 40
10.00000000000001
100
AcDbArc
 50
180.0
 51
270.0
  0
LINE
  5
15D
330
1F
100
AcDbEntity
  8
MIKY
  6
Continuous
 62
     7
100
AcDbLine
 10
565.2323874821
 20
851.5603285555
 30
0.0
 11
593.2323874821
 21
851.5603285555
 31
0.0
  0
LINE
  5
15E
330
1F
100
AcDbEntity
  8
MIKY
  6
Continuous
 62
     7
100
AcDbLine
 10
593.2323874821
 20
851.5603285555
 30
0.0
 11
593.2323874821
 21
870.3320189051
 31
0.0
  0
LINE
  5
15F
330
1F
100
AcDbEntity
  8
MIKY
  6
Continuous
 62
     7
100
AcDbLine
 10
565.2323874821
 20
846.9981698746
 30
0.0
 11
565.2323874821
 21
681.1774196508
 31
0.0
  0
LINE
  5
160
330
1F
100
AcDbEntity
  8
MIKY
  6
Continuous
 62
     7
100
AcDbLine
 10
593.2323874821
 20
846.9981698746
 30
0.0
 11
565.2323874821
 21
846.9981698746
 31
0.0
  0
LINE
  5
161
330
1F
100
AcDbEntity
  8
MIKY
  6
Continuous
 62
     7
100
AcDbLine
 10
593.2323874821
 20
681.1774196508
 30
0.0
 11
593.2323874821
 21
846.9981698746
 31
0.0
  0
LINE
  5
162
330
1F
100
AcDbEntity
  8
MIKY
  6
Continuous
 62
     7
100
AcDbLine
 10
560.2323874821
 20
846.6789305688
 30
0.0
 11
560.2323874821
 21
865.9113267265
 31
0.0
  0
LINE
  5
163
330
1F
100
AcDbEntity
  8
MIKY
  6
Continuous
 62
     7
100
AcDbLine
 10
560.2323874821
 20
680.858180345
 30
0.0
 11
560.2323874821
 21
846.6789305688
 31
0.0
  0
LINE
  5
164
330
1F
100
AcDbEntity
  8
MIKY
  6
Continuous
 62
     7
100
AcDbLine
 10
560.2323874821
 20
680.5389410392
 30
0.0
 11
560.2323874821
 21
680.858180345
 31
0.0
  0
LINE
  5
165
330
1F
100
AcDbEntity
  8
MIKY
  6
Continuous
 62
     7
100
AcDbLine
 10
560.2323874821
 20
680.5389410392
 30
0.0
 11
565.2323874821
 21
680.5389410392
 31
0.0
  0
SPLINE
  5
166
330
1F
100
AcDbEntity
  8
MIKY
  6
Continuous
 62
     7
100
AcDbSpline
210
0.0
220
0.0
230
1.0
 70
    12
 71
     2
 72
     6
 73
     3
 74
     0
 42
0.0000000018799681
 43
0.0000000001
 40
0.0
 40
0.0
 40
0.0
 40
1.0
 40
1.0
 40
1.0
 10
565.2323874821035
 20
681.1774196507644
 30
0.0
 41
1.0
 10
560.2323874821035
 20
681.1774196507644
 30
0.0
 41
0.7071067811862695
 10
560.2323874821035
 20
680.8581803449645
 30
0.0
 41
1.0
  0
SPLINE
  5
167
330
1F
100
AcDbEntity
  8
MIKY
  6
Continuous
 62
     7
100
AcDbSpline
210
0.0
220
0.0
230
1.0
 70
    12
 71
     2
 72
     6
 73
     3
 74
     0
 42
0.0000000018799681
 43
0.0000000001
 40
0.0
 40
0.0
 40
0.0
 40
1.0
 40
1.0
 40
1.0
 10
565.2323874821035
 20
846.9981698745534
 30
0.0
 41
1.0
 10
560.2323874821035
 20
846.9981698745534
 30
0.0
 41
0.7071067811870448
 10
560.2323874821035
 20
846.6789305687536
 30
0.0
 41
1.0
  0
SPLINE
  5
168
330
1F
100
AcDbEntity
  8
MIKY
  6
Continuous
 62
     7
100
AcDbSpline
210
0.0
220
0.0
230
1.0
 70
    12
 71
     2
 72
     6
 73
     3
 74
     0
 42
0.0000000010120026
 43
0.0000000001
 40
0.0
 40
0.0
 40
0.0
 40
1.0
 40
1.0
 40
1.0
 10
565.2323874821035
 20
851.5603285554744
 30
0.0
 41
1.0
 10
560.2323874821035
 20
851.5603285554744
 30
0.0
 41
0.7071067811865335
 10
560.2323874821035
 20
846.6789305687536
 30
0.0
 41
1.0
  0
LINE
  5
169
330
1F
100
AcDbEntity
  8
MIKY
  6
Continuous
 62
     7
100
AcDbLine
 10
565.2323874821
 20
851.5603285555
 30
0.0
 11
565.2323874821
 21
846.9981698746
 31
0.0
  0
LINE
  5
16A
330
1F
100
AcDbEntity
  8
MIKY
  6
Continuous
 62
     7
100
AcDbLine
 10
593.2323874821
 20
851.5603285555
 30
0.0
 11
593.2323874821
 21
846.9981698746
 31
0.0
  0
SPLINE
  5
16B
330
1F
100
AcDbEntity
  8
MIKY
  6
Continuous
 62
     7
100
AcDbSpline
210
0.0
220
0.0
230
1.0
 70
    12
 71
     2
 72
     6
 73
     3
 74
     0
 42
0.0000000010120026
 43
0.0000000001
 40
0.0
 40
0.0
 40
0.0
 40
1.0
 40
1.0
 40
1.0
 10
598.2323874821035
 20
846.6789305687536
 30
0.0
 41
1.0
 10
598.2323874821035
 20
851.5603285554744
 30
0.0
 41
0.7071067811866014
 10
593.2323874821035
 20
851.5603285554744
 30
0.0
 41
1.0
  0
SPLINE
  5
16C
330
1F
100
AcDbEntity
  8
MIKY
  6
Continuous
 62
     7
100
AcDbSpline
210
0.0
220
0.0
230
1.0
 70
    12
 71
     2
 72
     6
 73
     3
 74
     0
 42
0.0000000018799681
 43
0.0000000001
 40
0.0
 40
0.0
 40
0.0
 40
1.0
 40
1.0
 40
1.0
 10
598.2323874821035
 20
846.6789305687536
 30
0.0
 41
1.0
 10
598.2323874821035
 20
846.9981698745534
 30
0.0
 41
0.7071067811870448
 10
593.2323874821035
 20
846.9981698745534
 30
0.0
 41
1.0
  0
SPLINE
  5
16D
330
1F
100
AcDbEntity
  8
MIKY
  6
Continuous
 62
     7
100
AcDbSpline
210
0.0
220
0.0
230
1.0
 70
    12
 71
     2
 72
     6
 73
     3
 74
     0
 42
0.0000000018799681
 43
0.0000000001
 40
0.0
 40
0.0
 40
0.0
 40
1.0
 40
1.0
 40
1.0
 10
598.2323874821035
 20
680.8581803449645
 30
0.0
 41
1.0
 10
598.2323874821035
 20
681.1774196507644
 30
0.0
 41
0.7071067811862688
 10
593.2323874821035
 20
681.1774196507644
 30
0.0
 41
1.0
  0
LINE
  5
16E
330
1F
100
AcDbEntity
  8
MIKY
  6
Continuous
 62
     7
100
AcDbLine
 10
598.2323874821
 20
680.5389410392
 30
0.0
 11
593.2323874821
 21
680.5389410392
 31
0.0
  0
LINE
  5
16F
330
1F
100
AcDbEntity
  8
MIKY
  6
Continuous
 62
     7
100
AcDbLine
 10
591.2803110424
 20
875.5389410392
 30
0.0
 11
593.4782490229
 21
875.5389410392
 31
0.0
  0
LINE
  5
170
330
1F
100
AcDbEntity
  8
MIKY
  6
Continuous
 62
     7
100
AcDbLine
 10
585.5029716324
 20
875.5389410392
 30
0.0
 11
591.2803110424
 21
875.5389410392
 31
0.0
  0
LINE
  5
171
330
1F
100
AcDbEntity
  8
MIKY
  6
Continuous
 62
     7
100
AcDbLine
 10
572.9618033318
 20
875.5389410392
 30
0.0
 11
585.5029716324
 21
875.5389410392
 31
0.0
  0
LINE
  5
172
330
1F
100
AcDbEntity
  8
MIKY
  6
Continuous
 62
     7
100
AcDbLine
 10
567.1844639218
 20
875.5389410392
 30
0.0
 11
572.9618033318
 21
875.5389410392
 31
0.0
  0
LINE
  5
173
330
1F
100
AcDbEntity
  8
MIKY
  6
Continuous
 62
     7
100
AcDbLine
 10
564.9865259414
 20
875.5389410392
 30
0.0
 11
567.1844639218
 21
875.5389410392
 31
0.0
  0
LINE
  5
174
330
1F
100
AcDbEntity
  8
MIKY
  6
Continuous
 62
     7
100
AcDbLine
 10
609.2323874821
 20
875.5389410392
 30
0.0
 11
593.4782490229
 21
875.5389410392
 31
0.0
  0
LINE
  5
175
330
1F
100
AcDbEntity
  8
MIKY
  6
Continuous
 62
     7
100
AcDbLine
 10
564.9865259414
 20
875.5389410392
 30
0.0
 11
549.2323874821
 21
875.5389410392
 31
0.0
  0
SPLINE
  5
176
330
1F
100
AcDbEntity
  8
MIKY
  6
Continuous
 62
     7
100
AcDbSpline
210
0.0
220
0.0
230
1.0
 70
    12
 71
     2
 72
     6
 73
     3
 74
     0
 42
0.0000000028110838
 43
0.0000000001
 40
0.0
 40
0.0
 40
0.0
 40
1.0
 40
1.0
 40
1.0
 10
572.9618033318201
 20
875.5389410391647
 30
0.0
 41
1.0
 10
572.2972762208827
 20
875.5389410391647
 30
0.0
 41
0.8438570373793493
 10
572.0153908650283
 20
872.6598880345165
 30
0.0
 41
1.0
  0
SPLINE
  5
177
330
1F
100
AcDbEntity
  8
MIKY
  6
Continuous
 62
     7
100
AcDbSpline
210
0.0
220
0.0
230
1.0
 70
    12
 71
     2
 72
     6
 73
     3
 74
     0
 42
0.0000000028110838
 43
0.0000000001
 40
0.0
 40
0.0
 40
0.0
 40
1.0
 40
1.0
 40
1.0
 10
586.4493840991787
 20
872.6598880345165
 30
0.0
 41
1.0
 10
586.1674987433242
 20
875.5389410391647
 30
0.0
 41
0.8438570373793493
 10
585.5029716323869
 20
875.5389410391647
 30
0.0
 41
1.0
  0
SPLINE
  5
178
330
1F
100
AcDbEntity
  8
MIKY
  6
Continuous
 62
     7
100
AcDbSpline
210
0.0
220
0.0
230
1.0
 70
    12
 71
     2
 72
     6
 73
     3
 74
     0
 42
0.0000000025719564
 43
0.0000000001
 40
0.0
 40
0.0
 40
0.0
 40
1.0
 40
1.0
 40
1.0
 10
593.0117904217346
 20
872.8862246992859
 30
0.0
 41
1.0
 10
592.4586236402553
 20
875.5389410391646
 30
0.0
 41
0.8571629751755985
 10
591.2803110424271
 20
875.5389410391647
 30
0.0
 41
1.0
  0
LINE
  5
179
330
1F
100
AcDbEntity
  8
MIKY
  6
Continuous
 62
     7
100
AcDbLine
 10
555.2323874821
 20
682.5389410392
 30
0.0
 11
355.7323874821
 21
682.5389410392
 31
0.0
  0
LINE
  5
17A
330
1F
100
AcDbEntity
  8
MIKY
  6
Continuous
 62
     7
100
AcDbLine
 10
555.2323874821
 20
682.5389410392
 30
0.0
 11
555.2323874821
 21
687.2772612579
 31
0.0
  0
LINE
  5
17B
330
1F
100
AcDbEntity
  8
MIKY
  6
Continuous
 62
     7
100
AcDbLine
 10
555.2323874821
 20
811.8473399452
 30
0.0
 11
505.6415648462
 21
811.8473399452
 31
0.0
  0
LINE
  5
17C
330
1F
100
AcDbEntity
  8
MIKY
  6
Continuous
 62
     7
100
AcDbLine
 10
555.2323874821
 20
687.2772612579
 30
0.0
 11
555.2323874821
 21
811.8473399452
 31
0.0
  0
LINE
  5
17D
330
1F
100
AcDbEntity
  8
MIKY
  6
Continuous
 62
     7
100
AcDbLine
 10
555.2323874821
 20
811.8473399452
 30
0.0
 11
555.2323874821
 21
835.5389410392
 31
0.0
  0
LINE
  5
17E
330
1F
100
AcDbEntity
  8
MIKY
  6
Continuous
 62
     7
100
AcDbLine
 10
603.2323874821
 20
835.5389410392
 30
0.0
 11
655.8113152563
 21
835.5389410392
 31
0.0
  0
LINE
  5
17F
330
1F
100
AcDbEntity
  8
MIKY
  6
Continuous
 62
     7
100
AcDbLine
 10
614.2323874821
 20
845.5389410392
 30
0.0
 11
600.2323874821
 21
845.5389410392
 31
0.0
  0
LINE
  5
180
330
1F
100
AcDbEntity
  8
MIKY
  6
Continuous
 62
     7
100
AcDbLine
 10
558.2323874821
 20
845.5389410392
 30
0.0
 11
544.2323874821
 21
845.5389410392
 31
0.0
  0
SPLINE
  5
181
330
1F
100
AcDbEntity
  8
MIKY
  6
Continuous
 62
     7
100
AcDbSpline
210
0.0
220
0.0
230
1.0
 70
     8
 71
     3
 72
    14
 73
    10
 74
     0
 42
0.0000000009113919
 43
0.0000000001
 40
0.0
 40
0.0
 40
0.0
 40
0.0
 40
0.25
 40
0.25
 40
0.5
 40
0.5
 40
0.75
 40
0.75
 40
1.0
 40
1.0
 40
1.0
 40
1.0
 10
600.2323874821035
 20
845.5389410391647
 30
0.0
 10
600.2323874821035
 20
844.1845844268563
 30
0.0
 10
600.3263327530773
 20
842.8535615416528
 30
0.0
 10
600.6702296184425
 20
840.4063186054094
 30
0.0
 10
600.9204605621062
 20
839.2944031136196
 30
0.0
 10
601.5040413420239
 20
837.4759035484398
 30
0.0
 10
601.8415804665196
 20
836.7536868610179
 30
0.0
 10
602.5316022925585
 20
835.7901647007382
 30
0.0
 10
602.8883741750667
 20
835.5389410391647
 30
0.0
 10
603.2323874821035
 20
835.5389410391647
 30
0.0
  0
SPLINE
  5
182
330
1F
100
AcDbEntity
  8
MIKY
  6
Continuous
 62
     7
100
AcDbSpline
210
0.0
220
0.0
230
1.0
 70
     8
 71
     3
 72
    14
 73
    10
 74
     0
 42
0.0000000009113563
 43
0.0000000001
 40
0.0
 40
0.0
 40
0.0
 40
0.0
 40
0.25
 40
0.25
 40
0.5
 40
0.5
 40
0.75
 40
0.75
 40
1.0
 40
1.0
 40
1.0
 40
1.0
 10
555.2323874821035
 20
835.5389410391647
 30
0.0
 10
555.5766997033405
 20
835.5389410391647
 30
0.0
 10
555.9283481982586
 20
835.7844583076362
 30
0.0
 10
556.6237312876743
 20
836.7534124180862
 30
0.0
 10
556.9577217515648
 20
837.4676412144009
 30
0.0
 10
557.5443172068279
 20
839.2932946269077
 30
0.0
 10
557.7936484292674
 20
840.4024437964816
 30
0.0
 10
558.1373620671599
 20
842.8433815661992
 30
0.0
 10
558.2323874821035
 20
844.1831389236891
 30
0.0
 10
558.2323874821035
 20
845.5389410391647
 30
0.0
  0
LINE
  5
183
330
1F
100
AcDbEntity
  8
MIKY
  6
Continuous
 62
     7
100
AcDbLine
 10
544.2323874821
 20
870.5389410392
 30
0.0
 11
559.2597107704
 21
870.5389410392
 31
0.0
  0
LINE
  5
184
330
1F
100
AcDbEntity
  8
MIKY
  6
Continuous
 62
     7
100
AcDbLine
 10
599.2050641938
 20
870.5389410392
 30
0.0
 11
614.2323874821
 21
870.5389410392
 31
0.0
  0
LINE
  5
185
330
1F
100
AcDbEntity
  8
MIKY
  6
Continuous
 62
     7
100
AcDbLine
 10
600.2323874821
 20
865.9113267265
 30
0.0
 11
600.2323874821
 21
845.5389410392
 31
0.0
  0
ARC
  5
186
330
1F
100
AcDbEntity
  8
MIKY
  6
Continuous
 62
     7
100
AcDbCircle
 10
589.7254712353
 20
866.0066466699
 30
0.0
 40
10.50734861458669
100
AcDbArc
 50
359.4802204087
 51
25.5529601209
  0
ARC
  5
187
330
1F
100
AcDbEntity
  8
MIKY
  6
Continuous
 62
     7
100
AcDbCircle
 10
568.5926198791
 20
866.0392102598
 30
0.0
 40
10.36102164450854
100
AcDbArc
 50
154.2596138461
 51
180.7072056243
  0
LINE
  5
188
330
1F
100
AcDbEntity
  8
MIKY
  6
Continuous
 62
     7
100
AcDbLine
 10
558.2323874821
 20
845.5389410392
 30
0.0
 11
558.2323874821
 21
865.9113267265
 31
0.0
  0
SPLINE
  5
189
330
1F
100
AcDbEntity
  8
MIKY
  6
Continuous
 62
     7
100
AcDbSpline
210
0.0
220
0.0
230
1.0
 70
    12
 71
     2
 72
     6
 73
     3
 74
     0
 42
0.0000000021356262
 43
0.0000000001
 40
0.0
 40
0.0
 40
0.0
 40
1.0
 40
1.0
 40
1.0
 10
564.9865259413542
 20
875.5389410391647
 30
0.0
 41
1.0
 10
563.4140662507541
 20
875.5389410391647
 30
0.0
 41
0.833734191913618
 10
562.8004525303071
 20
872.4900680668244
 30
0.0
 41
1.0
  0
SPLINE
  5
18A
330
1F
100
AcDbEntity
  8
MIKY
  6
Continuous
 62
     7
100
AcDbSpline
210
0.0
220
0.0
230
1.0
 70
    12
 71
     2
 72
     6
 73
     3
 74
     0
 42
0.0000000021356262
 43
0.0000000001
 40
0.0
 40
0.0
 40
0.0
 40
1.0
 40
1.0
 40
1.0
 10
595.6643224338998
 20
872.4900680668244
 30
0.0
 41
1.0
 10
595.0507087134528
 20
875.5389410391647
 30
0.0
 41
0.8337341919136183
 10
593.4782490228527
 20
875.5389410391647
 30
0.0
 41
1.0
  0
ARC
  5
18B
330
1F
100
AcDbEntity
  8
MIKY
  6
Continuous
 62
     7
100
AcDbCircle
 10
593.8126342338
 20
864.9414953846
 30
0.0
 40
7.772367639831748
100
AcDbArc
 50
46.0687265354
 51
76.2173180681
  0
ARC
  5
18C
330
1F
100
AcDbEntity
  8
MIKY
  6
Continuous
 62
     7
100
AcDbCircle
 10
564.759102839
 20
864.7473895169
 30
0.0
 40
7.986575120739687
100
AcDbArc
 50
104.196184854
 51
133.5177705425
  0
LINE
  5
18D
330
1F
100
AcDbEntity
  8
MIKY
  6
Continuous
 62
     7
100
AcDbLine
 10
565.2323874821
 20
870.3320189051
 30
0.0
 11
565.2323874821
 21
851.5603285555
 31
0.0
  0
LINE
  5
18E
330
1F
100
AcDbEntity
  8
MIKY
  6
Continuous
 62
     7
100
AcDbLine
 10
565.2323874821
 20
870.3320189051
 30
0.0
 11
564.4769463226
 21
870.4081474493
 31
0.0
  0
ARC
  5
18F
330
1F
100
AcDbEntity
  8
MIKY
  6
Continuous
 62
     7
100
AcDbCircle
 10
564.4318665298
 20
866.4281631809
 30
0.0
 40
3.980239561192938
100
AcDbArc
 50
89.3510598917
 51
112.2713253258
  0
ARC
  5
190
330
1F
100
AcDbEntity
  8
MIKY
  6
Continuous
 62
     7
100
AcDbCircle
 10
564.7056028041
 20
865.9846474855
 30
0.0
 40
4.495220903357521
100
AcDbArc
 50
113.3576756709
 51
149.8270547675
  0
ARC
  5
191
330
1F
100
AcDbEntity
  8
MIKY
  6
Continuous
 62
     7
100
AcDbCircle
 10
564.8138105739
 20
865.9985660179
 30
0.0
 40
4.582253620186409
100
AcDbArc
 50
150.6575796174
 51
181.0908923045
  0
SPLINE
  5
192
330
1F
100
AcDbEntity
  8
MIKY
  6
Continuous
 62
     7
100
AcDbSpline
210
0.0
220
0.0
230
1.0
 70
    12
 71
     2
 72
     6
 73
     3
 74
     0
 42
0.0000000025719564
 43
0.0000000001
 40
0.0
 40
0.0
 40
0.0
 40
1.0
 40
1.0
 40
1.0
 10
567.1844639217799
 20
875.5389410391647
 30
0.0
 41
1.0
 10
566.0061513239525
 20
875.5389410391647
 30
0.0
 41
0.8571629751760187
 10
565.4529845424728
 20
872.886224699289
 30
0.0
 41
1.0
  0
ARC
  5
193
330
1F
100
AcDbEntity
  8
MIKY
  6
Continuous
 62
     7
100
AcDbCircle
 10
566.1134345404
 20
859.3857620033
 30
0.0
 40
13.51660782907813
100
AcDbArc
 50
92.800707969
 51
104.188012087
  0
ARC
  5
194
330
1F
100
AcDbEntity
  8
MIKY
  6
Continuous
 62
     7
100
AcDbCircle
 10
580.2962496148
 20
1005.2810068386
 30
0.0
 40
135.5675957121934
100
AcDbArc
 50
273.0018990551
 51
275.47561184
  0
ARC
  5
195
330
1F
100
AcDbEntity
  8
MIKY
  6
Continuous
 62
     7
100
AcDbCircle
 10
579.2323874821
 20
1026.1318968066
 30
0.0
 40
156.4455903232744
100
AcDbArc
 50
267.0089191891
 51
272.9910808109
  0
ARC
  5
196
330
1F
100
AcDbEntity
  8
MIKY
  6
Continuous
 62
     7
100
AcDbCircle
 10
578.1685253494
 20
1005.2810068386
 30
0.0
 40
135.5675957121979
100
AcDbArc
 50
264.52438816
 51
266.9981009449
  0
ARC
  5
197
330
1F
100
AcDbEntity
  8
MIKY
  6
Continuous
 62
     7
100
AcDbCircle
 10
578.5335494779
 20
1092.5937492569
 30
0.0
 40
220.0304290408237
100
AcDbArc
 50
266.9442214136
 51
268.3024274162
  0
LINE
  5
198
330
1F
100
AcDbEntity
  8
MIKY
  6
Continuous
 62
     7
100
AcDbLine
 10
565.4529845425
 20
872.8862246993
 30
0.0
 11
566.8041416014
 21
872.8761789655
 31
0.0
  0
ARC
  5
199
330
1F
100
AcDbEntity
  8
MIKY
  6
Continuous
 62
     7
100
AcDbCircle
 10
579.2323874821
 20
1117.192774852
 30
0.0
 40
244.6393626860771
100
AcDbArc
 50
268.3094975258
 51
271.6905024742
  0
LINE
  5
19A
330
1F
100
AcDbEntity
  8
MIKY
  6
Continuous
 62
     7
100
AcDbLine
 10
591.6606333628
 20
872.8761789655
 30
0.0
 11
593.0117904217
 21
872.8862246993
 31
0.0
  0
ARC
  5
19B
330
1F
100
AcDbEntity
  8
MIKY
  6
Continuous
 62
     7
100
AcDbCircle
 10
579.9312254863
 20
1092.593749258
 30
0.0
 40
220.0304290419353
100
AcDbArc
 50
271.6975725838
 51
273.0557785864
  0
LINE
  5
19C
330
1F
100
AcDbEntity
  8
MIKY
  6
Continuous
 62
     7
100
AcDbLine
 10
598.2323874821
 20
865.9113267265
 30
0.0
 11
598.2323874821
 21
846.6789305688
 31
0.0
  0
ARC
  5
19D
330
1F
100
AcDbEntity
  8
MIKY
  6
Continuous
 62
     7
100
AcDbCircle
 10
592.3513404239
 20
859.3857620036
 30
0.0
 40
13.51660782876689
100
AcDbArc
 50
75.8119879129
 51
87.1992920312
  0
ARC
  5
19E
330
1F
100
AcDbEntity
  8
MIKY
  6
Continuous
 62
     7
100
AcDbCircle
 10
593.6517743421
 20
865.9987698509
 30
0.0
 40
4.581447701171848
100
AcDbArc
 50
358.9063661662
 51
29.3451619119
  0
ARC
  5
19F
330
1F
100
AcDbEntity
  8
MIKY
  6
Continuous
 62
     7
100
AcDbCircle
 10
593.7680212032
 20
865.994617078
 30
0.0
 40
4.482561903512979
100
AcDbArc
 50
30.1196292337
 51
66.6956403279
  0
ARC
  5
1A0
330
1F
100
AcDbEntity
  8
MIKY
  6
Continuous
 62
     7
100
AcDbCircle
 10
594.0329084344
 20
866.4281631809
 30
0.0
 40
3.980239561193912
100
AcDbArc
 50
67.7286746742
 51
90.6489401083
  0
LINE
  5
1A1
330
1F
100
AcDbEntity
  8
MIKY
  6
Continuous
 62
     7
100
AcDbLine
 10
593.9878286416
 20
870.4081474493
 30
0.0
 11
593.2323874821
 21
870.3320189051
 31
0.0
  0
LINE
  5
1A2
330
1F
100
AcDbEntity
  8
MIKY
  6
Continuous
 62
     7
100
AcDbLine
 10
603.2323874821
 20
687.2772612579
 30
0.0
 11
769.0046196206
 21
687.2772612579
 31
0.0
  0
LINE
  5
1A3
330
1F
100
AcDbEntity
  8
MIKY
  6
Continuous
 62
     7
100
AcDbLine
 10
603.2323874821
 20
687.2772612579
 30
0.0
 11
603.2323874821
 21
682.5389410392
 31
0.0
  0
LINE
  5
1A4
330
1F
100
AcDbEntity
  8
MIKY
  6
Continuous
 62
     7
100
AcDbLine
 10
603.2323874821
 20
811.8473399452
 30
0.0
 11
603.2323874821
 21
687.2772612579
 31
0.0
  0
LINE
  5
1A5
330
1F
100
AcDbEntity
  8
MIKY
  6
Continuous
 62
     7
100
AcDbLine
 10
603.2323874821
 20
835.5389410392
 30
0.0
 11
603.2323874821
 21
811.8473399452
 31
0.0
  0
ARC
  5
1A6
330
1F
100
AcDbEntity
  8
MIKY
  6
Continuous
 62
     7
100
AcDbCircle
 10
555.2323874821
 20
687.5389410392
 30
0.0
 40
5.000000000000015
100
AcDbArc
 50
270.0
 51
360.0
  0
ARC
  5
1A7
330
1F
100
AcDbEntity
  8
MIKY
  6
Continuous
 62
     7
100
AcDbCircle
 10
603.2323874821
 20
687.5389410392
 30
0.0
 40
5.000000000000001
100
AcDbArc
 50
180.0
 51
270.0
  0
SPLINE
  5
1A8
330
1F
100
AcDbEntity
  8
MIKY
  6
Continuous
 62
     7
100
AcDbSpline
210
0.0
220
0.0
230
1.0
 70
    12
 71
     2
 72
     6
 73
     3
 74
     0
 42
0.0000000019005337
 43
0.0000000001
 40
0.0
 40
0.0
 40
0.0
 40
1.0
 40
1.0
 40
1.0
 10
598.2323874821035
 20
687.5389410391647
 30
0.0
 41
1.0
 10
598.2323874821035
 20
687.2772612579499
 30
0.0
 41
0.7071067811865036
 10
603.2323874821035
 20
687.2772612579499
 30
0.0
 41
1.0
  0
SPLINE
  5
1A9
330
1F
100
AcDbEntity
  8
MIKY
  6
Continuous
 62
     7
100
AcDbSpline
210
0.0
220
0.0
230
1.0
 70
    12
 71
     2
 72
     6
 73
     3
 74
     0
 42
0.0000000019005337
 43
0.0000000001
 40
0.0
 40
0.0
 40
0.0
 40
1.0
 40
1.0
 40
1.0
 10
598.2323874821035
 20
812.109019726453
 30
0.0
 41
1.0
 10
598.2323874821035
 20
811.8473399452382
 30
0.0
 41
0.7071067811865036
 10
603.2323874821035
 20
811.8473399452382
 30
0.0
 41
1.0
  0
ARC
  5
1AA
330
1F
100
AcDbEntity
  8
MIKY
  6
Continuous
 62
     7
100
AcDbCircle
 10
603.2323874821
 20
840.5389410392
 30
0.0
 40
5.000000000000001
100
AcDbArc
 50
180.0
 51
270.0
  0
LINE
  5
1AB
330
1F
100
AcDbEntity
  8
MIKY
  6
Continuous
 62
     7
100
AcDbLine
 10
598.2323874821
 20
845.5389410392
 30
0.0
 11
600.2323874821
 21
845.5389410392
 31
0.0
  0
LINE
  5
1AC
330
1F
100
AcDbEntity
  8
MIKY
  6
Continuous
 62
     7
100
AcDbLine
 10
598.2323874821
 20
865.9113267265
 30
0.0
 11
600.2323874821
 21
865.9113267265
 31
0.0
  0
SPLINE
  5
1AD
330
1F
100
AcDbEntity
  8
MIKY
  6
Continuous
 62
     7
100
AcDbSpline
210
0.0
220
0.0
230
1.0
 70
    12
 71
     2
 72
     6
 73
     3
 74
     0
 42
0.000000003209776
 43
0.0000000001
 40
0.0
 40
0.0
 40
0.0
 40
1.0
 40
1.0
 40
1.0
 10
599.2050641938077
 20
870.5389410391647
 30
0.0
 41
1.0
 10
597.4804214922007
 20
869.0930711023152
 30
0.0
 41
0.8908535145806539
 10
597.6453456030773
 20
868.2439984855957
 30
0.0
 41
1.0
  0
SPLINE
  5
1AE
330
1F
100
AcDbEntity
  8
MIKY
  6
Continuous
 62
     7
100
AcDbSpline
210
0.0
220
0.0
230
1.0
 70
    12
 71
     2
 72
     6
 73
     3
 74
     0
 42
0.0000000039575276
 43
0.0000000001
 40
0.0
 40
0.0
 40
0.0
 40
1.0
 40
1.0
 40
1.0
 10
595.6643224338998
 20
872.4900680668244
 30
0.0
 41
1.0
 10
595.1991061164514
 20
870.7366215135633
 30
0.0
 41
0.9207145448456657
 10
595.5413916635252
 20
870.1114749124733
 30
0.0
 41
1.0
  0
SPLINE
  5
1AF
330
1F
100
AcDbEntity
  8
MIKY
  6
Continuous
 62
     7
100
AcDbSpline
210
0.0
220
0.0
230
1.0
 70
    12
 71
     2
 72
     6
 73
     3
 74
     0
 42
0.000000003504816
 43
0.0000000001
 40
0.0
 40
0.0
 40
0.0
 40
1.0
 40
1.0
 40
1.0
 10
593.0117904217346
 20
872.8862246992859
 30
0.0
 41
1.0
 10
593.2622698977663
 20
870.9620868366533
 30
0.0
 41
0.9163015930646956
 10
593.9878286415728
 20
870.4081474493211
 30
0.0
 41
1.0
  0
SPLINE
  5
1B0
330
1F
100
AcDbEntity
  8
MIKY
  6
Continuous
 62
     7
100
AcDbSpline
210
0.0
220
0.0
230
1.0
 70
    12
 71
     2
 72
     6
 73
     3
 74
     0
 42
0.0000000030924806
 43
0.0000000001
 40
0.0
 40
0.0
 40
0.0
 40
1.0
 40
1.0
 40
1.0
 10
591.660633362843
 20
872.8761789655024
 30
0.0
 41
1.0
 10
592.2712182678
 20
870.7990301096625
 30
0.0
 41
0.9042268102912114
 10
593.2323874821035
 20
870.3320189051192
 30
0.0
 41
1.0
  0
SPLINE
  5
1B1
330
1F
100
AcDbEntity
  8
MIKY
  6
Continuous
 62
     7
100
AcDbSpline
210
0.0
220
0.0
230
1.0
 70
    12
 71
     2
 72
     6
 73
     3
 74
     0
 42
0.0000000032739815
 43
0.0000000001
 40
0.0
 40
0.0
 40
0.0
 40
1.0
 40
1.0
 40
1.0
 10
586.4493840991786
 20
872.6598880345165
 30
0.0
 41
1.0
 10
586.8064493129114
 20
870.4203548745872
 30
0.0
 41
0.8960651698810159
 10
587.3957965659705
 20
869.8994370431474
 30
0.0
 41
1.0
  0
SPLINE
  5
1B2
330
1F
100
AcDbEntity
  8
MIKY
  6
Continuous
 62
     7
100
AcDbSpline
210
0.0
220
0.0
230
1.0
 70
    12
 71
     2
 72
     6
 73
     3
 74
     0
 42
0.0000000032739815
 43
0.0000000001
 40
0.0
 40
0.0
 40
0.0
 40
1.0
 40
1.0
 40
1.0
 10
571.0689783982365
 20
869.8994370431474
 30
0.0
 41
1.0
 10
571.6583256512956
 20
870.4203548745872
 30
0.0
 41
0.8960651698810153
 10
572.0153908650284
 20
872.6598880345165
 30
0.0
 41
1.0
  0
SPLINE
  5
1B3
330
1F
100
AcDbEntity
  8
MIKY
  6
Continuous
 62
     7
100
AcDbSpline
210
0.0
220
0.0
230
1.0
 70
    12
 71
     2
 72
     6
 73
     3
 74
     0
 42
0.0000000030924806
 43
0.0000000001
 40
0.0
 40
0.0
 40
0.0
 40
1.0
 40
1.0
 40
1.0
 10
565.2323874821034
 20
870.3320189051192
 30
0.0
 41
1.0
 10
566.1935566964069
 20
870.7990301096623
 30
0.0
 41
0.9042268102912288
 10
566.804141601364
 20
872.8761789655024
 30
0.0
 41
1.0
  0
SPLINE
  5
1B4
330
1F
100
AcDbEntity
  8
MIKY
  6
Continuous
 62
     7
100
AcDbSpline
210
0.0
220
0.0
230
1.0
 70
    12
 71
     2
 72
     6
 73
     3
 74
     0
 42
0.000000003504816
 43
0.0000000001
 40
0.0
 40
0.0
 40
0.0
 40
1.0
 40
1.0
 40
1.0
 10
564.476946322634
 20
870.4081474493213
 30
0.0
 41
1.0
 10
565.2025050664414
 20
870.9620868366542
 30
0.0
 41
0.9163015930641657
 10
565.4529845424728
 20
872.8862246992891
 30
0.0
 41
1.0
  0
SPLINE
  5
1B5
330
1F
100
AcDbEntity
  8
MIKY
  6
Continuous
 62
     7
100
AcDbSpline
210
0.0
220
0.0
230
1.0
 70
    12
 71
     2
 72
     6
 73
     3
 74
     0
 42
0.0000000039575276
 43
0.0000000001
 40
0.0
 40
0.0
 40
0.0
 40
1.0
 40
1.0
 40
1.0
 10
562.9233833006814
 20
870.1114749124733
 30
0.0
 41
1.0
 10
563.2656688477551
 20
870.7366215135634
 30
0.0
 41
0.9207145448464408
 10
562.8004525303068
 20
872.4900680668242
 30
0.0
 41
1.0
  0
SPLINE
  5
1B6
330
1F
100
AcDbEntity
  8
MIKY
  6
Continuous
 62
     7
100
AcDbSpline
210
0.0
220
0.0
230
1.0
 70
    12
 71
     2
 72
     6
 73
     3
 74
     0
 42
0.000000003209776
 43
0.0000000001
 40
0.0
 40
0.0
 40
0.0
 40
1.0
 40
1.0
 40
1.0
 10
560.8194293611297
 20
868.2439984855957
 30
0.0
 41
1.0
 10
560.9843534720062
 20
869.0930711023152
 30
0.0
 41
0.8908535145797167
 10
559.2597107703991
 20
870.5389410391647
 30
0.0
 41
1.0
  0
LINE
  5
1B7
330
1F
100
AcDbEntity
  8
MIKY
  6
Continuous
 62
     7
100
AcDbLine
 10
560.2323874821
 20
865.9113267265
 30
0.0
 11
558.2323874821
 21
865.9113267265
 31
0.0
  0
LINE
  5
1B8
330
1F
100
AcDbEntity
  8
MIKY
  6
Continuous
 62
     7
100
AcDbLine
 10
560.2323874821
 20
845.5389410392
 30
0.0
 11
558.2323874821
 21
845.5389410392
 31
0.0
  0
ARC
  5
1B9
330
1F
100
AcDbEntity
  8
MIKY
  6
Continuous
 62
     7
100
AcDbCircle
 10
555.2323874821
 20
840.5389410392
 30
0.0
 40
5.000000000000001
100
AcDbArc
 50
270.0
 51
360.0
  0
SPLINE
  5
1BA
330
1F
100
AcDbEntity
  8
MIKY
  6
Continuous
 62
     7
100
AcDbSpline
210
0.0
220
0.0
230
1.0
 70
    12
 71
     2
 72
     6
 73
     3
 74
     0
 42
0.0000000019005337
 43
0.0000000001
 40
0.0
 40
0.0
 40
0.0
 40
1.0
 40
1.0
 40
1.0
 10
555.2323874821035
 20
811.8473399452382
 30
0.0
 41
1.0
 10
560.2323874821035
 20
811.8473399452382
 30
0.0
 41
0.7071067811865036
 10
560.2323874821035
 20
812.109019726453
 30
0.0
 41
1.0
  0
SPLINE
  5
1BB
330
1F
100
AcDbEntity
  8
MIKY
  6
Continuous
 62
     7
100
AcDbSpline
210
0.0
220
0.0
230
1.0
 70
    12
 71
     2
 72
     6
 73
     3
 74
     0
 42
0.0000000019005337
 43
0.0000000001
 40
0.0
 40
0.0
 40
0.0
 40
1.0
 40
1.0
 40
1.0
 10
555.2323874821035
 20
687.2772612579499
 30
0.0
 41
1.0
 10
560.2323874821035
 20
687.2772612579499
 30
0.0
 41
0.7071067811865036
 10
560.2323874821035
 20
687.5389410391647
 30
0.0
 41
1.0
  0
LINE
  5
1BC
330
1F
100
AcDbEntity
  8
MIKY
  6
Continuous
 62
     7
100
AcDbLine
 10
802.7323874821
 20
670.5389410392
 30
0.0
 11
802.7323874821
 21
680.5389410392
 31
0.0
  0
ARC
  5
1BD
330
1F
100
AcDbEntity
  8
MIKY
  6
Continuous
 62
     7
100
AcDbCircle
 10
802.7323874821
 20
680.5389410392
 30
0.0
 40
10.00000000000001
100
AcDbArc
 50
270.0
 51
360.0
  0
LINE
  5
1BE
330
1F
100
AcDbEntity
  8
MIKY
  6
Continuous
 62
     7
100
AcDbLine
 10
812.7323874821
 20
682.5389410392
 30
0.0
 11
812.7323874821
 21
680.5389410392
 31
0.0
  0
LINE
  5
1BF
330
1F
100
AcDbEntity
  8
MIKY
  6
Continuous
 62
     7
100
AcDbLine
 10
802.7323874821
 20
682.5389410392
 30
0.0
 11
603.2323874821
 21
682.5389410392
 31
0.0
  0
LINE
  5
1C0
330
1F
100
AcDbEntity
  8
MIKY
  6
Continuous
 62
     7
100
AcDbLine
 10
802.7323874821
 20
680.5389410392
 30
0.0
 11
802.7323874821
 21
682.5389410392
 31
0.0
  0
LINE
  5
1C1
330
1F
100
AcDbEntity
  8
MIKY
  6
Continuous
 62
     7
100
AcDbLine
 10
802.7323874821
 20
682.5389410392
 30
0.0
 11
812.7323874821
 21
682.5389410392
 31
0.0
  0
LINE
  5
1C2
330
1F
100
AcDbEntity
  8
MIKY
  6
Continuous
 62
     7
100
AcDbLine
 10
812.7323874821
 20
680.5389410392
 30
0.0
 11
802.7323874821
 21
680.5389410392
 31
0.0
  0
LINE
  5
1C3
330
1F
100
AcDbEntity
  8
MIKY
  6
Continuous
 62
     7
100
AcDbLine
 10
355.7323874821
 20
680.5389410392
 30
0.0
 11
560.2323874821
 21
680.5389410392
 31
0.0
  0
LINE
  5
1C4
330
1F
100
AcDbEntity
  8
MIKY
  6
Continuous
 62
     7
100
AcDbLine
 10
355.7323874821
 20
680.5389410392
 30
0.0
 11
355.7323874821
 21
670.5389410392
 31
0.0
  0
ARC
  5
1C5
330
1F
100
AcDbEntity
  8
MIKY
  6
Continuous
 62
     7
100
AcDbCircle
 10
355.7323874821
 20
680.5389410392
 30
0.0
 40
10.0
100
AcDbArc
 50
180.0
 51
270.0
  0
LINE
  5
1C6
330
1F
100
AcDbEntity
  8
MIKY
  6
Continuous
 62
     7
100
AcDbLine
 10
355.7323874821
 20
682.5389410392
 30
0.0
 11
355.7323874821
 21
680.5389410392
 31
0.0
  0
LINE
  5
1C7
330
1F
100
AcDbEntity
  8
MIKY
  6
Continuous
 62
     7
100
AcDbLine
 10
345.7323874821
 20
680.5389410392
 30
0.0
 11
345.7323874821
 21
682.5389410392
 31
0.0
  0
LINE
  5
1C8
330
1F
100
AcDbEntity
  8
MIKY
  6
Continuous
 62
     7
100
AcDbLine
 10
345.7323874821
 20
682.5389410392
 30
0.0
 11
355.7323874821
 21
682.5389410392
 31
0.0
  0
LINE
  5
1C9
330
1F
100
AcDbEntity
  8
MIKY
  6
Continuous
 62
     7
100
AcDbLine
 10
355.7323874821
 20
680.5389410392
 30
0.0
 11
345.7323874821
 21
680.5389410392
 31
0.0
  0
LINE
  5
1CA
330
1F
100
AcDbEntity
  8
MIKY
  6
Continuous
 62
     7
100
AcDbLine
 10
614.2323874821
 20
845.5389410392
 30
0.0
 11
614.2323874821
 21
870.5389410392
 31
0.0
  0
LINE
  5
1CB
330
1F
100
AcDbEntity
  8
MIKY
  6
Continuous
 62
     7
100
AcDbLine
 10
544.2323874821
 20
870.5389410392
 30
0.0
 11
544.2323874821
 21
845.5389410392
 31
0.0
  0
ARC
  5
1CC
330
1F
100
AcDbEntity
  8
MIKY
  6
Continuous
 62
     7
100
AcDbCircle
 10
534.2323874821
 20
845.5389410392
 30
0.0
 40
10.0
100
AcDbArc
 50
270.0
 51
360.0
  0
ARC
  5
1CD
330
1F
100
AcDbEntity
  8
MIKY
  6
Continuous
 62
     7
100
AcDbCircle
 10
624.2323874821
 20
845.5389410392
 30
0.0
 40
10.00000000000001
100
AcDbArc
 50
180.0
 51
270.0
  0
ARC
  5
1CE
330
1F
100
AcDbEntity
  8
MIKY
  6
Continuous
 62
     7
100
AcDbCircle
 10
609.2323874821
 20
870.5389410392
 30
0.0
 40
5.000000000000001
100
AcDbArc
 50
0.0
 51
90.0
  0
ARC
  5
1CF
330
1F
100
AcDbEntity
  8
MIKY
  6
Continuous
 62
     7
100
AcDbCircle
 10
549.2323874821
 20
870.5389410392
 30
0.0
 40
5.000000000000004
100
AcDbArc
 50
90.0
 51
180.0
  0
CIRCLE
  5
1D0
330
1F
100
AcDbEntity
  8
MIKY
  6
Continuous
 62
     7
100
AcDbCircle
 10
579.2323874821
 20
324.0008246424
 30
0.0
 40
25.0
  0
LINE
  5
1D1
330
1F
100
AcDbEntity
  8
MIKY
  6
Continuous
 62
     7
100
AcDbLine
 10
769.0046196206
 20
211.2491494826
 30
0.0
 11
759.3865678994
 21
220.8672012038
 31
0.0
  0
LINE
  5
1D2
330
1F
100
AcDbEntity
  8
MIKY
  6
Continuous
 62
     7
100
AcDbLine
 10
781.9353003
 20
509.0008246424
 30
0.0
 11
802.7323874821
 21
509.0008246424
 31
0.0
  0
LINE
  5
1D3
330
1F
100
AcDbEntity
  8
MIKY
  6
Continuous
 62
     7
100
AcDbLine
 10
788.9772103157
 20
493.7730567809
 30
0.0
 11
788.9772103157
 21
226.2285925039
 31
0.0
  0
SPLINE
  5
1D4
330
1F
100
AcDbEntity
  8
MIKY
  6
Continuous
 62
     7
100
AcDbSpline
210
0.0
220
0.0
230
1.0
 70
    12
 71
     2
 72
     6
 73
     3
 74
     0
 42
0.0000000002503431
 43
0.0000000001
 40
0.0
 40
0.0
 40
0.0
 40
1.0
 40
1.0
 40
1.0
 10
769.0046196205864
 20
206.2560018088357
 30
0.0
 41
1.0
 10
788.9772103156778
 20
206.2560018088357
 30
0.0
 41
0.7080745202010507
 10
788.9772103156778
 20
226.2285925039271
 30
0.0
 41
1.0
  0
SPLINE
  5
1D5
330
1F
100
AcDbEntity
  8
MIKY
  6
Continuous
 62
     7
100
AcDbSpline
210
0.0
220
0.0
230
1.0
 70
    12
 71
     2
 72
     6
 73
     3
 74
     0
 42
0.0000000005409239
 43
0.0000000001
 40
0.0
 40
0.0
 40
0.0
 40
1.0
 40
1.0
 40
1.0
 10
788.9772103156779
 20
493.7730567808932
 30
0.0
 41
1.0
 10
788.9772103156779
 20
503.0227388690404
 30
0.0
 41
0.9078510433608353
 10
781.935300299993
 20
509.00082464241
 30
0.0
 41
1.0
  0
LINE
  5
1D6
330
1F
100
AcDbEntity
  8
MIKY
  6
Continuous
 62
     7
100
AcDbLine
 10
769.0046196206
 20
206.2560018088
 30
0.0
 11
603.2323874821
 21
206.2560018088
 31
0.0
  0
LINE
  5
1D7
330
1F
100
AcDbEntity
  8
MIKY
  6
Continuous
 62
     7
100
AcDbLine
 10
783.9840626419
 20
493.7730567809
 30
0.0
 11
774.3660109207
 21
484.1550050597
 31
0.0
  0
SPLINE
  5
1D8
330
1F
100
AcDbEntity
  8
MIKY
  6
Continuous
 62
     7
100
AcDbSpline
210
0.0
220
0.0
230
1.0
 70
    12
 71
     2
 72
     6
 73
     3
 74
     0
 42
0.000000000333487
 43
0.0000000001
 40
0.0
 40
0.0
 40
0.0
 40
1.0
 40
1.0
 40
1.0
 10
783.984062641905
 20
493.7730567808929
 30
0.0
 41
1.0
 10
783.997701776302
 20
508.7661389366087
 30
0.0
 41
0.7080745202010258
 10
769.0046196205865
 20
508.7524998022118
 30
0.0
 41
1.0
  0
LINE
  5
1D9
330
1F
100
AcDbEntity
  8
MIKY
  6
Continuous
 62
     7
100
AcDbLine
 10
756.0479463052
 20
509.0008246424
 30
0.0
 11
402.416828659
 21
509.0008246424
 31
0.0
  0
ARC
  5
1DA
330
1F
100
AcDbEntity
  8
MIKY
  6
Continuous
 62
     7
100
AcDbCircle
 10
754.6553600353
 20
98.2009642861
 30
0.0
 40
410.8022207403983
100
AcDbArc
 50
87.9982598741
 51
89.8057715741
  0
SPLINE
  5
1DB
330
1F
100
AcDbEntity
  8
MIKY
  6
Continuous
 62
     7
100
AcDbSpline
210
0.0
220
0.0
230
1.0
 70
    12
 71
     2
 72
     6
 73
     3
 74
     0
 42
0.000000000333487
 43
0.0000000001
 40
0.0
 40
0.0
 40
0.0
 40
1.0
 40
1.0
 40
1.0
 10
769.0046196205864
 20
211.2491494826087
 30
0.0
 41
1.0
 10
783.9977017763019
 20
211.2355103482118
 30
0.0
 41
0.7080745202010318
 10
783.9840626419051
 20
226.2285925039271
 30
0.0
 41
1.0
  0
LINE
  5
1DC
330
1F
100
AcDbEntity
  8
MIKY
  6
Continuous
 62
     7
100
AcDbLine
 10
783.9840626419
 20
226.2285925039
 30
0.0
 11
783.9840626419
 21
493.7730567809
 31
0.0
  0
LINE
  5
1DD
330
1F
100
AcDbEntity
  8
MIKY
  6
Continuous
 62
     7
100
AcDbLine
 10
756.0479463052
 20
509.0008246424
 30
0.0
 11
781.9353003
 21
509.0008246424
 31
0.0
  0
LINE
  5
1DE
330
1F
100
AcDbEntity
  8
MIKY
  6
Continuous
 62
     7
100
AcDbLine
 10
788.9772103157
 20
493.7730567809
 30
0.0
 11
783.9840626419
 21
493.7730567809
 31
0.0
  0
LINE
  5
1DF
330
1F
100
AcDbEntity
  8
MIKY
  6
Continuous
 62
     7
100
AcDbLine
 10
788.9772103157
 20
226.2285925039
 30
0.0
 11
783.9840626419
 21
226.2285925039
 31
0.0
  0
LINE
  5
1E0
330
1F
100
AcDbEntity
  8
MIKY
  6
Continuous
 62
     7
100
AcDbLine
 10
769.0046196206
 20
206.2560018088
 30
0.0
 11
769.0046196206
 21
211.2491494826
 31
0.0
  0
LINE
  5
1E1
330
1F
100
AcDbEntity
  8
MIKY
  6
Continuous
 62
     7
100
AcDbLine
 10
669.0195251099
 20
244.8053264865
 30
0.0
 11
669.0195251099
 21
225.8603488776
 31
0.0
  0
LINE
  5
1E2
330
1F
100
AcDbEntity
  8
MIKY
  6
Continuous
 62
     7
100
AcDbLine
 10
750.927885638
 20
244.8053264865
 30
0.0
 11
669.0195251099
 21
244.8053264865
 31
0.0
  0
LINE
  5
1E3
330
1F
100
AcDbEntity
  8
MIKY
  6
Continuous
 62
     7
100
AcDbLine
 10
669.0195251099
 20
225.8603488776
 30
0.0
 11
759.3865678994
 21
225.8603488776
 31
0.0
  0
LINE
  5
1E4
330
1F
100
AcDbEntity
  8
MIKY
  6
Continuous
 62
     7
100
AcDbLine
 10
750.927885638
 20
468.1963227983
 30
0.0
 11
750.927885638
 21
244.8053264865
 31
0.0
  0
SPLINE
  5
1E5
330
1F
100
AcDbEntity
  8
MIKY
  6
Continuous
 62
     7
100
AcDbSpline
210
0.0
220
0.0
230
1.0
 70
    12
 71
     2
 72
     6
 73
     3
 74
     0
 42
0.0000000005006862
 43
0.0000000001
 40
0.0
 40
0.0
 40
0.0
 40
1.0
 40
1.0
 40
1.0
 10
759.3865678993562
 20
225.8603488776115
 30
0.0
 41
1.0
 10
769.3728632469019
 20
225.8603488776115
 30
0.0
 41
0.7080745202010592
 10
769.372863246902
 20
235.8466442251571
 30
0.0
 41
1.0
  0
LINE
  5
1E6
330
1F
100
AcDbEntity
  8
MIKY
  6
Continuous
 62
     7
100
AcDbLine
 10
407.5368893262
 20
468.1963227983
 30
0.0
 11
750.927885638
 21
468.1963227983
 31
0.0
  0
LINE
  5
1E7
330
1F
100
AcDbEntity
  8
MIKY
  6
Continuous
 62
     7
100
AcDbLine
 10
769.3728632469
 20
235.8466442252
 30
0.0
 11
769.3728632469
 21
484.1550050597
 31
0.0
  0
LINE
  5
1E8
330
1F
100
AcDbEntity
  8
MIKY
  6
Continuous
 62
     7
100
AcDbLine
 10
407.5368893262
 20
244.8053264865
 30
0.0
 11
407.5368893262
 21
468.1963227983
 31
0.0
  0
SPLINE
  5
1E9
330
1F
100
AcDbEntity
  8
MIKY
  6
Continuous
 62
     7
100
AcDbSpline
210
0.0
220
0.0
230
1.0
 70
    12
 71
     2
 72
     6
 73
     3
 74
     0
 42
0.0000000005006862
 43
0.0000000001
 40
0.0
 40
0.0
 40
0.0
 40
1.0
 40
1.0
 40
1.0
 10
769.3728632469022
 20
484.1550050596631
 30
0.0
 41
1.0
 10
769.3728632469022
 20
494.1413004072089
 30
0.0
 41
0.7080745202010293
 10
759.3865678993564
 20
494.1413004072089
 30
0.0
 41
1.0
  0
LINE
  5
1EA
330
1F
100
AcDbEntity
  8
MIKY
  6
Continuous
 62
     7
100
AcDbLine
 10
489.4452498543
 20
244.8053264865
 30
0.0
 11
407.5368893262
 21
244.8053264865
 31
0.0
  0
LINE
  5
1EB
330
1F
100
AcDbEntity
  8
MIKY
  6
Continuous
 62
     7
100
AcDbLine
 10
759.3865678994
 20
494.1413004072
 30
0.0
 11
399.0782070649
 21
494.1413004072
 31
0.0
  0
LINE
  5
1EC
330
1F
100
AcDbEntity
  8
MIKY
  6
Continuous
 62
     7
100
AcDbLine
 10
489.4452498543
 20
225.8603488776
 30
0.0
 11
489.4452498543
 21
244.8053264865
 31
0.0
  0
SPLINE
  5
1ED
330
1F
100
AcDbEntity
  8
MIKY
  6
Continuous
 62
     7
100
AcDbSpline
210
0.0
220
0.0
230
1.0
 70
    12
 71
     2
 72
     6
 73
     3
 74
     0
 42
0.0000000005006862
 43
0.0000000001
 40
0.0
 40
0.0
 40
0.0
 40
1.0
 40
1.0
 40
1.0
 10
399.0782070648505
 20
494.1413004072088
 30
0.0
 41
1.0
 10
389.091911717305
 20
494.1413004072087
 30
0.0
 41
0.7080745202010492
 10
389.0919117173049
 20
484.1550050596632
 30
0.0
 41
1.0
  0
LINE
  5
1EE
330
1F
100
AcDbEntity
  8
MIKY
  6
Continuous
 62
     7
100
AcDbLine
 10
399.0782070649
 20
225.8603488776
 30
0.0
 11
489.4452498543
 21
225.8603488776
 31
0.0
  0
LINE
  5
1EF
330
1F
100
AcDbEntity
  8
MIKY
  6
Continuous
 62
     7
100
AcDbLine
 10
389.0919117173
 20
484.1550050597
 30
0.0
 11
389.0919117173
 21
235.8466442252
 31
0.0
  0
SPLINE
  5
1F0
330
1F
100
AcDbEntity
  8
MIKY
  6
Continuous
 62
     7
100
AcDbSpline
210
0.0
220
0.0
230
1.0
 70
    12
 71
     2
 72
     6
 73
     3
 74
     0
 42
0.0000000005006862
 43
0.0000000001
 40
0.0
 40
0.0
 40
0.0
 40
1.0
 40
1.0
 40
1.0
 10
389.0919117173049
 20
235.8466442251572
 30
0.0
 41
1.0
 10
389.0919117173049
 20
225.8603488776116
 30
0.0
 41
0.7080745202010353
 10
399.0782070648505
 20
225.8603488776115
 30
0.0
 41
1.0
  0
LINE
  5
1F1
330
1F
100
AcDbEntity
  8
MIKY
  6
Continuous
 62
     7
100
AcDbLine
 10
399.0782070649
 20
220.8672012038
 30
0.0
 11
389.4601553436
 21
211.2491494826
 31
0.0
  0
SPLINE
  5
1F2
330
1F
100
AcDbEntity
  8
MIKY
  6
Continuous
 62
     7
100
AcDbSpline
210
0.0
220
0.0
230
1.0
 70
    12
 71
     2
 72
     6
 73
     3
 74
     0
 42
0.0000000003340948
 43
0.0000000001
 40
0.0
 40
0.0
 40
0.0
 40
1.0
 40
1.0
 40
1.0
 10
384.0987640435321
 20
235.8466442251573
 30
0.0
 41
1.0
 10
384.1124031779283
 20
220.8808403382347
 30
0.0
 41
0.7080745202010172
 10
399.0782070648506
 20
220.8672012038384
 30
0.0
 41
1.0
  0
LINE
  5
1F3
330
1F
100
AcDbEntity
  8
MIKY
  6
Continuous
 62
     7
100
AcDbLine
 10
384.0987640435
 20
484.1550050597
 30
0.0
 11
374.4807123223
 21
493.7730567809
 31
0.0
  0
LINE
  5
1F4
330
1F
100
AcDbEntity
  8
MIKY
  6
Continuous
 62
     7
100
AcDbLine
 10
384.0987640435
 20
235.8466442252
 30
0.0
 11
384.0987640435
 21
484.1550050597
 31
0.0
  0
SPLINE
  5
1F5
330
1F
100
AcDbEntity
  8
MIKY
  6
Continuous
 62
     7
100
AcDbSpline
210
0.0
220
0.0
230
1.0
 70
    12
 71
     2
 72
     6
 73
     3
 74
     0
 42
0.0000000003340948
 43
0.0000000001
 40
0.0
 40
0.0
 40
0.0
 40
1.0
 40
1.0
 40
1.0
 10
399.0782070648506
 20
499.1344480809821
 30
0.0
 41
1.0
 10
384.1124031779297
 20
499.1208089465847
 30
0.0
 41
0.7080745202010731
 10
384.0987640435324
 20
484.155005059663
 30
0.0
 41
1.0
  0
LINE
  5
1F6
330
1F
100
AcDbEntity
  8
MIKY
  6
Continuous
 62
     7
100
AcDbLine
 10
759.3865678994
 20
499.134448081
 30
0.0
 11
769.0046196206
 21
508.7524998022
 31
0.0
  0
LINE
  5
1F7
330
1F
100
AcDbEntity
  8
MIKY
  6
Continuous
 62
     7
100
AcDbLine
 10
399.0782070649
 20
499.134448081
 30
0.0
 11
759.3865678994
 21
499.134448081
 31
0.0
  0
SPLINE
  5
1F8
330
1F
100
AcDbEntity
  8
MIKY
  6
Continuous
 62
     7
100
AcDbSpline
210
0.0
220
0.0
230
1.0
 70
    12
 71
     2
 72
     6
 73
     3
 74
     0
 42
0.0000000003340948
 43
0.0000000001
 40
0.0
 40
0.0
 40
0.0
 40
1.0
 40
1.0
 40
1.0
 10
774.3660109206753
 20
484.155005059663
 30
0.0
 41
1.0
 10
774.3523717862779
 20
499.1208089465838
 30
0.0
 41
0.7080745202010549
 10
759.3865678993565
 20
499.1344480809813
 30
0.0
 41
1.0
  0
LINE
  5
1F9
330
1F
100
AcDbEntity
  8
MIKY
  6
Continuous
 62
     7
100
AcDbLine
 10
774.3660109207
 20
235.8466442252
 30
0.0
 11
783.9840626419
 21
226.2285925039
 31
0.0
  0
LINE
  5
1FA
330
1F
100
AcDbEntity
  8
MIKY
  6
Continuous
 62
     7
100
AcDbLine
 10
774.3660109207
 20
484.1550050597
 30
0.0
 11
774.3660109207
 21
235.8466442252
 31
0.0
  0
SPLINE
  5
1FB
330
1F
100
AcDbEntity
  8
MIKY
  6
Continuous
 62
     7
100
AcDbSpline
210
0.0
220
0.0
230
1.0
 70
    12
 71
     2
 72
     6
 73
     3
 74
     0
 42
0.0000000003340948
 43
0.0000000001
 40
0.0
 40
0.0
 40
0.0
 40
1.0
 40
1.0
 40
1.0
 10
759.3865678993565
 20
220.8672012038385
 30
0.0
 41
1.0
 10
774.3523717862784
 20
220.8808403382349
 30
0.0
 41
0.7080745202010335
 10
774.3660109206747
 20
235.8466442251571
 30
0.0
 41
1.0
  0
LINE
  5
1FC
330
1F
100
AcDbEntity
  8
MIKY
  6
Continuous
 62
     7
100
AcDbLine
 10
759.3865678994
 20
220.8672012038
 30
0.0
 11
669.0195251099
 21
220.8672012038
 31
0.0
  0
LINE
  5
1FD
330
1F
100
AcDbEntity
  8
MIKY
  6
Continuous
 62
     7
100
AcDbLine
 10
759.3865678994
 20
225.8603488776
 30
0.0
 11
759.3865678994
 21
220.8672012038
 31
0.0
  0
LINE
  5
1FE
330
1F
100
AcDbEntity
  8
MIKY
  6
Continuous
 62
     7
100
AcDbLine
 10
769.3728632469
 20
235.8466442252
 30
0.0
 11
774.3660109207
 21
235.8466442252
 31
0.0
  0
LINE
  5
1FF
330
1F
100
AcDbEntity
  8
MIKY
  6
Continuous
 62
     7
100
AcDbLine
 10
769.3728632469
 20
484.1550050597
 30
0.0
 11
774.3660109207
 21
484.1550050597
 31
0.0
  0
LINE
  5
200
330
1F
100
AcDbEntity
  8
MIKY
  6
Continuous
 62
     7
100
AcDbLine
 10
759.3865678994
 20
494.1413004072
 30
0.0
 11
759.3865678994
 21
499.134448081
 31
0.0
  0
LINE
  5
201
330
1F
100
AcDbEntity
  8
MIKY
  6
Continuous
 62
     7
100
AcDbLine
 10
399.0782070649
 20
494.1413004072
 30
0.0
 11
399.0782070649
 21
499.134448081
 31
0.0
  0
LINE
  5
202
330
1F
100
AcDbEntity
  8
MIKY
  6
Continuous
 62
     7
100
AcDbLine
 10
389.0919117173
 20
484.1550050597
 30
0.0
 11
384.0987640435
 21
484.1550050597
 31
0.0
  0
LINE
  5
203
330
1F
100
AcDbEntity
  8
MIKY
  6
Continuous
 62
     7
100
AcDbLine
 10
389.0919117173
 20
235.8466442252
 30
0.0
 11
384.0987640435
 21
235.8466442252
 31
0.0
  0
LINE
  5
204
330
1F
100
AcDbEntity
  8
MIKY
  6
Continuous
 62
     7
100
AcDbLine
 10
399.0782070649
 20
220.8672012038
 30
0.0
 11
399.0782070649
 21
225.8603488776
 31
0.0
  0
LINE
  5
205
330
1F
100
AcDbEntity
  8
MIKY
  6
Continuous
 62
     7
100
AcDbLine
 10
389.4601553436
 20
211.2491494826
 30
0.0
 11
555.2323874821
 21
211.2491494826
 31
0.0
  0
SPLINE
  5
206
330
1F
100
AcDbEntity
  8
MIKY
  6
Continuous
 62
     7
100
AcDbSpline
210
0.0
220
0.0
230
1.0
 70
    12
 71
     2
 72
     6
 73
     3
 74
     0
 42
0.0000000005409239
 43
0.0000000001
 40
0.0
 40
0.0
 40
0.0
 40
1.0
 40
1.0
 40
1.0
 10
376.529474664213
 20
509.000824642409
 30
0.0
 41
1.0
 10
369.4875646485291
 20
503.0227388690394
 30
0.0
 41
0.9078510433608842
 10
369.487564648529
 20
493.7730567808931
 30
0.0
 41
1.0
  0
LINE
  5
207
330
1F
100
AcDbEntity
  8
MIKY
  6
Continuous
 62
     7
100
AcDbLine
 10
369.4875646485
 20
226.2285925039
 30
0.0
 11
369.4875646485
 21
493.7730567809
 31
0.0
  0
SPLINE
  5
208
330
1F
100
AcDbEntity
  8
MIKY
  6
Continuous
 62
     7
100
AcDbSpline
210
0.0
220
0.0
230
1.0
 70
    12
 71
     2
 72
     6
 73
     3
 74
     0
 42
0.0000000002503431
 43
0.0000000001
 40
0.0
 40
0.0
 40
0.0
 40
1.0
 40
1.0
 40
1.0
 10
369.4875646485291
 20
226.2285925039272
 30
0.0
 41
1.0
 10
369.487564648529
 20
206.2560018088356
 30
0.0
 41
0.7080745202010378
 10
389.4601553436206
 20
206.2560018088357
 30
0.0
 41
1.0
  0
LINE
  5
209
330
1F
100
AcDbEntity
  8
MIKY
  6
Continuous
 62
     7
100
AcDbLine
 10
374.4807123223
 20
226.2285925039
 30
0.0
 11
384.0987640435
 21
235.8466442252
 31
0.0
  0
SPLINE
  5
20A
330
1F
100
AcDbEntity
  8
MIKY
  6
Continuous
 62
     7
100
AcDbSpline
210
0.0
220
0.0
230
1.0
 70
    12
 71
     2
 72
     6
 73
     3
 74
     0
 42
0.000000000333487
 43
0.0000000001
 40
0.0
 40
0.0
 40
0.0
 40
1.0
 40
1.0
 40
1.0
 10
374.4807123223022
 20
226.2285925039272
 30
0.0
 41
1.0
 10
374.4670731879061
 20
211.2355103482121
 30
0.0
 41
0.7080745202010496
 10
389.4601553436206
 20
211.2491494826082
 30
0.0
 41
1.0
  0
LINE
  5
20B
330
1F
100
AcDbEntity
  8
MIKY
  6
Continuous
 62
     7
100
AcDbLine
 10
374.4807123223
 20
493.7730567809
 30
0.0
 11
374.4807123223
 21
226.2285925039
 31
0.0
  0
LINE
  5
20C
330
1F
100
AcDbEntity
  8
MIKY
  6
Continuous
 62
     7
100
AcDbLine
 10
389.4601553436
 20
508.7524998022
 30
0.0
 11
399.0782070649
 21
499.134448081
 31
0.0
  0
ARC
  5
20D
330
1F
100
AcDbEntity
  8
MIKY
  6
Continuous
 62
     7
100
AcDbCircle
 10
403.8094149289
 20
98.2009642862
 30
0.0
 40
410.8022207403912
100
AcDbArc
 50
90.1942284259
 51
92.0017401259
  0
SPLINE
  5
20E
330
1F
100
AcDbEntity
  8
MIKY
  6
Continuous
 62
     7
100
AcDbSpline
210
0.0
220
0.0
230
1.0
 70
    12
 71
     2
 72
     6
 73
     3
 74
     0
 42
0.000000000333487
 43
0.0000000001
 40
0.0
 40
0.0
 40
0.0
 40
1.0
 40
1.0
 40
1.0
 10
389.4601553436204
 20
508.7524998022116
 30
0.0
 41
1.0
 10
374.4670731879049
 20
508.7661389366084
 30
0.0
 41
0.7080745202010339
 10
374.4807123223018
 20
493.7730567808932
 30
0.0
 41
1.0
  0
LINE
  5
20F
330
1F
100
AcDbEntity
  8
MIKY
  6
Continuous
 62
     7
100
AcDbLine
 10
376.5294746642
 20
509.0008246424
 30
0.0
 11
402.416828659
 21
509.0008246424
 31
0.0
  0
LINE
  5
210
330
1F
100
AcDbEntity
  8
MIKY
  6
Continuous
 62
     7
100
AcDbLine
 10
374.4807123223
 20
493.7730567809
 30
0.0
 11
369.4875646485
 21
493.7730567809
 31
0.0
  0
LINE
  5
211
330
1F
100
AcDbEntity
  8
MIKY
  6
Continuous
 62
     7
100
AcDbLine
 10
374.4807123223
 20
226.2285925039
 30
0.0
 11
369.4875646485
 21
226.2285925039
 31
0.0
  0
LINE
  5
212
330
1F
100
AcDbEntity
  8
MIKY
  6
Continuous
 62
     7
100
AcDbLine
 10
389.4601553436
 20
211.2491494826
 30
0.0
 11
389.4601553436
 21
206.2560018088
 31
0.0
  0
LINE
  5
213
330
1F
100
AcDbEntity
  8
MIKY
  6
Continuous
 62
     7
100
AcDbLine
 10
746.0038468729
 20
259.5774427817
 30
0.0
 11
746.0038468729
 21
453.4242065031
 31
0.0
  0
LINE
  5
214
330
1F
100
AcDbEntity
  8
MIKY
  6
Continuous
 62
     7
100
AcDbLine
 10
750.927885638
 20
468.1963227983
 30
0.0
 11
746.0038468729
 21
453.4242065031
 31
0.0
  0
LINE
  5
215
330
1F
100
AcDbEntity
  8
MIKY
  6
Continuous
 62
     7
100
AcDbLine
 10
746.0038468729
 20
259.5774427817
 30
0.0
 11
750.927885638
 21
244.8053264865
 31
0.0
  0
LINE
  5
216
330
1F
100
AcDbEntity
  8
MIKY
  6
Continuous
 62
     7
100
AcDbLine
 10
750.927885638
 20
244.8053264865
 30
0.0
 11
736.1557693428
 21
249.7293652516
 31
0.0
  0
LINE
  5
217
330
1F
100
AcDbEntity
  8
MIKY
  6
Continuous
 62
     7
100
AcDbLine
 10
746.0038468729
 20
453.4242065031
 30
0.0
 11
741.1363894721
 21
448.5567491023
 31
0.0
  0
LINE
  5
218
330
1F
100
AcDbEntity
  8
MIKY
  6
Continuous
 62
     7
100
AcDbLine
 10
741.1363894721
 20
448.5567491023
 30
0.0
 11
741.1363894721
 21
264.4449001825
 31
0.0
  0
LINE
  5
219
330
1F
100
AcDbEntity
  8
MIKY
  6
Continuous
 62
     7
100
AcDbLine
 10
741.1363894721
 20
264.4449001825
 30
0.0
 11
746.0038468729
 21
259.5774427817
 31
0.0
  0
LINE
  5
21A
330
1F
100
AcDbEntity
  8
MIKY
  6
Continuous
 62
     7
100
AcDbLine
 10
731.288311942
 20
254.5968226524
 30
0.0
 11
666.1181518444
 21
254.5968226524
 31
0.0
  0
LINE
  5
21B
330
1F
100
AcDbEntity
  8
MIKY
  6
Continuous
 62
     7
100
AcDbLine
 10
736.1557693428
 20
249.7293652516
 30
0.0
 11
731.288311942
 21
254.5968226524
 31
0.0
  0
LINE
  5
21C
330
1F
100
AcDbEntity
  8
MIKY
  6
Continuous
 62
     7
100
AcDbLine
 10
427.1764630222
 20
448.5567491023
 30
0.0
 11
427.1764630222
 21
264.4449001825
 31
0.0
  0
LINE
  5
21D
330
1F
100
AcDbEntity
  8
MIKY
  6
Continuous
 62
     7
100
AcDbLine
 10
731.288311942
 20
448.5567491023
 30
0.0
 11
427.1764630222
 21
448.5567491023
 31
0.0
  0
LINE
  5
21E
330
1F
100
AcDbEntity
  8
MIKY
  6
Continuous
 62
     7
100
AcDbLine
 10
427.1764630222
 20
264.4449001825
 30
0.0
 11
493.649419265
 21
264.4449001825
 31
0.0
  0
LINE
  5
21F
330
1F
100
AcDbEntity
  8
MIKY
  6
Continuous
 62
     7
100
AcDbLine
 10
731.288311942
 20
264.4449001825
 30
0.0
 11
731.288311942
 21
448.5567491023
 31
0.0
  0
LINE
  5
220
330
1F
100
AcDbEntity
  8
MIKY
  6
Continuous
 62
     7
100
AcDbLine
 10
736.1557693428
 20
463.2722840332
 30
0.0
 11
422.3090056214
 21
463.2722840332
 31
0.0
  0
LINE
  5
221
330
1F
100
AcDbEntity
  8
MIKY
  6
Continuous
 62
     7
100
AcDbLine
 10
407.5368893262
 20
468.1963227983
 30
0.0
 11
422.3090056214
 21
463.2722840332
 31
0.0
  0
LINE
  5
222
330
1F
100
AcDbEntity
  8
MIKY
  6
Continuous
 62
     7
100
AcDbLine
 10
736.1557693428
 20
463.2722840332
 30
0.0
 11
750.927885638
 21
468.1963227983
 31
0.0
  0
LINE
  5
223
330
1F
100
AcDbEntity
  8
MIKY
  6
Continuous
 62
     7
100
AcDbLine
 10
422.3090056214
 20
249.7293652516
 30
0.0
 11
489.4452498543
 21
249.7293652516
 31
0.0
  0
LINE
  5
224
330
1F
100
AcDbEntity
  8
MIKY
  6
Continuous
 62
     7
100
AcDbLine
 10
422.3090056214
 20
249.7293652516
 30
0.0
 11
407.5368893262
 21
244.8053264865
 31
0.0
  0
LINE
  5
225
330
1F
100
AcDbEntity
  8
MIKY
  6
Continuous
 62
     7
100
AcDbLine
 10
412.4609280913
 20
453.4242065031
 30
0.0
 11
412.4609280913
 21
259.5774427817
 31
0.0
  0
LINE
  5
226
330
1F
100
AcDbEntity
  8
MIKY
  6
Continuous
 62
     7
100
AcDbLine
 10
412.4609280913
 20
453.4242065031
 30
0.0
 11
407.5368893262
 21
468.1963227983
 31
0.0
  0
LINE
  5
227
330
1F
100
AcDbEntity
  8
MIKY
  6
Continuous
 62
     7
100
AcDbLine
 10
407.5368893262
 20
244.8053264865
 30
0.0
 11
412.4609280913
 21
259.5774427817
 31
0.0
  0
LINE
  5
228
330
1F
100
AcDbEntity
  8
MIKY
  6
Continuous
 62
     7
100
AcDbLine
 10
427.1764630222
 20
458.4048266324
 30
0.0
 11
731.288311942
 21
458.4048266324
 31
0.0
  0
LINE
  5
229
330
1F
100
AcDbEntity
  8
MIKY
  6
Continuous
 62
     7
100
AcDbLine
 10
422.3090056214
 20
463.2722840332
 30
0.0
 11
427.1764630222
 21
458.4048266324
 31
0.0
  0
LINE
  5
22A
330
1F
100
AcDbEntity
  8
MIKY
  6
Continuous
 62
     7
100
AcDbLine
 10
731.288311942
 20
458.4048266324
 30
0.0
 11
736.1557693428
 21
463.2722840332
 31
0.0
  0
LINE
  5
22B
330
1F
100
AcDbEntity
  8
MIKY
  6
Continuous
 62
     7
100
AcDbLine
 10
427.1764630222
 20
254.5968226524
 30
0.0
 11
422.3090056214
 21
249.7293652516
 31
0.0
  0
LINE
  5
22C
330
1F
100
AcDbEntity
  8
MIKY
  6
Continuous
 62
     7
100
AcDbLine
 10
417.3283854921
 20
264.4449001825
 30
0.0
 11
417.3283854921
 21
448.5567491023
 31
0.0
  0
LINE
  5
22D
330
1F
100
AcDbEntity
  8
MIKY
  6
Continuous
 62
     7
100
AcDbLine
 10
417.3283854921
 20
448.5567491023
 30
0.0
 11
412.4609280913
 21
453.4242065031
 31
0.0
  0
LINE
  5
22E
330
1F
100
AcDbEntity
  8
MIKY
  6
Continuous
 62
     7
100
AcDbLine
 10
412.4609280913
 20
259.5774427817
 30
0.0
 11
417.3283854921
 21
264.4449001825
 31
0.0
  0
SPLINE
  5
22F
330
1F
100
AcDbEntity
  8
MIKY
  6
Continuous
 62
     7
100
AcDbSpline
210
0.0
220
0.0
230
1.0
 70
    12
 71
     2
 72
     6
 73
     3
 74
     0
 42
0.0000000005227851
 43
0.0000000001
 40
0.0
 40
0.0
 40
0.0
 40
1.0
 40
1.0
 40
1.0
 10
412.4609280912781
 20
259.577442781707
 30
0.0
 41
1.0
 10
412.7491917514148
 20
250.0176289117216
 30
0.0
 41
0.7176885430348741
 10
422.3090056214002
 20
249.7293652515849
 30
0.0
 41
1.0
  0
LINE
  5
230
330
1F
100
AcDbEntity
  8
MIKY
  6
Continuous
 62
     7
100
AcDbLine
 10
427.1764630222
 20
254.5968226524
 30
0.0
 11
427.1764630222
 21
264.4449001825
 31
0.0
  0
SPLINE
  5
231
330
1F
100
AcDbEntity
  8
MIKY
  6
Continuous
 62
     7
100
AcDbSpline
210
0.0
220
0.0
230
1.0
 70
    12
 71
     2
 72
     6
 73
     3
 74
     0
 42
0.0000000005227851
 43
0.0000000001
 40
0.0
 40
0.0
 40
0.0
 40
1.0
 40
1.0
 40
1.0
 10
417.3283854920928
 20
264.4449001825216
 30
0.0
 41
1.0
 10
417.6166491522295
 20
254.8850863125362
 30
0.0
 41
0.7176885430348664
 10
427.1764630222149
 20
254.5968226523995
 30
0.0
 41
1.0
  0
LINE
  5
232
330
1F
100
AcDbEntity
  8
MIKY
  6
Continuous
 62
     7
100
AcDbLine
 10
417.3283854921
 20
264.4449001825
 30
0.0
 11
427.1764630222
 21
264.4449001825
 31
0.0
  0
SPLINE
  5
233
330
1F
100
AcDbEntity
  8
MIKY
  6
Continuous
 62
     7
100
AcDbSpline
210
0.0
220
0.0
230
1.0
 70
    12
 71
     2
 72
     6
 73
     3
 74
     0
 42
0.0000000005227851
 43
0.0000000001
 40
0.0
 40
0.0
 40
0.0
 40
1.0
 40
1.0
 40
1.0
 10
422.3090056214001
 20
463.2722840332356
 30
0.0
 41
1.0
 10
412.7491917514149
 20
462.9840203730988
 30
0.0
 41
0.7176885430348835
 10
412.4609280912781
 20
453.4242065031136
 30
0.0
 41
1.0
  0
LINE
  5
234
330
1F
100
AcDbEntity
  8
MIKY
  6
Continuous
 62
     7
100
AcDbLine
 10
417.3283854921
 20
448.5567491023
 30
0.0
 11
427.1764630222
 21
448.5567491023
 31
0.0
  0
SPLINE
  5
235
330
1F
100
AcDbEntity
  8
MIKY
  6
Continuous
 62
     7
100
AcDbSpline
210
0.0
220
0.0
230
1.0
 70
    12
 71
     2
 72
     6
 73
     3
 74
     0
 42
0.0000000005227851
 43
0.0000000001
 40
0.0
 40
0.0
 40
0.0
 40
1.0
 40
1.0
 40
1.0
 10
427.1764630222149
 20
458.4048266324208
 30
0.0
 41
1.0
 10
417.6166491522296
 20
458.1165629722842
 30
0.0
 41
0.717688543034879
 10
417.3283854920928
 20
448.5567491022989
 30
0.0
 41
1.0
  0
LINE
  5
236
330
1F
100
AcDbEntity
  8
MIKY
  6
Continuous
 62
     7
100
AcDbLine
 10
427.1764630222
 20
458.4048266324
 30
0.0
 11
427.1764630222
 21
448.5567491023
 31
0.0
  0
SPLINE
  5
237
330
1F
100
AcDbEntity
  8
MIKY
  6
Continuous
 62
     7
100
AcDbSpline
210
0.0
220
0.0
230
1.0
 70
    12
 71
     2
 72
     6
 73
     3
 74
     0
 42
0.0000000005227851
 43
0.0000000001
 40
0.0
 40
0.0
 40
0.0
 40
1.0
 40
1.0
 40
1.0
 10
746.003846872929
 20
453.4242065031136
 30
0.0
 41
1.0
 10
745.7155832127921
 20
462.9840203730989
 30
0.0
 41
0.7176885430348638
 10
736.1557693428066
 20
463.2722840332355
 30
0.0
 41
1.0
  0
LINE
  5
238
330
1F
100
AcDbEntity
  8
MIKY
  6
Continuous
 62
     7
100
AcDbLine
 10
731.288311942
 20
458.4048266324
 30
0.0
 11
731.288311942
 21
448.5567491023
 31
0.0
  0
SPLINE
  5
239
330
1F
100
AcDbEntity
  8
MIKY
  6
Continuous
 62
     7
100
AcDbSpline
210
0.0
220
0.0
230
1.0
 70
    12
 71
     2
 72
     6
 73
     3
 74
     0
 42
0.0000000005227851
 43
0.0000000001
 40
0.0
 40
0.0
 40
0.0
 40
1.0
 40
1.0
 40
1.0
 10
741.1363894721142
 20
448.5567491022989
 30
0.0
 41
1.0
 10
740.8481258119774
 20
458.1165629722842
 30
0.0
 41
0.7176885430348608
 10
731.2883119419921
 20
458.4048266324209
 30
0.0
 41
1.0
  0
LINE
  5
23A
330
1F
100
AcDbEntity
  8
MIKY
  6
Continuous
 62
     7
100
AcDbLine
 10
741.1363894721
 20
448.5567491023
 30
0.0
 11
731.288311942
 21
448.5567491023
 31
0.0
  0
LINE
  5
23B
330
1F
100
AcDbEntity
  8
MIKY
  6
Continuous
 62
     7
100
AcDbLine
 10
731.288311942
 20
264.4449001825
 30
0.0
 11
731.288311942
 21
254.5968226524
 31
0.0
  0
LINE
  5
23C
330
1F
100
AcDbEntity
  8
MIKY
  6
Continuous
 62
     7
100
AcDbLine
 10
741.1363894721
 20
264.4449001825
 30
0.0
 11
731.288311942
 21
264.4449001825
 31
0.0
  0
SPLINE
  5
23D
330
1F
100
AcDbEntity
  8
MIKY
  6
Continuous
 62
     7
100
AcDbSpline
210
0.0
220
0.0
230
1.0
 70
    12
 71
     2
 72
     6
 73
     3
 74
     0
 42
0.0000000005227851
 43
0.0000000001
 40
0.0
 40
0.0
 40
0.0
 40
1.0
 40
1.0
 40
1.0
 10
731.2883119419921
 20
254.5968226523995
 30
0.0
 41
1.0
 10
740.8481258119775
 20
254.8850863125361
 30
0.0
 41
0.7176885430348472
 10
741.1363894721142
 20
264.4449001825216
 30
0.0
 41
1.0
  0
SPLINE
  5
23E
330
1F
100
AcDbEntity
  8
MIKY
  6
Continuous
 62
     7
100
AcDbSpline
210
0.0
220
0.0
230
1.0
 70
    12
 71
     2
 72
     6
 73
     3
 74
     0
 42
0.0000000005227851
 43
0.0000000001
 40
0.0
 40
0.0
 40
0.0
 40
1.0
 40
1.0
 40
1.0
 10
736.1557693428068
 20
249.7293652515849
 30
0.0
 41
1.0
 10
745.7155832127924
 20
250.0176289117215
 30
0.0
 41
0.7176885430348321
 10
746.0038468729289
 20
259.577442781707
 30
0.0
 41
1.0
  0
LINE
  5
23F
330
1F
100
AcDbEntity
  8
MIKY
  6
Continuous
 62
     7
100
AcDbLine
 10
494.4178593312
 20
244.8053264865
 30
0.0
 11
494.4178593312
 21
225.8603488776
 31
0.0
  0
LINE
  5
240
330
1F
100
AcDbEntity
  8
MIKY
  6
Continuous
 62
     7
100
AcDbLine
 10
489.4452498543
 20
225.8603488776
 30
0.0
 11
494.4178593312
 21
225.8603488776
 31
0.0
  0
LINE
  5
241
330
1F
100
AcDbEntity
  8
MIKY
  6
Continuous
 62
     7
100
AcDbLine
 10
494.4178593312
 20
244.8053264865
 30
0.0
 11
489.4452498543
 21
244.8053264865
 31
0.0
  0
LINE
  5
242
330
1F
100
AcDbEntity
  8
MIKY
  6
Continuous
 62
     7
100
AcDbLine
 10
489.4452498543
 20
244.8053264865
 30
0.0
 11
489.4452498543
 21
249.7293652516
 31
0.0
  0
SPLINE
  5
243
330
1F
100
AcDbEntity
  8
MIKY
  6
Continuous
 62
     7
100
AcDbSpline
210
0.0
220
0.0
230
1.0
 70
    12
 71
     2
 72
     6
 73
     3
 74
     0
 42
0.0000000005294018
 43
0.0000000001
 40
0.0
 40
0.0
 40
0.0
 40
1.0
 40
1.0
 40
1.0
 10
497.6808502311027
 20
242.7433290405875
 30
0.0
 41
1.0
 10
497.6808502311027
 20
232.1343112634052
 30
0.0
 41
0.942785177455118
 10
498.3818289020696
 20
223.8838077626816
 30
0.0
 41
1.0
  0
LINE
  5
244
330
1F
100
AcDbEntity
  8
MIKY
  6
Continuous
 62
     7
100
AcDbLine
 10
494.4178593312
 20
225.8603488776
 30
0.0
 11
498.3818289021
 21
223.8838077627
 31
0.0
  0
LINE
  5
245
330
1F
100
AcDbEntity
  8
MIKY
  6
Continuous
 62
     7
100
AcDbLine
 10
497.6808502311
 20
242.7433290406
 30
0.0
 11
497.6808502311
 21
250.7170258493
 31
0.0
  0
SPLINE
  5
246
330
1F
100
AcDbEntity
  8
MIKY
  6
Continuous
 62
     7
100
AcDbSpline
210
0.0
220
0.0
230
1.0
 70
    12
 71
     2
 72
     6
 73
     3
 74
     0
 42
0.0000000089576413
 43
0.0000000001
 40
0.0
 40
0.0
 40
0.0
 40
1.0
 40
1.0
 40
1.0
 10
497.3192325966064
 20
249.6727838873385
 30
0.0
 41
1.0
 10
497.5066662635438
 20
249.9872299464403
 30
0.0
 41
0.9927918502175762
 10
497.6808502311029
 20
250.7170258492563
 30
0.0
 41
1.0
  0
LINE
  5
247
330
1F
100
AcDbEntity
  8
MIKY
  6
Continuous
 62
     7
100
AcDbLine
 10
497.3192325966
 20
249.6727838873
 30
0.0
 11
494.4178593312
 21
244.8053264865
 31
0.0
  0
LINE
  5
248
330
1F
100
AcDbEntity
  8
MIKY
  6
Continuous
 62
     7
100
AcDbLine
 10
492.3466231198
 20
254.5968226524
 30
0.0
 11
427.1764630222
 21
254.5968226524
 31
0.0
  0
LINE
  5
249
330
1F
100
AcDbEntity
  8
MIKY
  6
Continuous
 62
     7
100
AcDbLine
 10
489.4452498543
 20
249.7293652516
 30
0.0
 11
492.3466231198
 21
254.5968226524
 31
0.0
  0
LINE
  5
24A
330
1F
100
AcDbEntity
  8
MIKY
  6
Continuous
 62
     7
100
AcDbLine
 10
489.4452498543
 20
220.8672012038
 30
0.0
 11
399.0782070649
 21
220.8672012038
 31
0.0
  0
LINE
  5
24B
330
1F
100
AcDbEntity
  8
MIKY
  6
Continuous
 62
     7
100
AcDbLine
 10
489.4452498543
 20
220.8672012038
 30
0.0
 11
489.4452498543
 21
225.8603488776
 31
0.0
  0
SPLINE
  5
24C
330
1F
100
AcDbEntity
  8
MIKY
  6
Continuous
 62
     7
100
AcDbSpline
210
0.0
220
0.0
230
1.0
 70
    12
 71
     2
 72
     6
 73
     3
 74
     0
 42
0.0000000009665972
 43
0.0000000001
 40
0.0
 40
0.0
 40
0.0
 40
1.0
 40
1.0
 40
1.0
 10
492.346623119765
 20
254.5968226523995
 30
0.0
 41
1.0
 10
493.6494192649657
 20
256.0539038707486
 30
0.0
 41
0.7660444431189807
 10
493.6494192649657
 20
264.4449001825216
 30
0.0
 41
1.0
  0
LINE
  5
24D
330
1F
100
AcDbEntity
  8
MIKY
  6
Continuous
 62
     7
100
AcDbLine
 10
502.6534597079
 20
242.7433290406
 30
0.0
 11
555.2323874821
 21
242.7433290406
 31
0.0
  0
LINE
  5
24E
330
1F
100
AcDbEntity
  8
MIKY
  6
Continuous
 62
     7
100
AcDbLine
 10
502.6534597079
 20
250.7170258493
 30
0.0
 11
502.6534597079
 21
242.7433290406
 31
0.0
  0
LINE
  5
24F
330
1F
100
AcDbEntity
  8
MIKY
  6
Continuous
 62
     7
100
AcDbLine
 10
493.4092194252
 20
218.8906600889
 30
0.0
 11
489.4452498543
 21
220.8672012038
 31
0.0
  0
SPLINE
  5
250
330
1F
100
AcDbEntity
  8
MIKY
  6
Continuous
 62
     7
100
AcDbSpline
210
0.0
220
0.0
230
1.0
 70
    12
 71
     2
 72
     6
 73
     3
 74
     0
 42
0.0000000003709211
 43
0.0000000001
 40
0.0
 40
0.0
 40
0.0
 40
1.0
 40
1.0
 40
1.0
 10
502.6534597079441
 20
242.7433290405874
 30
0.0
 41
1.0
 10
502.6534597079441
 20
219.0192148727152
 30
0.0
 41
0.7253743710122713
 10
505.6415648461801
 20
217.7775906717231
 30
0.0
 41
1.0
  0
SPLINE
  5
251
330
1F
100
AcDbEntity
  8
MIKY
  6
Continuous
 62
     7
100
AcDbSpline
210
0.0
220
0.0
230
1.0
 70
     8
 71
     3
 72
    20
 73
    16
 74
     0
 42
0.0000000005833675
 43
0.0000000001
 40
0.0
 40
0.0
 40
0.0
 40
0.0
 40
0.0624999999999992
 40
0.0624999999999992
 40
0.1249999999999986
 40
0.1249999999999986
 40
0.2499999999999986
 40
0.2499999999999986
 40
0.4999999999999986
 40
0.4999999999999986
 40
0.7499999999999986
 40
0.7499999999999986
 40
0.8749999999999993
 40
0.8749999999999993
 40
1.0
 40
1.0
 40
1.0
 40
1.0
 10
493.6494192649657
 20
264.4449001825216
 30
0.0
 10
493.9393004341687
 20
264.239870259781
 30
0.0
 10
494.2313084094287
 20
264.0305922408579
 30
0.0
 10
494.8075272794204
 20
263.6082643932247
 30
0.0
 10
495.093547180142
 20
263.3939746123168
 30
0.0
 10
495.9405285290282
 20
262.7403765528659
 30
0.0
 10
496.490873079623
 20
262.2898990728533
 30
0.0
 10
498.0796236946508
 20
260.8742869532567
 30
0.0
 10
499.0563424733447
 20
259.8454476482472
 30
0.0
 10
500.7499317880525
 20
257.5205637679553
 30
0.0
 10
501.4343941971844
 20
256.2706481228037
 30
0.0
 10
502.1563890015905
 20
254.2347835044877
 30
0.0
 10
502.3397157064317
 20
253.5460420814294
 30
0.0
 10
502.5881754468883
 20
252.1476986998906
 30
0.0
 10
502.6534597079442
 20
251.4381234318723
 30
0.0
 10
502.6534597079442
 20
250.7170258492563
 30
0.0
  0
SPLINE
  5
252
330
1F
100
AcDbEntity
  8
MIKY
  6
Continuous
 62
     7
100
AcDbSpline
210
0.0
220
0.0
230
1.0
 70
     8
 71
     3
 72
    22
 73
    18
 74
     0
 42
0.0000000008129455
 43
0.0000000001
 40
0.0
 40
0.0
 40
0.0
 40
0.0
 40
0.1250000000000019
 40
0.1250000000000019
 40
0.2500000000000037
 40
0.2500000000000037
 40
0.5000000000000047
 40
0.5000000000000047
 40
0.6250000000000042
 40
0.6250000000000042
 40
0.6875000000000046
 40
0.6875000000000046
 40
0.7500000000000048
 40
0.7500000000000048
 40
0.8750000000000024
 40
0.8750000000000024
 40
1.0
 40
1.0
 40
1.0
 40
1.0
 10
505.6415648461801
 20
217.7775906717231
 30
0.0
 10
504.9590185244863
 20
217.8186331274367
 30
0.0
 10
504.2780001445822
 20
217.8596093136755
 30
0.0
 10
502.9292569846795
 20
217.942203466793
 30
0.0
 10
502.2623448134941
 20
217.9837717465088
 30
0.0
 10
500.3057154379173
 20
218.110080197344
 30
0.0
 10
499.0594943367258
 20
218.1964017646416
 30
0.0
 10
497.3700009429505
 20
218.3324225296767
 30
0.0
 10
496.836887929248
 20
218.3788553710605
 30
0.0
 10
496.0964415092789
 20
218.4506578187792
 30
0.0
 10
495.8595241675436
 20
218.47495183629
 30
0.0
 10
495.4083583762869
 20
218.5243640485802
 30
0.0
 10
495.193779462947
 20
218.5495347740774
 30
0.0
 10
494.596161134705
 20
218.6255138271553
 30
0.0
 10
494.2564752392912
 20
218.677033270613
 30
0.0
 10
493.7182730188107
 20
218.782155678252
 30
0.0
 10
493.5193371489208
 20
218.8357524503741
 30
0.0
 10
493.4092194252283
 20
218.8906600889087
 30
0.0
  0
SPLINE
  5
253
330
1F
100
AcDbEntity
  8
MIKY
  6
Continuous
 62
     7
100
AcDbSpline
210
0.0
220
0.0
230
1.0
 70
    12
 71
     2
 72
     6
 73
     3
 74
     0
 42
0.0000000010089103
 43
0.0000000001
 40
0.0
 40
0.0
 40
0.0
 40
1.0
 40
1.0
 40
1.0
 10
489.4452498543387
 20
220.8672012038386
 30
0.0
 41
1.0
 10
494.3908041960407
 20
220.8943680838669
 30
0.0
 41
0.7090382913071951
 10
494.41785933118
 20
225.8603488776115
 30
0.0
 41
1.0
  0
SPLINE
  5
254
330
1F
100
AcDbEntity
  8
MIKY
  6
Continuous
 62
     7
100
AcDbSpline
210
0.0
220
0.0
230
1.0
 70
    12
 71
     2
 72
     6
 73
     3
 74
     0
 42
0.0000000010089103
 43
0.0000000001
 40
0.0
 40
0.0
 40
0.0
 40
1.0
 40
1.0
 40
1.0
 10
493.4092194252283
 20
218.8906600889086
 30
0.0
 41
1.0
 10
498.3547737669302
 20
218.9178269689369
 30
0.0
 41
0.7090382913072162
 10
498.3818289020696
 20
223.8838077626816
 30
0.0
 41
1.0
  0
ARC
  5
255
330
1F
100
AcDbEntity
  8
MIKY
  6
Continuous
 62
     7
100
AcDbCircle
 10
507.7019006699
 20
227.5958332454
 30
0.0
 40
10.03209205206559
100
AcDbArc
 50
201.716548166
 51
258.1485775863
  0
LINE
  5
256
330
1F
100
AcDbEntity
  8
MIKY
  6
Continuous
 62
     7
100
AcDbLine
 10
497.6808502311
 20
242.7433290406
 30
0.0
 11
502.6534597079
 21
242.7433290406
 31
0.0
  0
LINE
  5
257
330
1F
100
AcDbEntity
  8
MIKY
  6
Continuous
 62
     7
100
AcDbLine
 10
497.6808502311
 20
250.7170258493
 30
0.0
 11
502.6534597079
 21
250.7170258493
 31
0.0
  0
SPLINE
  5
258
330
1F
100
AcDbEntity
  8
MIKY
  6
Continuous
 62
     7
100
AcDbSpline
210
0.0
220
0.0
230
1.0
 70
     8
 71
     3
 72
    27
 73
    23
 74
     0
 42
0.0000000006956036
 43
0.0000000001
 40
0.0
 40
0.0
 40
0.0
 40
0.0
 40
0.1249999999999995
 40
0.1249999999999995
 40
0.2499999999999989
 40
0.2499999999999989
 40
0.3749999999999984
 40
0.3749999999999984
 40
0.4999999999999979
 40
0.4999999999999979
 40
0.6249999999999973
 40
0.6249999999999973
 40
0.7499999999999969
 40
0.7499999999999969
 40
0.8749999999999963
 40
0.8749999999999963
 40
0.9374999999999977
 40
0.9374999999999977
 40
0.9687499999999989
 40
0.9843749999999996
 40
0.9843749999999996
 40
1.0
 40
1.0
 40
1.0
 40
1.0
 10
497.6808502311028
 20
250.7170258492563
 30
0.0
 10
497.7008906946195
 20
251.3227262853162
 30
0.0
 10
497.6544609462962
 20
251.9133435556389
 30
0.0
 10
497.4773276738684
 20
253.0712226584068
 30
0.0
 10
497.3462545175698
 20
253.6387574748516
 30
0.0
 10
497.0370190179733
 20
254.7585830426033
 30
0.0
 10
496.8599519521026
 20
255.3079292864727
 30
0.0
 10
496.487491213782
 20
256.401726245249
 30
0.0
 10
496.2920435358033
 20
256.9462395834033
 30
0.0
 10
495.8966993896237
 20
258.0433166122761
 30
0.0
 10
495.6966825340629
 20
258.5958762851499
 30
0.0
 10
495.2960717599882
 20
259.7175252618949
 30
0.0
 10
495.0953702141198
 20
260.2865690387838
 30
0.0
 10
494.6909850306578
 20
261.4460918491321
 30
0.0
 10
494.4865663094854
 20
262.0385040169537
 30
0.0
 10
494.1753547359918
 20
262.9386774610565
 30
0.0
 10
494.0712761632989
 20
263.2393455743869
 30
0.0
 10
493.9140336395432
 20
263.6910911288251
 30
0.0
 10
493.8351300622239
 20
263.9171492166226
 30
0.0
 10
493.7556786395127
 20
264.1434486806135
 30
0.0
 10
493.7025748621933
 20
264.2943642994147
 30
0.0
 10
493.6755067030913
 20
264.3710976971352
 30
0.0
 10
493.6494192649657
 20
264.4449001825216
 30
0.0
  0
SPLINE
  5
259
330
1F
100
AcDbEntity
  8
MIKY
  6
Continuous
 62
     7
100
AcDbSpline
210
0.0
220
0.0
230
1.0
 70
    12
 71
     2
 72
     6
 73
     3
 74
     0
 42
0.0000000010286144
 43
0.0000000001
 40
0.0
 40
0.0
 40
0.0
 40
1.0
 40
1.0
 40
1.0
 10
497.3192325966064
 20
249.6727838873384
 30
0.0
 41
1.0
 10
497.2305829760097
 20
254.5090389303198
 30
0.0
 41
0.713495331856054
 10
492.346623119765
 20
254.5968226523995
 30
0.0
 41
1.0
  0
SPLINE
  5
25A
330
1F
100
AcDbEntity
  8
MIKY
  6
Continuous
 62
     7
100
AcDbSpline
210
0.0
220
0.0
230
1.0
 70
    12
 71
     2
 72
     6
 73
     3
 74
     0
 42
0.0000000010286144
 43
0.0000000001
 40
0.0
 40
0.0
 40
0.0
 40
1.0
 40
1.0
 40
1.0
 10
494.4178593311801
 20
244.8053264865239
 30
0.0
 41
1.0
 10
494.3292097105834
 20
249.6415815295051
 30
0.0
 41
0.7134953318560677
 10
489.4452498543387
 20
249.7293652515849
 30
0.0
 41
1.0
  0
LINE
  5
25B
330
1F
100
AcDbEntity
  8
MIKY
  6
Continuous
 62
     7
100
AcDbLine
 10
669.0195251099
 20
225.8603488776
 30
0.0
 11
669.0195251099
 21
220.8672012038
 31
0.0
  0
LINE
  5
25C
330
1F
100
AcDbEntity
  8
MIKY
  6
Continuous
 62
     7
100
AcDbLine
 10
664.046915633
 20
225.8603488776
 30
0.0
 11
664.046915633
 21
244.8053264865
 31
0.0
  0
LINE
  5
25D
330
1F
100
AcDbEntity
  8
MIKY
  6
Continuous
 62
     7
100
AcDbLine
 10
669.0195251099
 20
244.8053264865
 30
0.0
 11
664.046915633
 21
244.8053264865
 31
0.0
  0
LINE
  5
25E
330
1F
100
AcDbEntity
  8
MIKY
  6
Continuous
 62
     7
100
AcDbLine
 10
664.046915633
 20
225.8603488776
 30
0.0
 11
669.0195251099
 21
225.8603488776
 31
0.0
  0
LINE
  5
25F
330
1F
100
AcDbEntity
  8
MIKY
  6
Continuous
 62
     7
100
AcDbLine
 10
664.046915633
 20
244.8053264865
 30
0.0
 11
661.1455423676
 21
249.6727838873
 31
0.0
  0
SPLINE
  5
260
330
1F
100
AcDbEntity
  8
MIKY
  6
Continuous
 62
     7
100
AcDbSpline
210
0.0
220
0.0
230
1.0
 70
    12
 71
     2
 72
     6
 73
     3
 74
     0
 42
0.0000000089576413
 43
0.0000000001
 40
0.0
 40
0.0
 40
0.0
 40
1.0
 40
1.0
 40
1.0
 10
660.7839247331042
 20
250.7170258492563
 30
0.0
 41
1.0
 10
660.9581087006633
 20
249.98722994644
 30
0.0
 41
0.9927918502154123
 10
661.1455423676006
 20
249.6727838873385
 30
0.0
 41
1.0
  0
LINE
  5
261
330
1F
100
AcDbEntity
  8
MIKY
  6
Continuous
 62
     7
100
AcDbLine
 10
660.7839247331
 20
250.7170258493
 30
0.0
 11
660.7839247331
 21
242.7433290406
 31
0.0
  0
SPLINE
  5
262
330
1F
100
AcDbEntity
  8
MIKY
  6
Continuous
 62
     7
100
AcDbSpline
210
0.0
220
0.0
230
1.0
 70
    12
 71
     2
 72
     6
 73
     3
 74
     0
 42
0.0000000005294018
 43
0.0000000001
 40
0.0
 40
0.0
 40
0.0
 40
1.0
 40
1.0
 40
1.0
 10
660.0829460621374
 20
223.8838077626814
 30
0.0
 41
1.0
 10
660.7839247331042
 20
232.134311263404
 30
0.0
 41
0.9427851774553492
 10
660.7839247331042
 20
242.7433290405875
 30
0.0
 41
1.0
  0
LINE
  5
263
330
1F
100
AcDbEntity
  8
MIKY
  6
Continuous
 62
     7
100
AcDbLine
 10
660.0829460621
 20
223.8838077627
 30
0.0
 11
664.046915633
 21
225.8603488776
 31
0.0
  0
LINE
  5
264
330
1F
100
AcDbEntity
  8
MIKY
  6
Continuous
 62
     7
100
AcDbLine
 10
652.823210118
 20
217.7775906717
 30
0.0
 11
603.2323874821
 21
217.7775906717
 31
0.0
  0
LINE
  5
265
330
1F
100
AcDbEntity
  8
MIKY
  6
Continuous
 62
     7
100
AcDbLine
 10
669.0195251099
 20
220.8672012038
 30
0.0
 11
665.055555539
 21
218.8906600889
 31
0.0
  0
SPLINE
  5
266
330
1F
100
AcDbEntity
  8
MIKY
  6
Continuous
 62
     7
100
AcDbSpline
210
0.0
220
0.0
230
1.0
 70
    12
 71
     2
 72
     6
 73
     3
 74
     0
 42
0.0000000003709211
 43
0.0000000001
 40
0.0
 40
0.0
 40
0.0
 40
1.0
 40
1.0
 40
1.0
 10
652.8232101180267
 20
217.7775906717231
 30
0.0
 41
1.0
 10
655.8113152562628
 20
219.0192148727148
 30
0.0
 41
0.7253743710122832
 10
655.8113152562628
 20
242.7433290405875
 30
0.0
 41
1.0
  0
LINE
  5
267
330
1F
100
AcDbEntity
  8
MIKY
  6
Continuous
 62
     7
100
AcDbLine
 10
664.8153556992
 20
264.4449001825
 30
0.0
 11
731.288311942
 21
264.4449001825
 31
0.0
  0
LINE
  5
268
330
1F
100
AcDbEntity
  8
MIKY
  6
Continuous
 62
     7
100
AcDbLine
 10
655.8113152563
 20
242.7433290406
 30
0.0
 11
655.8113152563
 21
250.7170258493
 31
0.0
  0
SPLINE
  5
269
330
1F
100
AcDbEntity
  8
MIKY
  6
Continuous
 62
     7
100
AcDbSpline
210
0.0
220
0.0
230
1.0
 70
    12
 71
     2
 72
     6
 73
     3
 74
     0
 42
0.0000000009665972
 43
0.0000000001
 40
0.0
 40
0.0
 40
0.0
 40
1.0
 40
1.0
 40
1.0
 10
664.8153556992412
 20
264.4449001825216
 30
0.0
 41
1.0
 10
664.8153556992412
 20
256.0539038707487
 30
0.0
 41
0.7660444431189973
 10
666.118151844442
 20
254.5968226523995
 30
0.0
 41
1.0
  0
LINE
  5
26A
330
1F
100
AcDbEntity
  8
MIKY
  6
Continuous
 62
     7
100
AcDbLine
 10
669.0195251099
 20
249.7293652516
 30
0.0
 11
736.1557693428
 21
249.7293652516
 31
0.0
  0
LINE
  5
26B
330
1F
100
AcDbEntity
  8
MIKY
  6
Continuous
 62
     7
100
AcDbLine
 10
666.1181518444
 20
254.5968226524
 30
0.0
 11
669.0195251099
 21
249.7293652516
 31
0.0
  0
LINE
  5
26C
330
1F
100
AcDbEntity
  8
MIKY
  6
Continuous
 62
     7
100
AcDbLine
 10
669.0195251099
 20
249.7293652516
 30
0.0
 11
669.0195251099
 21
244.8053264865
 31
0.0
  0
SPLINE
  5
26D
330
1F
100
AcDbEntity
  8
MIKY
  6
Continuous
 62
     7
100
AcDbSpline
210
0.0
220
0.0
230
1.0
 70
     8
 71
     3
 72
    22
 73
    18
 74
     0
 42
0.0000000008129455
 43
0.0000000001
 40
0.0
 40
0.0
 40
0.0
 40
0.0
 40
0.1249999999999989
 40
0.1249999999999989
 40
0.2499999999999978
 40
0.2499999999999978
 40
0.3124999999999972
 40
0.3124999999999972
 40
0.3749999999999967
 40
0.3749999999999967
 40
0.4999999999999962
 40
0.4999999999999962
 40
0.749999999999999
 40
0.749999999999999
 40
0.8749999999999996
 40
0.8749999999999996
 40
1.0
 40
1.0
 40
1.0
 40
1.0
 10
665.0555555389786
 20
218.8906600889087
 30
0.0
 10
664.9454378152861
 20
218.8357524503741
 30
0.0
 10
664.7465019453962
 20
218.782155678252
 30
0.0
 10
664.2082997249157
 20
218.677033270613
 30
0.0
 10
663.868613829502
 20
218.6255138271552
 30
0.0
 10
663.27099550126
 20
218.5495347740774
 30
0.0
 10
663.0564165879201
 20
218.5243640485802
 30
0.0
 10
662.6052507966634
 20
218.4749518362901
 30
0.0
 10
662.3683334549281
 20
218.4506578187792
 30
0.0
 10
661.6278870349589
 20
218.3788553710605
 30
0.0
 10
661.0947740212564
 20
218.3324225296767
 30
0.0
 10
659.4052806274811
 20
218.1964017646416
 30
0.0
 10
658.1590595262896
 20
218.110080197344
 30
0.0
 10
656.2024301507128
 20
217.9837717465089
 30
0.0
 10
655.5355179795275
 20
217.9422034667929
 30
0.0
 10
654.1867748196247
 20
217.8596093136756
 30
0.0
 10
653.5057564394782
 20
217.8186331274478
 30
0.0
 10
652.823210118027
 20
217.7775906717231
 30
0.0
  0
SPLINE
  5
26E
330
1F
100
AcDbEntity
  8
MIKY
  6
Continuous
 62
     7
100
AcDbSpline
210
0.0
220
0.0
230
1.0
 70
     8
 71
     3
 72
    20
 73
    16
 74
     0
 42
0.0000000005833675
 43
0.0000000001
 40
0.0
 40
0.0
 40
0.0
 40
0.0
 40
0.1249999999999992
 40
0.1249999999999992
 40
0.2499999999999984
 40
0.2499999999999984
 40
0.499999999999999
 40
0.499999999999999
 40
0.7499999999999996
 40
0.7499999999999996
 40
0.8749999999999998
 40
0.8749999999999998
 40
0.9375
 40
0.9375
 40
1.0
 40
1.0
 40
1.0
 40
1.0
 10
655.8113152562628
 20
250.7170258492563
 30
0.0
 10
655.8113152562628
 20
251.4381234318722
 30
0.0
 10
655.8765995173187
 20
252.1476986998906
 30
0.0
 10
656.1250592577753
 20
253.5460420814294
 30
0.0
 10
656.3083859626164
 20
254.2347835044877
 30
0.0
 10
657.0303807670226
 20
256.2706481228037
 30
0.0
 10
657.7148431761544
 20
257.5205637679553
 30
0.0
 10
659.4084324908623
 20
259.8454476482472
 30
0.0
 10
660.3851512695562
 20
260.8742869532567
 30
0.0
 10
661.9739018845839
 20
262.2898990728534
 30
0.0
 10
662.5242464351787
 20
262.740376552866
 30
0.0
 10
663.3712277840649
 20
263.3939746123168
 30
0.0
 10
663.6572476847866
 20
263.6082643932247
 30
0.0
 10
664.2334665547783
 20
264.030592240858
 30
0.0
 10
664.5254745300402
 20
264.239870259778
 30
0.0
 10
664.8153556992412
 20
264.4449001825216
 30
0.0
  0
SPLINE
  5
26F
330
1F
100
AcDbEntity
  8
MIKY
  6
Continuous
 62
     7
100
AcDbSpline
210
0.0
220
0.0
230
1.0
 70
    12
 71
     2
 72
     6
 73
     3
 74
     0
 42
0.0000000010286144
 43
0.0000000001
 40
0.0
 40
0.0
 40
0.0
 40
1.0
 40
1.0
 40
1.0
 10
669.0195251098681
 20
249.7293652515849
 30
0.0
 41
1.0
 10
664.1355652536234
 20
249.6415815295051
 30
0.0
 41
0.7134953318560459
 10
664.0469156330267
 20
244.8053264865239
 30
0.0
 41
1.0
  0
SPLINE
  5
270
330
1F
100
AcDbEntity
  8
MIKY
  6
Continuous
 62
     7
100
AcDbSpline
210
0.0
220
0.0
230
1.0
 70
    12
 71
     2
 72
     6
 73
     3
 74
     0
 42
0.0000000010286144
 43
0.0000000001
 40
0.0
 40
0.0
 40
0.0
 40
1.0
 40
1.0
 40
1.0
 10
666.118151844442
 20
254.5968226523995
 30
0.0
 41
1.0
 10
661.2341919881969
 20
254.5090389303197
 30
0.0
 41
0.7134953318559968
 10
661.1455423676005
 20
249.6727838873383
 30
0.0
 41
1.0
  0
SPLINE
  5
271
330
1F
100
AcDbEntity
  8
MIKY
  6
Continuous
 62
     7
100
AcDbSpline
210
0.0
220
0.0
230
1.0
 70
     8
 71
     3
 72
    27
 73
    23
 74
     0
 42
0.0000000006956036
 43
0.0000000001
 40
0.0
 40
0.0
 40
0.0
 40
0.0
 40
0.1250000000000002
 40
0.1250000000000002
 40
0.2500000000000004
 40
0.2500000000000004
 40
0.3750000000000007
 40
0.3750000000000007
 40
0.5000000000000009
 40
0.5000000000000009
 40
0.6250000000000011
 40
0.6250000000000011
 40
0.7500000000000013
 40
0.7500000000000013
 40
0.8750000000000016
 40
0.8750000000000016
 40
0.9375000000000013
 40
0.9375000000000013
 40
0.9687500000000011
 40
0.9843750000000007
 40
0.9843750000000007
 40
1.0
 40
1.0
 40
1.0
 40
1.0
 10
660.7839247331041
 20
250.7170258492563
 30
0.0
 10
660.7638842695874
 20
251.3227262853162
 30
0.0
 10
660.8103140179109
 20
251.9133435556389
 30
0.0
 10
660.9874472903385
 20
253.0712226584068
 30
0.0
 10
661.1185204466373
 20
253.6387574748516
 30
0.0
 10
661.4277559462336
 20
254.7585830426032
 30
0.0
 10
661.6048230121044
 20
255.3079292864727
 30
0.0
 10
661.977283750425
 20
256.4017262452489
 30
0.0
 10
662.1727314284037
 20
256.9462395834032
 30
0.0
 10
662.5680755745833
 20
258.043316612276
 30
0.0
 10
662.7680924301441
 20
258.5958762851499
 30
0.0
 10
663.1687032042187
 20
259.717525261895
 30
0.0
 10
663.3694047500873
 20
260.2865690387839
 30
0.0
 10
663.7737899335492
 20
261.4460918491322
 30
0.0
 10
663.9782086547216
 20
262.0385040169539
 30
0.0
 10
664.289420228215
 20
262.9386774610567
 30
0.0
 10
664.3934988009082
 20
263.2393455743869
 30
0.0
 10
664.5507413246638
 20
263.6910911288252
 30
0.0
 10
664.6296449019832
 20
263.9171492166226
 30
0.0
 10
664.7090963246941
 20
264.1434486806136
 30
0.0
 10
664.7622001020133
 20
264.2943642994149
 30
0.0
 10
664.789268261116
 20
264.371097697135
 30
0.0
 10
664.8153556992412
 20
264.4449001825216
 30
0.0
  0
LINE
  5
272
330
1F
100
AcDbEntity
  8
MIKY
  6
Continuous
 62
     7
100
AcDbLine
 10
660.7839247331
 20
250.7170258493
 30
0.0
 11
655.8113152563
 21
250.7170258493
 31
0.0
  0
LINE
  5
273
330
1F
100
AcDbEntity
  8
MIKY
  6
Continuous
 62
     7
100
AcDbLine
 10
660.7839247331
 20
242.7433290406
 30
0.0
 11
655.8113152563
 21
242.7433290406
 31
0.0
  0
ARC
  5
274
330
1F
100
AcDbEntity
  8
MIKY
  6
Continuous
 62
     7
100
AcDbCircle
 10
650.7628742943
 20
227.5958332454
 30
0.0
 40
10.03209205206552
100
AcDbArc
 50
281.8514224137
 51
338.283451834
  0
SPLINE
  5
275
330
1F
100
AcDbEntity
  8
MIKY
  6
Continuous
 62
     7
100
AcDbSpline
210
0.0
220
0.0
230
1.0
 70
    12
 71
     2
 72
     6
 73
     3
 74
     0
 42
0.0000000010089103
 43
0.0000000001
 40
0.0
 40
0.0
 40
0.0
 40
1.0
 40
1.0
 40
1.0
 10
660.0829460621374
 20
223.8838077626816
 30
0.0
 41
1.0
 10
660.1100011972766
 20
218.917826968937
 30
0.0
 41
0.7090382913072427
 10
665.0555555389785
 20
218.8906600889087
 30
0.0
 41
1.0
  0
SPLINE
  5
276
330
1F
100
AcDbEntity
  8
MIKY
  6
Continuous
 62
     7
100
AcDbSpline
210
0.0
220
0.0
230
1.0
 70
    12
 71
     2
 72
     6
 73
     3
 74
     0
 42
0.0000000010089103
 43
0.0000000001
 40
0.0
 40
0.0
 40
0.0
 40
1.0
 40
1.0
 40
1.0
 10
664.0469156330269
 20
225.8603488776114
 30
0.0
 41
1.0
 10
664.0739707681662
 20
220.8943680838667
 30
0.0
 41
0.7090382913071979
 10
669.0195251098681
 20
220.8672012038384
 30
0.0
 41
1.0
  0
LINE
  5
277
330
1F
100
AcDbEntity
  8
MIKY
  6
Continuous
 62
     7
100
AcDbLine
 10
565.2323874821
 20
189.6814574812
 30
0.0
 11
593.2323874821
 21
189.6814574812
 31
0.0
  0
LINE
  5
278
330
1F
100
AcDbEntity
  8
MIKY
  6
Continuous
 62
     7
100
AcDbLine
 10
565.2323874821
 20
189.6814574812
 30
0.0
 11
565.2323874821
 21
189.6610539191
 31
0.0
  0
LINE
  5
279
330
1F
100
AcDbEntity
  8
MIKY
  6
Continuous
 62
     7
100
AcDbLine
 10
593.2323874821
 20
189.6610539191
 30
0.0
 11
593.2323874821
 21
189.6814574812
 31
0.0
  0
LINE
  5
27A
330
1F
100
AcDbEntity
  8
MIKY
  6
Continuous
 62
     7
100
AcDbLine
 10
598.2323874821
 20
205.2802019673
 30
0.0
 11
598.2323874821
 21
194.6712557001
 31
0.0
  0
LINE
  5
27B
330
1F
100
AcDbEntity
  8
MIKY
  6
Continuous
 62
     7
100
AcDbLine
 10
598.2323874821
 20
194.6712557001
 30
0.0
 11
598.2323874821
 21
194.6610539191
 31
0.0
  0
LINE
  5
27C
330
1F
100
AcDbEntity
  8
MIKY
  6
Continuous
 62
     7
100
AcDbLine
 10
565.2323874821
 20
204.1976338654
 30
0.0
 11
593.2323874821
 21
204.1976338654
 31
0.0
  0
LINE
  5
27D
330
1F
100
AcDbEntity
  8
MIKY
  6
Continuous
 62
     7
100
AcDbLine
 10
593.2323874821
 20
204.1976338654
 30
0.0
 11
593.2323874821
 21
288.8408921693
 31
0.0
  0
LINE
  5
27E
330
1F
100
AcDbEntity
  8
MIKY
  6
Continuous
 62
     7
100
AcDbLine
 10
565.2323874821
 20
200.2904037484
 30
0.0
 11
565.2323874821
 21
189.6814574812
 31
0.0
  0
LINE
  5
27F
330
1F
100
AcDbEntity
  8
MIKY
  6
Continuous
 62
     7
100
AcDbLine
 10
593.2323874821
 20
200.2904037484
 30
0.0
 11
565.2323874821
 21
200.2904037484
 31
0.0
  0
LINE
  5
280
330
1F
100
AcDbEntity
  8
MIKY
  6
Continuous
 62
     7
100
AcDbLine
 10
593.2323874821
 20
189.6814574812
 30
0.0
 11
593.2323874821
 21
200.2904037484
 31
0.0
  0
LINE
  5
281
330
1F
100
AcDbEntity
  8
MIKY
  6
Continuous
 62
     7
100
AcDbLine
 10
560.2323874821
 20
205.2802019673
 30
0.0
 11
560.2323874821
 21
292.0008246424
 31
0.0
  0
LINE
  5
282
330
1F
100
AcDbEntity
  8
MIKY
  6
Continuous
 62
     7
100
AcDbLine
 10
560.2323874821
 20
194.6712557001
 30
0.0
 11
560.2323874821
 21
205.2802019673
 31
0.0
  0
LINE
  5
283
330
1F
100
AcDbEntity
  8
MIKY
  6
Continuous
 62
     7
100
AcDbLine
 10
560.2323874821
 20
194.6610539191
 30
0.0
 11
560.2323874821
 21
194.6712557001
 31
0.0
  0
ARC
  5
284
330
1F
100
AcDbEntity
  8
MIKY
  6
Continuous
 62
     7
100
AcDbCircle
 10
565.2323874821
 20
194.6610539191
 30
0.0
 40
5.000000000000001
100
AcDbArc
 50
180.0
 51
270.0
  0
SPLINE
  5
285
330
1F
100
AcDbEntity
  8
MIKY
  6
Continuous
 62
     7
100
AcDbSpline
210
0.0
220
0.0
230
1.0
 70
    12
 71
     2
 72
     6
 73
     3
 74
     0
 42
0.0000000010010212
 43
0.0000000001
 40
0.0
 40
0.0
 40
0.0
 40
1.0
 40
1.0
 40
1.0
 10
560.2323874821036
 20
194.6712557001219
 30
0.0
 41
1.0
 10
560.2323874821104
 20
189.6814574811989
 30
0.0
 41
0.7071067811870347
 10
565.2323874821035
 20
189.6814574811989
 30
0.0
 41
1.0
  0
SPLINE
  5
286
330
1F
100
AcDbEntity
  8
MIKY
  6
Continuous
 62
     7
100
AcDbSpline
210
0.0
220
0.0
230
1.0
 70
    12
 71
     2
 72
     6
 73
     3
 74
     0
 42
0.0000000010010212
 43
0.0000000001
 40
0.0
 40
0.0
 40
0.0
 40
1.0
 40
1.0
 40
1.0
 10
560.2323874821035
 20
205.2802019673001
 30
0.0
 41
1.0
 10
560.2323874821035
 20
200.2904037483705
 30
0.0
 41
0.7071067811864877
 10
565.2323874821035
 20
200.2904037483705
 30
0.0
 41
1.0
  0
SPLINE
  5
287
330
1F
100
AcDbEntity
  8
MIKY
  6
Continuous
 62
     7
100
AcDbSpline
210
0.0
220
0.0
230
1.0
 70
    12
 71
     2
 72
     6
 73
     3
 74
     0
 42
0.0000000016440424
 43
0.0000000001
 40
0.0
 40
0.0
 40
0.0
 40
1.0
 40
1.0
 40
1.0
 10
560.2323874821035
 20
205.2802019673001
 30
0.0
 41
1.0
 10
560.2323874821035
 20
204.1976338654063
 30
0.0
 41
0.707106781186579
 10
565.2323874821035
 20
204.1976338654063
 30
0.0
 41
1.0
  0
LINE
  5
288
330
1F
100
AcDbEntity
  8
MIKY
  6
Continuous
 62
     7
100
AcDbLine
 10
565.2323874821
 20
204.1976338654
 30
0.0
 11
565.2323874821
 21
200.2904037484
 31
0.0
  0
LINE
  5
289
330
1F
100
AcDbEntity
  8
MIKY
  6
Continuous
 62
     7
100
AcDbLine
 10
593.2323874821
 20
204.1976338654
 30
0.0
 11
593.2323874821
 21
200.2904037484
 31
0.0
  0
SPLINE
  5
28A
330
1F
100
AcDbEntity
  8
MIKY
  6
Continuous
 62
     7
100
AcDbSpline
210
0.0
220
0.0
230
1.0
 70
    12
 71
     2
 72
     6
 73
     3
 74
     0
 42
0.0000000016440424
 43
0.0000000001
 40
0.0
 40
0.0
 40
0.0
 40
1.0
 40
1.0
 40
1.0
 10
593.2323874821035
 20
204.1976338654063
 30
0.0
 41
1.0
 10
598.2323874821035
 20
204.1976338654063
 30
0.0
 41
0.7071067811865783
 10
598.2323874821035
 20
205.2802019673001
 30
0.0
 41
1.0
  0
SPLINE
  5
28B
330
1F
100
AcDbEntity
  8
MIKY
  6
Continuous
 62
     7
100
AcDbSpline
210
0.0
220
0.0
230
1.0
 70
    12
 71
     2
 72
     6
 73
     3
 74
     0
 42
0.0000000010010212
 43
0.0000000001
 40
0.0
 40
0.0
 40
0.0
 40
1.0
 40
1.0
 40
1.0
 10
593.2323874821035
 20
200.2904037483704
 30
0.0
 41
1.0
 10
598.2323874821094
 20
200.2904037483704
 30
0.0
 41
0.707106781186075
 10
598.2323874821034
 20
205.280201967306
 30
0.0
 41
1.0
  0
SPLINE
  5
28C
330
1F
100
AcDbEntity
  8
MIKY
  6
Continuous
 62
     7
100
AcDbSpline
210
0.0
220
0.0
230
1.0
 70
    12
 71
     2
 72
     6
 73
     3
 74
     0
 42
0.0000000010010212
 43
0.0000000001
 40
0.0
 40
0.0
 40
0.0
 40
1.0
 40
1.0
 40
1.0
 10
593.2323874821035
 20
189.6814574811991
 30
0.0
 41
1.0
 10
598.2323874821037
 20
189.6814574811991
 30
0.0
 41
0.7071067811865613
 10
598.2323874821035
 20
194.6712557001289
 30
0.0
 41
1.0
  0
ARC
  5
28D
330
1F
100
AcDbEntity
  8
MIKY
  6
Continuous
 62
     7
100
AcDbCircle
 10
593.2323874821
 20
194.6610539191
 30
0.0
 40
5.000000000000001
100
AcDbArc
 50
270.0
 51
360.0
  0
LINE
  5
28E
330
1F
100
AcDbEntity
  8
MIKY
  6
Continuous
 62
     7
100
AcDbLine
 10
591.2803110424
 20
296.5012534716
 30
0.0
 11
593.4782490229
 21
297.5990173376
 31
0.0
  0
SPLINE
  5
28F
330
1F
100
AcDbEntity
  8
MIKY
  6
Continuous
 62
     7
100
AcDbSpline
210
0.0
220
0.0
230
1.0
 70
     8
 71
     3
 72
     8
 73
     4
 74
     0
 42
0.0000000016443614
 43
0.0000000001
 40
0.0
 40
0.0
 40
0.0
 40
0.0
 40
1.0
 40
1.0
 40
1.0
 40
1.0
 10
585.5029716323868
 20
294.6634802770077
 30
0.0
 10
587.4886112532251
 20
295.0878922544356
 30
0.0
 10
589.4129304068149
 20
295.7050751097502
 30
0.0
 10
591.2803110424271
 20
296.5012534715992
 30
0.0
  0
ARC
  5
290
330
1F
100
AcDbEntity
  8
MIKY
  6
Continuous
 62
     7
100
AcDbCircle
 10
579.2323874821
 20
324.0008246424
 30
0.0
 40
30.00000000000001
100
AcDbArc
 50
257.9351030225
 51
282.0648969775
  0
SPLINE
  5
291
330
1F
100
AcDbEntity
  8
MIKY
  6
Continuous
 62
     7
100
AcDbSpline
210
0.0
220
0.0
230
1.0
 70
     8
 71
     3
 72
     8
 73
     4
 74
     0
 42
0.0000000016443614
 43
0.0000000001
 40
0.0
 40
0.0
 40
0.0
 40
0.0
 40
1.0
 40
1.0
 40
1.0
 40
1.0
 10
567.1844639217799
 20
296.5012534715992
 30
0.0
 10
569.051844557392
 20
295.7050751097502
 30
0.0
 10
570.9761637109817
 20
295.0878922544356
 30
0.0
 10
572.9618033318201
 20
294.6634802770077
 30
0.0
  0
LINE
  5
292
330
1F
100
AcDbEntity
  8
MIKY
  6
Continuous
 62
     7
100
AcDbLine
 10
564.9865259414
 20
297.5990173376
 30
0.0
 11
567.1844639218
 21
296.5012534716
 31
0.0
  0
ARC
  5
293
330
1F
100
AcDbEntity
  8
MIKY
  6
Continuous
 62
     7
100
AcDbCircle
 10
579.2323874821
 20
324.0008246424
 30
0.0
 40
30.0
100
AcDbArc
 50
298.350368587
 51
241.649631413
  0
LINE
  5
294
330
1F
100
AcDbEntity
  8
MIKY
  6
Continuous
 62
     7
100
AcDbLine
 10
572.9618033318
 20
294.663480277
 30
0.0
 11
572.015390865
 21
290.2356267016
 31
0.0
  0
LINE
  5
295
330
1F
100
AcDbEntity
  8
MIKY
  6
Continuous
 62
     7
100
AcDbLine
 10
585.5029716324
 20
294.663480277
 30
0.0
 11
586.4493840992
 21
290.2356267016
 31
0.0
  0
LINE
  5
296
330
1F
100
AcDbEntity
  8
MIKY
  6
Continuous
 62
     7
100
AcDbLine
 10
591.2803110424
 20
296.5012534716
 30
0.0
 11
593.0117904217
 21
292.4401897467
 31
0.0
  0
LINE
  5
297
330
1F
100
AcDbEntity
  8
MIKY
  6
Continuous
 62
     7
100
AcDbLine
 10
555.2323874821
 20
206.2560018088
 30
0.0
 11
389.4601553436
 21
206.2560018088
 31
0.0
  0
LINE
  5
298
330
1F
100
AcDbEntity
  8
MIKY
  6
Continuous
 62
     7
100
AcDbLine
 10
555.2323874821
 20
204.0008246424
 30
0.0
 11
355.7323874821
 21
204.0008246424
 31
0.0
  0
LINE
  5
299
330
1F
100
AcDbEntity
  8
MIKY
  6
Continuous
 62
     7
100
AcDbLine
 10
555.2323874821
 20
204.0008246424
 30
0.0
 11
555.2323874821
 21
206.2560018088
 31
0.0
  0
LINE
  5
29A
330
1F
100
AcDbEntity
  8
MIKY
  6
Continuous
 62
     7
100
AcDbLine
 10
555.2323874821
 20
206.2560018088
 30
0.0
 11
555.2323874821
 21
211.2491494826
 31
0.0
  0
LINE
  5
29B
330
1F
100
AcDbEntity
  8
MIKY
  6
Continuous
 62
     7
100
AcDbLine
 10
555.2323874821
 20
217.7775906717
 30
0.0
 11
505.6415648462
 21
217.7775906717
 31
0.0
  0
LINE
  5
29C
330
1F
100
AcDbEntity
  8
MIKY
  6
Continuous
 62
     7
100
AcDbLine
 10
555.2323874821
 20
211.2491494826
 30
0.0
 11
555.2323874821
 21
217.7775906717
 31
0.0
  0
LINE
  5
29D
330
1F
100
AcDbEntity
  8
MIKY
  6
Continuous
 62
     7
100
AcDbLine
 10
555.2323874821
 20
217.7775906717
 30
0.0
 11
555.2323874821
 21
242.7433290406
 31
0.0
  0
ARC
  5
29E
330
1F
100
AcDbEntity
  8
MIKY
  6
Continuous
 62
     7
100
AcDbCircle
 10
579.2323874821
 20
324.0008246424
 30
0.0
 40
45.0
100
AcDbArc
 50
302.2309526355
 51
237.7690473645
  0
LINE
  5
29F
330
1F
100
AcDbEntity
  8
MIKY
  6
Continuous
 62
     7
100
AcDbLine
 10
603.2323874821
 20
242.7433290406
 30
0.0
 11
655.8113152563
 21
242.7433290406
 31
0.0
  0
LINE
  5
2A0
330
1F
100
AcDbEntity
  8
MIKY
  6
Continuous
 62
     7
100
AcDbLine
 10
603.2323874821
 20
285.9350920211
 30
0.0
 11
603.2323874821
 21
242.7433290406
 31
0.0
  0
LINE
  5
2A1
330
1F
100
AcDbEntity
  8
MIKY
  6
Continuous
 62
     7
100
AcDbLine
 10
555.2323874821
 20
242.7433290406
 30
0.0
 11
555.2323874821
 21
285.9350920211
 31
0.0
  0
ARC
  5
2A2
330
1F
100
AcDbEntity
  8
MIKY
  6
Continuous
 62
     7
100
AcDbCircle
 10
456.0189999956
 20
247.5394093226
 30
0.0
 40
152.1381277166564
100
AcDbArc
 50
14.6180280736
 51
18.5743894724
  0
ARC
  5
2A3
330
1F
100
AcDbEntity
  8
MIKY
  6
Continuous
 62
     7
100
AcDbCircle
 10
702.4486436294
 20
247.5385543443
 30
0.0
 40
152.1411192925233
100
AcDbArc
 50
161.4256494404
 51
165.3819330137
  0
ARC
  5
2A4
330
1F
100
AcDbEntity
  8
MIKY
  6
Continuous
 62
     7
100
AcDbCircle
 10
579.2323874821
 20
324.0008246424
 30
0.0
 40
35.0
100
AcDbArc
 50
304.7954185792
 51
235.2045814208
  0
ARC
  5
2A5
330
1F
100
AcDbEntity
  8
MIKY
  6
Continuous
 62
     7
100
AcDbCircle
 10
579.2323874822
 20
324.0008246423
 30
0.0
 40
34.99999999991748
100
AcDbArc
 50
306.5392245433
 51
306.8698976458
  0
ARC
  5
2A6
330
1F
100
AcDbEntity
  8
MIKY
  6
Continuous
 62
     7
100
AcDbCircle
 10
579.2323874821
 20
324.0008246424
 30
0.0
 40
34.99999999999725
100
AcDbArc
 50
233.1301023542
 51
233.7162459185
  0
LINE
  5
2A7
330
1F
100
AcDbEntity
  8
MIKY
  6
Continuous
 62
     7
100
AcDbLine
 10
562.8004525303
 20
293.5475748335
 30
0.0
 11
564.9865259414
 21
297.5990173376
 31
0.0
  0
LINE
  5
2A8
330
1F
100
AcDbEntity
  8
MIKY
  6
Continuous
 62
     7
100
AcDbLine
 10
595.6643224339
 20
293.5475748335
 30
0.0
 11
593.4782490229
 21
297.5990173376
 31
0.0
  0
ARC
  5
2A9
330
1F
100
AcDbEntity
  8
MIKY
  6
Continuous
 62
     7
100
AcDbCircle
 10
589.5172081318
 20
310.7836061526
 30
0.0
 40
18.29939315593376
100
AcDbArc
 50
289.6284330483
 51
301.9655048344
  0
ARC
  5
2AA
330
1F
100
AcDbEntity
  8
MIKY
  6
Continuous
 62
     7
100
AcDbCircle
 10
570.0888288649
 20
313.1447388176
 30
0.0
 40
20.9085931093131
100
AcDbArc
 50
238.8067206094
 51
249.5993415079
  0
LINE
  5
2AB
330
1F
100
AcDbEntity
  8
MIKY
  6
Continuous
 62
     7
100
AcDbLine
 10
565.2323874821
 20
288.8408921693
 30
0.0
 11
565.2323874821
 21
204.1976338654
 31
0.0
  0
LINE
  5
2AC
330
1F
100
AcDbEntity
  8
MIKY
  6
Continuous
 62
     7
100
AcDbLine
 10
565.2323874821
 20
288.8408921693
 30
0.0
 11
564.4769463226
 21
289.4492665461
 31
0.0
  0
ARC
  5
2AD
330
1F
100
AcDbEntity
  8
MIKY
  6
Continuous
 62
     7
100
AcDbCircle
 10
556.3451469545
 20
278.6067239624
 30
0.0
 40
13.55311368817524
100
AcDbArc
 50
53.1304661547
 51
60.9634692449
  0
SPLINE
  5
2AE
330
1F
100
AcDbEntity
  8
MIKY
  6
Continuous
 62
     7
100
AcDbSpline
210
0.0
220
0.0
230
1.0
 70
     8
 71
     3
 72
    12
 73
     8
 74
     0
 42
0.0000000041051095
 43
0.0000000001
 40
0.0
 40
0.0
 40
0.0
 40
0.0
 40
0.5
 40
0.5
 40
0.75
 40
0.75
 40
1.0
 40
1.0
 40
1.0
 40
1.0
 10
562.9233833006814
 20
290.4563525311708
 30
0.0
 10
562.4885464910942
 20
290.6826407325599
 30
0.0
 10
562.0827702018287
 20
290.8643278993399
 30
0.0
 10
561.5416420498987
 20
291.1455340456359
 30
0.0
 10
561.3737641566347
 20
291.2404274676584
 30
0.0
 10
561.0723953110254
 20
291.4402423173707
 30
0.0
 10
560.9376526856522
 20
291.5457363707463
 30
0.0
 10
560.8194293611296
 20
291.6619900258193
 30
0.0
  0
SPLINE
  5
2AF
330
1F
100
AcDbEntity
  8
MIKY
  6
Continuous
 62
     7
100
AcDbSpline
210
0.0
220
0.0
230
1.0
 70
     8
 71
     3
 72
    14
 73
    10
 74
     0
 42
0.0000000124738725
 43
0.0000000001
 40
0.0
 40
0.0
 40
0.0
 40
0.0
 40
0.25
 40
0.25
 40
0.5
 40
0.5
 40
0.75
 40
0.75
 40
1.0
 40
1.0
 40
1.0
 40
1.0
 10
560.8194293611296
 20
291.6619900258193
 30
0.0
 10
560.7241417625212
 20
291.7556900775316
 30
0.0
 10
560.6392115383215
 20
291.8360026022307
 30
0.0
 10
560.491069142947
 20
291.9653392301685
 30
0.0
 10
560.4273404393992
 20
292.0145435035536
 30
0.0
 10
560.327942159878
 20
292.0735232580684
 30
0.0
 10
560.2915907743009
 20
292.0840881304873
 30
0.0
 10
560.243628678037
 20
292.0686777745401
 30
0.0
 10
560.2323874821035
 20
292.0424889665852
 30
0.0
 10
560.2323874821035
 20
292.0008246424102
 30
0.0
  0
LINE
  5
2B0
330
1F
100
AcDbEntity
  8
MIKY
  6
Continuous
 62
     7
100
AcDbLine
 10
565.4529845425
 20
292.4401897467
 30
0.0
 11
567.1844639218
 21
296.5012534716
 31
0.0
  0
ARC
  5
2B1
330
1F
100
AcDbEntity
  8
MIKY
  6
Continuous
 62
     7
100
AcDbCircle
 10
605.2940357477
 20
391.6024224015
 30
0.0
 40
106.8665417528758
100
AcDbArc
 50
246.5697579347
 51
248.1108995635
  0
ARC
  5
2B2
330
1F
100
AcDbEntity
  8
MIKY
  6
Continuous
 62
     7
100
AcDbCircle
 10
579.2533850227
 20
320.9623283223
 30
0.0
 40
35.03140263094643
100
AcDbArc
 50
283.4402836577
 51
293.5183055824
  0
ARC
  5
2B3
330
1F
100
AcDbEntity
  8
MIKY
  6
Continuous
 62
     7
100
AcDbCircle
 10
579.2323874821
 20
321.1314649877
 30
0.0
 40
35.20079266432159
100
AcDbArc
 50
256.5904637291
 51
283.4095362709
  0
ARC
  5
2B4
330
1F
100
AcDbEntity
  8
MIKY
  6
Continuous
 62
     7
100
AcDbCircle
 10
579.2113899415
 20
320.9623283223
 30
0.0
 40
35.03140263094896
100
AcDbArc
 50
246.4816944176
 51
256.5597163423
  0
ARC
  5
2B5
330
1F
100
AcDbEntity
  8
MIKY
  6
Continuous
 62
     7
100
AcDbCircle
 10
579.3619113368
 20
322.4204824723
 30
0.0
 40
33.01266884130545
100
AcDbArc
 50
247.6420064335
 51
257.1419482252
  0
LINE
  5
2B6
330
1F
100
AcDbEntity
  8
MIKY
  6
Continuous
 62
     7
100
AcDbLine
 10
565.4529845425
 20
292.4401897467
 30
0.0
 11
566.8041416014
 21
291.8895354955
 31
0.0
  0
ARC
  5
2B7
330
1F
100
AcDbEntity
  8
MIKY
  6
Continuous
 62
     7
100
AcDbCircle
 10
579.2323874821
 20
321.9381271751
 30
0.0
 40
32.51359064211727
100
AcDbArc
 50
257.1753145356
 51
282.8246854644
  0
LINE
  5
2B8
330
1F
100
AcDbEntity
  8
MIKY
  6
Continuous
 62
     7
100
AcDbLine
 10
591.6606333628
 20
291.8895354955
 30
0.0
 11
593.0117904217
 21
292.4401897467
 31
0.0
  0
ARC
  5
2B9
330
1F
100
AcDbEntity
  8
MIKY
  6
Continuous
 62
     7
100
AcDbCircle
 10
579.1028636274
 20
322.4204824725
 30
0.0
 40
33.01266884154044
100
AcDbArc
 50
282.8580517748
 51
292.3579935664
  0
LINE
  5
2BA
330
1F
100
AcDbEntity
  8
MIKY
  6
Continuous
 62
     7
100
AcDbLine
 10
598.2323874821
 20
292.0008246424
 30
0.0
 11
598.2323874821
 21
205.2802019673
 31
0.0
  0
LINE
  5
2BB
330
1F
100
AcDbEntity
  8
MIKY
  6
Continuous
 62
     7
100
AcDbLine
 10
603.2323874821
 20
206.2560018088
 30
0.0
 11
603.2323874821
 21
204.0008246424
 31
0.0
  0
ARC
  5
2BC
330
1F
100
AcDbEntity
  8
MIKY
  6
Continuous
 62
     7
100
AcDbCircle
 10
553.170739213
 20
391.6024224098
 30
0.0
 40
106.8665417619141
100
AcDbArc
 50
291.8891004366
 51
293.4302420653
  0
SPLINE
  5
2BD
330
1F
100
AcDbEntity
  8
MIKY
  6
Continuous
 62
     7
100
AcDbSpline
210
0.0
220
0.0
230
1.0
 70
     8
 71
     3
 72
    14
 73
    10
 74
     0
 42
0.0000000124753251
 43
0.0000000001
 40
0.0
 40
0.0
 40
0.0
 40
0.0
 40
0.25
 40
0.25
 40
0.5
 40
0.5
 40
0.75
 40
0.75
 40
1.0
 40
1.0
 40
1.0
 40
1.0
 10
598.2323874821035
 20
292.0008246424102
 30
0.0
 10
598.2323874821035
 20
292.0424532257293
 30
0.0
 10
598.2213623670505
 20
292.0682610743662
 30
0.0
 10
598.1740786449367
 20
292.0841399825366
 30
0.0
 10
598.1370204311362
 20
292.0736008820505
 30
0.0
 10
598.0377025134413
 20
292.0147360729617
 30
0.0
 10
597.9757114225869
 20
291.9669915065392
 30
0.0
 10
597.8270348502806
 20
291.837383685879
 30
0.0
 10
597.7407091989779
 20
291.7557648086646
 30
0.0
 10
597.6453456030773
 20
291.6619900258193
 30
0.0
  0
SPLINE
  5
2BE
330
1F
100
AcDbEntity
  8
MIKY
  6
Continuous
 62
     7
100
AcDbSpline
210
0.0
220
0.0
230
1.0
 70
     8
 71
     3
 72
    10
 73
     6
 74
     0
 42
0.0000000040995327
 43
0.0000000001
 40
0.0
 40
0.0
 40
0.0
 40
0.0
 40
0.5
 40
0.5
 40
1.0
 40
1.0
 40
1.0
 40
1.0
 10
597.6453456030773
 20
291.6619900258193
 30
0.0
 10
597.408932909122
 20
291.4295161050514
 30
0.0
 10
597.1071600994908
 20
291.2412872586015
 30
0.0
 10
596.382693381309
 20
290.8645660115076
 30
0.0
 10
595.9759289191167
 20
290.6824848452627
 30
0.0
 10
595.5413916635251
 20
290.4563525311707
 30
0.0
  0
ARC
  5
2BF
330
1F
100
AcDbEntity
  8
MIKY
  6
Continuous
 62
     7
100
AcDbCircle
 10
602.1196280097
 20
278.6067239624
 30
0.0
 40
13.55311368818374
100
AcDbArc
 50
119.0365307551
 51
126.8695338453
  0
LINE
  5
2C0
330
1F
100
AcDbEntity
  8
MIKY
  6
Continuous
 62
     7
100
AcDbLine
 10
593.9878286416
 20
289.4492665461
 30
0.0
 11
593.2323874821
 21
288.8408921693
 31
0.0
  0
LINE
  5
2C1
330
1F
100
AcDbEntity
  8
MIKY
  6
Continuous
 62
     7
100
AcDbLine
 10
603.2323874821
 20
211.2491494826
 30
0.0
 11
769.0046196206
 21
211.2491494826
 31
0.0
  0
LINE
  5
2C2
330
1F
100
AcDbEntity
  8
MIKY
  6
Continuous
 62
     7
100
AcDbLine
 10
603.2323874821
 20
211.2491494826
 30
0.0
 11
603.2323874821
 21
206.2560018088
 31
0.0
  0
LINE
  5
2C3
330
1F
100
AcDbEntity
  8
MIKY
  6
Continuous
 62
     7
100
AcDbLine
 10
603.2323874821
 20
217.7775906717
 30
0.0
 11
603.2323874821
 21
211.2491494826
 31
0.0
  0
LINE
  5
2C4
330
1F
100
AcDbEntity
  8
MIKY
  6
Continuous
 62
     7
100
AcDbLine
 10
603.2323874821
 20
242.7433290406
 30
0.0
 11
603.2323874821
 21
217.7775906717
 31
0.0
  0
LINE
  5
2C5
330
1F
100
AcDbEntity
  8
MIKY
  6
Continuous
 62
     7
100
AcDbLine
 10
560.2323874821
 20
204.0008246424
 30
0.0
 11
555.2323874821
 21
204.0008246424
 31
0.0
  0
LINE
  5
2C6
330
1F
100
AcDbEntity
  8
MIKY
  6
Continuous
 62
     7
100
AcDbLine
 10
603.2323874821
 20
204.0008246424
 30
0.0
 11
598.2323874821
 21
204.0008246424
 31
0.0
  0
LINE
  5
2C7
330
1F
100
AcDbEntity
  8
MIKY
  6
Continuous
 62
     7
100
AcDbLine
 10
598.2323874821
 20
206.2560018088
 30
0.0
 11
603.2323874821
 21
206.2560018088
 31
0.0
  0
SPLINE
  5
2C8
330
1F
100
AcDbEntity
  8
MIKY
  6
Continuous
 62
     7
100
AcDbSpline
210
0.0
220
0.0
230
1.0
 70
    12
 71
     2
 72
     6
 73
     3
 74
     0
 42
0.0000000010006857
 43
0.0000000001
 40
0.0
 40
0.0
 40
0.0
 40
1.0
 40
1.0
 40
1.0
 10
603.2323874821035
 20
211.2491494826088
 30
0.0
 41
1.0
 10
598.2323874821037
 20
211.2491494826088
 30
0.0
 41
0.7071067811865177
 10
598.2323874821037
 20
206.2560018088357
 30
0.0
 41
1.0
  0
SPLINE
  5
2C9
330
1F
100
AcDbEntity
  8
MIKY
  6
Continuous
 62
     7
100
AcDbSpline
210
0.0
220
0.0
230
1.0
 70
    12
 71
     2
 72
     6
 73
     3
 74
     0
 42
0.0000000010006857
 43
0.0000000001
 40
0.0
 40
0.0
 40
0.0
 40
1.0
 40
1.0
 40
1.0
 10
603.2323874821035
 20
217.7775906717228
 30
0.0
 41
1.0
 10
598.2323874821041
 20
217.7775906717228
 30
0.0
 41
0.7071067811866188
 10
598.2323874821033
 20
212.784442997951
 30
0.0
 41
1.0
  0
LINE
  5
2CA
330
1F
100
AcDbEntity
  8
MIKY
  6
Continuous
 62
     7
100
AcDbLine
 10
598.2323874821
 20
242.7433290406
 30
0.0
 11
603.2323874821
 21
242.7433290406
 31
0.0
  0
LINE
  5
2CB
330
1F
100
AcDbEntity
  8
MIKY
  6
Continuous
 62
     7
100
AcDbLine
 10
598.2323874821
 20
285.9350920211
 30
0.0
 11
603.2323874821
 21
285.9350920211
 31
0.0
  0
ARC
  5
2CC
330
1F
100
AcDbEntity
  8
MIKY
  6
Continuous
 62
     7
100
AcDbCircle
 10
603.2323874821
 20
292.0008246424
 30
0.0
 40
5.000000000000004
100
AcDbArc
 50
126.8698976458
 51
180.0
  0
SPLINE
  5
2CD
330
1F
100
AcDbEntity
  8
MIKY
  6
Continuous
 62
     7
100
AcDbSpline
210
0.0
220
0.0
230
1.0
 70
    12
 71
     2
 72
     6
 73
     3
 74
     0
 42
0.0000000022200575
 43
0.0000000001
 40
0.0
 40
0.0
 40
0.0
 40
1.0
 40
1.0
 40
1.0
 10
599.2050641938076
 20
295.2590051980927
 30
0.0
 41
1.0
 10
597.4804214922004
 20
294.0605518020182
 30
0.0
 41
0.890853514579885
 10
597.6453456030772
 20
291.6619900258194
 30
0.0
 41
1.0
  0
SPLINE
  5
2CE
330
1F
100
AcDbEntity
  8
MIKY
  6
Continuous
 62
     7
100
AcDbSpline
210
0.0
220
0.0
230
1.0
 70
    12
 71
     2
 72
     6
 73
     3
 74
     0
 42
0.0000000031103692
 43
0.0000000001
 40
0.0
 40
0.0
 40
0.0
 40
1.0
 40
1.0
 40
1.0
 10
595.6643224338998
 20
293.5475748335436
 30
0.0
 41
1.0
 10
595.1991061164515
 20
292.4521146414838
 30
0.0
 41
0.920714544847
 10
595.5413916635252
 20
290.4563525311707
 30
0.0
 41
1.0
  0
SPLINE
  5
2CF
330
1F
100
AcDbEntity
  8
MIKY
  6
Continuous
 62
     7
100
AcDbSpline
210
0.0
220
0.0
230
1.0
 70
    12
 71
     2
 72
     6
 73
     3
 74
     0
 42
0.0000000031745334
 43
0.0000000001
 40
0.0
 40
0.0
 40
0.0
 40
1.0
 40
1.0
 40
1.0
 10
593.0117904217346
 20
292.440189746667
 30
0.0
 41
1.0
 10
593.2622698977664
 20
291.4348380473016
 30
0.0
 41
0.916301593065823
 10
593.9878286415728
 20
289.4492665461489
 30
0.0
 41
1.0
  0
SPLINE
  5
2D0
330
1F
100
AcDbEntity
  8
MIKY
  6
Continuous
 62
     7
100
AcDbSpline
210
0.0
220
0.0
230
1.0
 70
    12
 71
     2
 72
     6
 73
     3
 74
     0
 42
0.0000000029086076
 43
0.0000000001
 40
0.0
 40
0.0
 40
0.0
 40
1.0
 40
1.0
 40
1.0
 10
593.2323874821035
 20
288.8408921692595
 30
0.0
 41
1.0
 10
592.2712182678001
 20
290.9466881461086
 30
0.0
 41
0.9042268102899665
 10
591.6606333628429
 20
291.8895354955399
 30
0.0
 41
1.0
  0
SPLINE
  5
2D1
330
1F
100
AcDbEntity
  8
MIKY
  6
Continuous
 62
     7
100
AcDbSpline
210
0.0
220
0.0
230
1.0
 70
    12
 71
     2
 72
     6
 73
     3
 74
     0
 42
0.0000000028734493
 43
0.0000000001
 40
0.0
 40
0.0
 40
0.0
 40
1.0
 40
1.0
 40
1.0
 10
587.3957965659703
 20
286.8903412280051
 30
0.0
 41
1.0
 10
586.8064493129111
 20
289.2392070861349
 30
0.0
 41
0.8960651698855664
 10
586.4493840991786
 20
290.2356267015595
 30
0.0
 41
1.0
  0
SPLINE
  5
2D2
330
1F
100
AcDbEntity
  8
MIKY
  6
Continuous
 62
     7
100
AcDbSpline
210
0.0
220
0.0
230
1.0
 70
    12
 71
     2
 72
     6
 73
     3
 74
     0
 42
0.0000000028734493
 43
0.0000000001
 40
0.0
 40
0.0
 40
0.0
 40
1.0
 40
1.0
 40
1.0
 10
572.0153908650284
 20
290.2356267015595
 30
0.0
 41
1.0
 10
571.6583256512959
 20
289.2392070861348
 30
0.0
 41
0.8960651698798268
 10
571.0689783982367
 20
286.8903412280051
 30
0.0
 41
1.0
  0
SPLINE
  5
2D3
330
1F
100
AcDbEntity
  8
MIKY
  6
Continuous
 62
     7
100
AcDbSpline
210
0.0
220
0.0
230
1.0
 70
    12
 71
     2
 72
     6
 73
     3
 74
     0
 42
0.0000000029086076
 43
0.0000000001
 40
0.0
 40
0.0
 40
0.0
 40
1.0
 40
1.0
 40
1.0
 10
566.804141601364
 20
291.8895354955399
 30
0.0
 41
1.0
 10
566.1935566964069
 20
290.9466881461087
 30
0.0
 41
0.9042268102909987
 10
565.2323874821035
 20
288.8408921692595
 30
0.0
 41
1.0
  0
SPLINE
  5
2D4
330
1F
100
AcDbEntity
  8
MIKY
  6
Continuous
 62
     7
100
AcDbSpline
210
0.0
220
0.0
230
1.0
 70
    12
 71
     2
 72
     6
 73
     3
 74
     0
 42
0.0000000031745334
 43
0.0000000001
 40
0.0
 40
0.0
 40
0.0
 40
1.0
 40
1.0
 40
1.0
 10
564.476946322634
 20
289.449266546149
 30
0.0
 41
1.0
 10
565.2025050664415
 20
291.4348380473044
 30
0.0
 41
0.9163015930645252
 10
565.4529845424728
 20
292.4401897466685
 30
0.0
 41
1.0
  0
SPLINE
  5
2D5
330
1F
100
AcDbEntity
  8
MIKY
  6
Continuous
 62
     7
100
AcDbSpline
210
0.0
220
0.0
230
1.0
 70
    12
 71
     2
 72
     6
 73
     3
 74
     0
 42
0.0000000031103692
 43
0.0000000001
 40
0.0
 40
0.0
 40
0.0
 40
1.0
 40
1.0
 40
1.0
 10
562.9233833006814
 20
290.4563525311708
 30
0.0
 41
1.0
 10
563.2656688477553
 20
292.4521146414837
 30
0.0
 41
0.9207145448455284
 10
562.8004525303069
 20
293.5475748335436
 30
0.0
 41
1.0
  0
SPLINE
  5
2D6
330
1F
100
AcDbEntity
  8
MIKY
  6
Continuous
 62
     7
100
AcDbSpline
210
0.0
220
0.0
230
1.0
 70
    12
 71
     2
 72
     6
 73
     3
 74
     0
 42
0.0000000022200575
 43
0.0000000001
 40
0.0
 40
0.0
 40
0.0
 40
1.0
 40
1.0
 40
1.0
 10
560.8194293611296
 20
291.6619900258193
 30
0.0
 41
1.0
 10
560.9843534720063
 20
294.0605518020183
 30
0.0
 41
0.8908535145802225
 10
559.2597107703991
 20
295.2590051980927
 30
0.0
 41
1.0
  0
ARC
  5
2D7
330
1F
100
AcDbEntity
  8
MIKY
  6
Continuous
 62
     7
100
AcDbCircle
 10
555.2323874821
 20
292.0008246424
 30
0.0
 40
5.000000000000001
100
AcDbArc
 50
0.0
 51
53.1301023542
  0
LINE
  5
2D8
330
1F
100
AcDbEntity
  8
MIKY
  6
Continuous
 62
     7
100
AcDbLine
 10
560.2323874821
 20
285.9350920211
 30
0.0
 11
555.2323874821
 21
285.9350920211
 31
0.0
  0
LINE
  5
2D9
330
1F
100
AcDbEntity
  8
MIKY
  6
Continuous
 62
     7
100
AcDbLine
 10
560.2323874821
 20
242.7433290406
 30
0.0
 11
555.2323874821
 21
242.7433290406
 31
0.0
  0
SPLINE
  5
2DA
330
1F
100
AcDbEntity
  8
MIKY
  6
Continuous
 62
     7
100
AcDbSpline
210
0.0
220
0.0
230
1.0
 70
    12
 71
     2
 72
     6
 73
     3
 74
     0
 42
0.0000000010006857
 43
0.0000000001
 40
0.0
 40
0.0
 40
0.0
 40
1.0
 40
1.0
 40
1.0
 10
560.2323874821034
 20
212.7844429979534
 30
0.0
 41
1.0
 10
560.2323874821001
 20
217.7775906717231
 30
0.0
 41
0.7071067811868058
 10
555.2323874821035
 20
217.7775906717231
 30
0.0
 41
1.0
  0
SPLINE
  5
2DB
330
1F
100
AcDbEntity
  8
MIKY
  6
Continuous
 62
     7
100
AcDbSpline
210
0.0
220
0.0
230
1.0
 70
    12
 71
     2
 72
     6
 73
     3
 74
     0
 42
0.0000000010006857
 43
0.0000000001
 40
0.0
 40
0.0
 40
0.0
 40
1.0
 40
1.0
 40
1.0
 10
560.2323874821036
 20
206.2560018088357
 30
0.0
 41
1.0
 10
560.2323874821036
 20
211.2491494826085
 30
0.0
 41
0.707106781186589
 10
555.2323874821035
 20
211.2491494826085
 30
0.0
 41
1.0
  0
LINE
  5
2DC
330
1F
100
AcDbEntity
  8
MIKY
  6
Continuous
 62
     7
100
AcDbLine
 10
560.2323874821
 20
206.2560018088
 30
0.0
 11
555.2323874821
 21
206.2560018088
 31
0.0
  0
LINE
  5
2DD
330
1F
100
AcDbEntity
  8
MIKY
  6
Continuous
 62
     7
100
AcDbLine
 10
355.7323874821
 20
509.0008246424
 30
0.0
 11
376.5294746642
 21
509.0008246424
 31
0.0
  0
ARC
  5
2DE
330
1F
100
AcDbEntity
  8
MIKY
  6
Continuous
 62
     7
100
AcDbCircle
 10
355.7323874821
 20
499.0008246424
 30
0.0
 40
10.00000000000001
100
AcDbArc
 50
90.0
 51
180.0
  0
LINE
  5
2DF
330
1F
100
AcDbEntity
  8
MIKY
  6
Continuous
 62
     7
100
AcDbLine
 10
812.7323874821
 20
499.0008246424
 30
0.0
 11
812.7323874821
 21
214.0008246424
 31
0.0
  0
ARC
  5
2E0
330
1F
100
AcDbEntity
  8
MIKY
  6
Continuous
 62
     7
100
AcDbCircle
 10
802.7323874821
 20
499.0008246424
 30
0.0
 40
10.00000000000001
100
AcDbArc
 50
0.0
 51
90.0
  0
LINE
  5
2E1
330
1F
100
AcDbEntity
  8
MIKY
  6
Continuous
 62
     7
100
AcDbLine
 10
802.7323874821
 20
204.0008246424
 30
0.0
 11
603.2323874821
 21
204.0008246424
 31
0.0
  0
ARC
  5
2E2
330
1F
100
AcDbEntity
  8
MIKY
  6
Continuous
 62
     7
100
AcDbCircle
 10
802.7323874821
 20
214.0008246424
 30
0.0
 40
10.00000000000001
100
AcDbArc
 50
270.0
 51
360.0
  0
LINE
  5
2E3
330
1F
100
AcDbEntity
  8
MIKY
  6
Continuous
 62
     7
100
AcDbLine
 10
345.7323874821
 20
214.0008246424
 30
0.0
 11
345.7323874821
 21
499.0008246424
 31
0.0
  0
ARC
  5
2E4
330
1F
100
AcDbEntity
  8
MIKY
  6
Continuous
 62
     7
100
AcDbCircle
 10
355.7323874821
 20
214.0008246424
 30
0.0
 40
10.00000000000004
100
AcDbArc
 50
180.0
 51
270.0
  0
CIRCLE
  5
2E5
330
1F
100
AcDbEntity
  8
MIKY
  6
Continuous
 62
     7
100
AcDbCircle
 10
759.3660109207
 20
235.8672012038
 30
0.0
 40
5.0
  0
CIRCLE
  5
2E6
330
1F
100
AcDbEntity
  8
MIKY
  6
Continuous
 62
     7
100
AcDbCircle
 10
399.0987640435
 20
235.8672012038
 30
0.0
 40
5.0
  0
CIRCLE
  5
2E7
330
1F
100
AcDbEntity
  8
MIKY
  6
Continuous
 62
     7
100
AcDbCircle
 10
759.3660109207
 20
484.134448081
 30
0.0
 40
3.0
  0
CIRCLE
  5
2E8
330
1F
100
AcDbEntity
  8
MIKY
  6
Continuous
 62
     7
100
AcDbCircle
 10
399.0987640435
 20
484.134448081
 30
0.0
 40
3.0
  0
LINE
  5
2E9
330
1F
100
AcDbEntity
  8
MIKY
  6
Continuous
 62
     7
100
AcDbLine
 10
565.2323874821
 20
189.6610539191
 30
0.0
 11
593.2323874821
 21
189.6610539191
 31
0.0
  0
LINE
  5
2EA
330
1F
100
AcDbEntity
  8
MIKY
  6
Continuous
 62
     7
100
AcDbLine
 10
1509.6637322388
 20
753.866061546
 30
0.0
 11
1514.6134797071
 21
751.0083235128
 31
0.0
  0
LINE
  5
2EB
330
1F
100
AcDbEntity
  8
MIKY
  6
Continuous
 62
     7
100
AcDbLine
 10
1384.8565283348
 20
644.8835044457
 30
0.0
 11
1685.3826243883
 21
818.3923269007
 31
0.0
  0
LINE
  5
2EC
330
1F
100
AcDbEntity
  8
MIKY
  6
Continuous
 62
     7
100
AcDbLine
 10
1685.3826243883
 20
818.3923269007
 30
0.0
 11
1685.3826243883
 21
600.5704779808
 31
0.0
  0
LINE
  5
2ED
330
1F
100
AcDbEntity
  8
MIKY
  6
Continuous
 62
     7
100
AcDbLine
 10
1384.8565283348
 20
427.0616555258
 30
0.0
 11
1384.8565283348
 21
644.8835044457
 31
0.0
  0
LINE
  5
2EE
330
1F
100
AcDbEntity
  8
MIKY
  6
Continuous
 62
     7
100
AcDbLine
 10
1685.3826243883
 20
600.5704779808
 30
0.0
 11
1693.1579419567
 21
605.0595596719
 31
0.0
  0
LINE
  5
2EF
330
1F
100
AcDbEntity
  8
MIKY
  6
Continuous
 62
     7
100
AcDbLine
 10
1693.1579419567
 20
605.0595596719
 30
0.0
 11
1693.1579419567
 21
837.7610852363
 31
0.0
  0
LINE
  5
2F0
330
1F
100
AcDbEntity
  8
MIKY
  6
Continuous
 62
     7
100
AcDbLine
 10
1693.1579419567
 20
837.7610852363
 30
0.0
 11
1541.4835373922
 21
750.1918269319
 31
0.0
  0
LINE
  5
2F1
330
1F
100
AcDbEntity
  8
MIKY
  6
Continuous
 62
     7
100
AcDbLine
 10
1541.4835373922
 20
750.1918269319
 30
0.0
 11
1541.4835373922
 21
761.9002006988
 31
0.0
  0
LINE
  5
2F2
330
1F
100
AcDbEntity
  8
MIKY
  6
Continuous
 62
     7
100
AcDbLine
 10
1541.4835373922
 20
761.9002006988
 30
0.0
 11
1528.7556153309
 21
754.5517314704
 31
0.0
  0
LINE
  5
2F3
330
1F
100
AcDbEntity
  8
MIKY
  6
Continuous
 62
     7
100
AcDbLine
 10
1528.7556153308
 20
754.5517314704
 30
0.0
 11
1528.7556153308
 21
742.8433577035
 31
0.0
  0
LINE
  5
2F4
330
1F
100
AcDbEntity
  8
MIKY
  6
Continuous
 62
     7
100
AcDbLine
 10
1528.7556153308
 20
742.8433577035
 30
0.0
 11
1377.0812107663
 21
655.274099399
 31
0.0
  0
LINE
  5
2F5
330
1F
100
AcDbEntity
  8
MIKY
  6
Continuous
 62
     7
100
AcDbLine
 10
1377.0812107663
 20
655.274099399
 30
0.0
 11
1377.0812107663
 21
422.5725738346
 31
0.0
  0
LINE
  5
2F6
330
1F
100
AcDbEntity
  8
MIKY
  6
Continuous
 62
     7
100
AcDbLine
 10
1377.0812107663
 20
422.5725738346
 30
0.0
 11
1384.8565283348
 21
427.0616555258
 31
0.0
  0
LINE
  5
2F7
330
1F
100
AcDbEntity
  8
MIKY
  6
Continuous
 62
     7
100
AcDbLine
 10
1514.6134797071
 20
751.0083235128
 30
0.0
 11
1514.6134797071
 21
758.6342143751
 31
0.0
  0
LINE
  5
2F8
330
1F
100
AcDbEntity
  8
MIKY
  6
Continuous
 62
     7
100
AcDbLine
 10
1544.4124695803
 20
768.2127783377
 30
0.0
 11
1686.0868741449
 21
850.0085339503
 31
0.0
  0
LINE
  5
2F9
330
1F
100
AcDbEntity
  8
MIKY
  6
Continuous
 62
     7
100
AcDbLine
 10
1384.8565283348
 20
427.0616555258
 30
0.0
 11
1385.685575831
 21
426.5830047307
 31
0.0
  0
SPLINE
  5
2FA
330
1F
100
AcDbEntity
  8
MIKY
  6
Continuous
 62
     7
100
AcDbSpline
210
0.0
220
0.0
230
1.0
 70
    12
 71
     2
 72
     6
 73
     3
 74
     0
 42
0.0000000009397798
 43
0.0000000001
 40
0.0
 40
0.0
 40
0.0
 40
1.0
 40
1.0
 40
1.0
 10
1541.483537392208
 20
750.1918269318555
 30
0.0
 41
1.0
 10
1544.412469580342
 20
755.2648862936285
 30
0.0
 41
0.9238795325109608
 10
1544.412469580342
 20
760.0478125283901
 30
0.0
 41
1.0
  0
LINE
  5
2FB
330
1F
100
AcDbEntity
  8
MIKY
  6
Continuous
 62
     7
100
AcDbLine
 10
1514.6134797071
 20
751.0083235128
 30
0.0
 11
1528.7556153308
 21
742.8433577035
 31
0.0
  0
LINE
  5
2FC
330
1F
100
AcDbEntity
  8
MIKY
  6
Continuous
 62
     7
100
AcDbLine
 10
1655.5018679082
 20
833.9832655282
 30
0.0
 11
1520.9014272086
 21
896.2153439233
 31
0.0
  0
LINE
  5
2FD
330
1F
100
AcDbEntity
  8
MIKY
  6
Continuous
 62
     7
100
AcDbLine
 10
1266.1249419443
 20
749.1200715728
 30
0.0
 11
1387.3197231145
 21
679.1482320397
 31
0.0
  0
SPLINE
  5
2FE
330
1F
100
AcDbEntity
  8
MIKY
  6
Continuous
 62
     7
100
AcDbSpline
210
0.0
220
0.0
230
1.0
 70
    12
 71
     2
 72
     6
 73
     3
 74
     0
 42
0.0000000004054303
 43
0.0000000001
 40
0.0
 40
0.0
 40
0.0
 40
1.0
 40
1.0
 40
1.0
 10
1266.124941944279
 20
749.120071572752
 30
0.0
 41
1.0
 10
1255.358495857383
 20
743.105418108129
 30
0.0
 41
0.7080745202009782
 10
1255.532876205507
 20
730.7740755560895
 30
0.0
 41
1.0
  0
LINE
  5
2FF
330
1F
100
AcDbEntity
  8
MIKY
  6
Continuous
 62
     7
100
AcDbLine
 10
1255.5328762055
 20
528.0311479189
 30
0.0
 11
1361.5248615802
 21
453.2988912685
 31
0.0
  0
LINE
  5
300
330
1F
100
AcDbEntity
  8
MIKY
  6
Continuous
 62
     7
100
AcDbLine
 10
1255.5328762055
 20
730.7740755561
 30
0.0
 11
1255.5328762055
 21
528.0311479189
 31
0.0
  0
SPLINE
  5
301
330
1F
100
AcDbEntity
  8
MIKY
  6
Continuous
 62
     7
100
AcDbSpline
210
0.0
220
0.0
230
1.0
 70
    12
 71
     2
 72
     6
 73
     3
 74
     0
 42
0.0000000012541206
 43
0.0000000001
 40
0.0
 40
0.0
 40
0.0
 40
1.0
 40
1.0
 40
1.0
 10
1255.532876205507
 20
528.0311479189356
 30
0.0
 41
1.0
 10
1255.465877272771
 20
523.3792255663097
 30
0.0
 41
0.9338000322189887
 10
1258.180313233455
 20
521.4653457181497
 30
0.0
 41
1.0
  0
SPLINE
  5
302
330
1F
100
AcDbEntity
  8
MIKY
  6
Continuous
 62
     7
100
AcDbSpline
210
0.0
220
0.0
230
1.0
 70
    12
 71
     2
 72
     6
 73
     3
 74
     0
 42
0.0000000012541206
 43
0.0000000001
 40
0.0
 40
0.0
 40
0.0
 40
1.0
 40
1.0
 40
1.0
 10
1527.911297224646
 20
897.2054973025272
 30
0.0
 41
1.0
 10
1524.896610676006
 20
898.5993278773477
 30
0.0
 41
0.933800032219021
 10
1520.901427208567
 20
896.2153439232586
 30
0.0
 41
1.0
  0
LINE
  5
303
330
1F
100
AcDbEntity
  8
MIKY
  6
Continuous
 62
     7
100
AcDbLine
 10
1520.9014272086
 20
896.2153439233
 30
0.0
 11
1457.0022784563
 21
859.3231531902
 31
0.0
  0
SPLINE
  5
304
330
1F
100
AcDbEntity
  8
MIKY
  6
Continuous
 62
     7
100
AcDbSpline
210
0.0
220
0.0
230
1.0
 70
    12
 71
     2
 72
     6
 73
     3
 74
     0
 42
0.0000000037968867
 43
0.0000000001
 40
0.0
 40
0.0
 40
0.0
 40
1.0
 40
1.0
 40
1.0
 10
1520.901427208567
 20
896.2153439232587
 30
0.0
 41
1.0
 10
1519.546122843952
 20
896.9158126250477
 30
0.0
 41
0.9335804264975129
 10
1518.586462756364
 20
896.361752615148
 30
0.0
 41
1.0
  0
SPLINE
  5
305
330
1F
100
AcDbEntity
  8
MIKY
  6
Continuous
 62
     7
100
AcDbSpline
210
0.0
220
0.0
230
1.0
 70
    12
 71
     2
 72
     6
 73
     3
 74
     0
 42
0.0000000037968867
 43
0.0000000001
 40
0.0
 40
0.0
 40
0.0
 40
1.0
 40
1.0
 40
1.0
 10
1254.248600332894
 20
529.962761597457
 30
0.0
 41
1.0
 10
1254.248600332894
 20
528.8546415776576
 30
0.0
 41
0.9335804264968884
 10
1255.532876205507
 20
528.0311479189357
 30
0.0
 41
1.0
  0
SPLINE
  5
306
330
1F
100
AcDbEntity
  8
MIKY
  6
Continuous
 62
     7
100
AcDbSpline
210
0.0
220
0.0
230
1.0
 70
    12
 71
     2
 72
     6
 73
     3
 74
     0
 42
0.0000000038095091
 43
0.0000000001
 40
0.0
 40
0.0
 40
0.0
 40
1.0
 40
1.0
 40
1.0
 10
1254.248612647437
 20
732.6992823300394
 30
0.0
 41
1.0
 10
1254.252858295875
 20
731.5948389560028
 30
0.0
 41
0.9339775358438326
 10
1255.532876205507
 20
730.7740755560894
 30
0.0
 41
1.0
  0
SPLINE
  5
307
330
1F
100
AcDbEntity
  8
MIKY
  6
Continuous
 62
     7
100
AcDbSpline
210
0.0
220
0.0
230
1.0
 70
    12
 71
     2
 72
     6
 73
     3
 74
     0
 42
0.0000000037932252
 43
0.0000000001
 40
0.0
 40
0.0
 40
0.0
 40
1.0
 40
1.0
 40
1.0
 10
1266.124941944279
 20
749.120071572752
 30
0.0
 41
1.0
 10
1264.768329570198
 20
749.8212162995848
 30
0.0
 41
0.9334646786676362
 10
1263.808363762167
 20
749.2655473736739
 30
0.0
 41
1.0
  0
LINE
  5
308
330
1F
100
AcDbEntity
  8
MIKY
  6
Continuous
 62
     7
100
AcDbLine
 10
1366.4644833938
 20
666.7276822843
 30
0.0
 11
1255.5328762055
 21
730.7740755561
 31
0.0
  0
LINE
  5
309
330
1F
100
AcDbEntity
  8
MIKY
  6
Continuous
 62
     7
100
AcDbLine
 10
1330.0240906965
 20
786.0122623058
 30
0.0
 11
1266.1249419443
 21
749.1200715728
 31
0.0
  0
SPLINE
  5
30A
330
1F
100
AcDbEntity
  8
MIKY
  6
Continuous
 62
     7
100
AcDbSpline
210
0.0
220
0.0
230
1.0
 70
    12
 71
     2
 72
     6
 73
     3
 74
     0
 42
0.0000000037968867
 43
0.0000000001
 40
0.0
 40
0.0
 40
0.0
 40
1.0
 40
1.0
 40
1.0
 10
1330.0240906965
 20
786.012262305831
 30
0.0
 41
1.0
 10
1328.668786331886
 20
786.71273100762
 30
0.0
 41
0.9335804264968194
 10
1327.709126244297
 20
786.1586709977204
 30
0.0
 41
1.0
  0
LINE
  5
30B
330
1F
100
AcDbEntity
  8
MIKY
  6
Continuous
 62
     7
100
AcDbLine
 10
1359.495326062
 20
773.8474432981
 30
0.0
 11
1330.0240906965
 21
786.0122623058
 31
0.0
  0
SPLINE
  5
30C
330
1F
100
AcDbEntity
  8
MIKY
  6
Continuous
 62
     7
100
AcDbSpline
210
0.0
220
0.0
230
1.0
 70
    12
 71
     2
 72
     6
 73
     3
 74
     0
 42
0.0000000009524675
 43
0.0000000001
 40
0.0
 40
0.0
 40
0.0
 40
1.0
 40
1.0
 40
1.0
 10
1383.162879537473
 20
771.0794605144248
 30
0.0
 41
1.0
 10
1377.727034436203
 20
773.2227442847045
 30
0.0
 41
0.9645907955370525
 10
1373.192428041727
 20
772.1668210323023
 30
0.0
 41
1.0
  0
SPLINE
  5
30D
330
1F
100
AcDbEntity
  8
MIKY
  6
Continuous
 62
     7
100
AcDbSpline
210
0.0
220
0.0
230
1.0
 70
     8
 71
     3
 72
    22
 73
    18
 74
     0
 42
0.0000000004172304
 43
0.0000000001
 40
0.0
 40
0.0
 40
0.0
 40
0.0
 40
0.1250000000000019
 40
0.1250000000000019
 40
0.2500000000000037
 40
0.2500000000000037
 40
0.5000000000000047
 40
0.5000000000000047
 40
0.6250000000000042
 40
0.6250000000000042
 40
0.6875000000000046
 40
0.6875000000000046
 40
0.7500000000000048
 40
0.7500000000000048
 40
0.8750000000000024
 40
0.8750000000000024
 40
1.0
 40
1.0
 40
1.0
 40
1.0
 10
1383.162879537473
 20
771.0794605144249
 30
0.0
 10
1382.126485128479
 20
771.0870153426931
 30
0.0
 10
1381.092065271825
 20
771.0947318306835
 30
0.0
 10
1379.023966391317
 20
771.1200672538199
 30
0.0
 10
1377.991532367796
 20
771.1376714494053
 30
0.0
 10
1374.903782181432
 20
771.2196732371428
 30
0.0
 10
1372.857885576508
 20
771.3128556599682
 30
0.0
 10
1369.827986615145
 20
771.5716425718246
 30
0.0
 10
1368.824528265782
 20
771.6777923107809
 30
0.0
 10
1367.332166153328
 20
771.8762095548051
 30
0.0
 10
1366.836855664734
 20
771.948899017003
 30
0.0
 10
1365.851143884636
 20
772.1092797502027
 30
0.0
 10
1365.359800154404
 20
772.1972024247277
 30
0.0
 10
1363.912080319226
 20
772.4830539025091
 30
0.0
 10
1362.976765121226
 20
772.7036405622225
 30
0.0
 10
1361.177844988318
 20
773.216975225921
 30
0.0
 10
1360.314026936168
 20
773.5095087720852
 30
0.0
 10
1359.495326062002
 20
773.8474432981459
 30
0.0
  0
SPLINE
  5
30E
330
1F
100
AcDbEntity
  8
MIKY
  6
Continuous
 62
     7
100
AcDbSpline
210
0.0
220
0.0
230
1.0
 70
    12
 71
     2
 72
     6
 73
     3
 74
     0
 42
0.0000000041164211
 43
0.0000000001
 40
0.0
 40
0.0
 40
0.0
 40
1.0
 40
1.0
 40
1.0
 10
1332.116844167347
 20
786.4502982264917
 30
0.0
 41
1.0
 10
1331.188298642968
 20
786.8335732437884
 30
0.0
 41
0.9379032180147538
 10
1330.024090696501
 20
786.012262305831
 30
0.0
 41
1.0
  0
SPLINE
  5
30F
330
1F
100
AcDbEntity
  8
MIKY
  6
Continuous
 62
     7
100
AcDbSpline
210
0.0
220
0.0
230
1.0
 70
    12
 71
     2
 72
     6
 73
     3
 74
     0
 42
0.0000000040815543
 43
0.0000000001
 40
0.0
 40
0.0
 40
0.0
 40
1.0
 40
1.0
 40
1.0
 10
1361.601966026063
 20
774.2796642016338
 30
0.0
 41
1.0
 10
1360.669461471451
 20
774.6757577391782
 30
0.0
 41
0.9369381810310287
 10
1359.495326062002
 20
773.8474432981459
 30
0.0
 41
1.0
  0
ARC
  5
310
330
1F
100
AcDbEntity
  8
MIKY
  6
Continuous
 62
     7
100
AcDbCircle
 10
1369.8567330509
 20
694.3897847708
 30
0.0
 40
77.83546685148009
100
AcDbArc
 50
80.1568117831
 51
86.0183270136
  0
SPLINE
  5
311
330
1F
100
AcDbEntity
  8
MIKY
  6
Continuous
 62
     7
100
AcDbSpline
210
0.0
220
0.0
230
1.0
 70
    12
 71
     2
 72
     6
 73
     3
 74
     0
 42
0.0000000037968867
 43
0.0000000001
 40
0.0
 40
0.0
 40
0.0
 40
1.0
 40
1.0
 40
1.0
 10
1457.002278456345
 20
859.3231531901796
 30
0.0
 41
1.0
 10
1455.64697409173
 20
860.0236218919687
 30
0.0
 41
0.9335804264976764
 10
1454.687314004142
 20
859.469561882069
 30
0.0
 41
1.0
  0
LINE
  5
312
330
1F
100
AcDbEntity
  8
MIKY
  6
Continuous
 62
     7
100
AcDbLine
 10
1453.3015841969
 20
853.3227433773
 30
0.0
 11
1453.3015841969
 21
837.8542339338
 31
0.0
  0
SPLINE
  5
313
330
1F
100
AcDbEntity
  8
MIKY
  6
Continuous
 62
     7
100
AcDbSpline
210
0.0
220
0.0
230
1.0
 70
    12
 71
     2
 72
     6
 73
     3
 74
     0
 42
0.0000000041828225
 43
0.0000000001
 40
0.0
 40
0.0
 40
0.0
 40
1.0
 40
1.0
 40
1.0
 10
1452.187314004142
 20
839.6709254197167
 30
0.0
 41
1.0
 10
1452.187314004142
 20
838.6486731538387
 30
0.0
 41
0.9426414910914322
 10
1453.301584196857
 20
837.8542339338213
 30
0.0
 41
1.0
  0
SPLINE
  5
314
330
1F
100
AcDbEntity
  8
MIKY
  6
Continuous
 62
     7
100
AcDbSpline
210
0.0
220
0.0
230
1.0
 70
    12
 71
     2
 72
     6
 73
     3
 74
     0
 42
0.0000000041828225
 43
0.0000000001
 40
0.0
 40
0.0
 40
0.0
 40
1.0
 40
1.0
 40
1.0
 10
1452.187314004142
 20
855.1394348631467
 30
0.0
 41
1.0
 10
1452.187314004142
 20
854.1171825972687
 30
0.0
 41
0.9426414910914322
 10
1453.301584196857
 20
853.3227433772513
 30
0.0
 41
1.0
  0
LINE
  5
315
330
1F
100
AcDbEntity
  8
MIKY
  6
Continuous
 62
     7
100
AcDbLine
 10
1453.3015841969
 20
837.8542339338
 30
0.0
 11
1465.7307252765
 21
826.1647986859
 31
0.0
  0
SPLINE
  5
316
330
1F
100
AcDbEntity
  8
MIKY
  6
Continuous
 62
     7
100
AcDbSpline
210
0.0
220
0.0
230
1.0
 70
    12
 71
     2
 72
     6
 73
     3
 74
     0
 42
0.000000001153401
 43
0.0000000001
 40
0.0
 40
0.0
 40
0.0
 40
1.0
 40
1.0
 40
1.0
 10
1477.166920034372
 20
837.9213567680337
 30
0.0
 41
1.0
 10
1474.388815017955
 20
835.4675901862045
 30
0.0
 41
0.9739586170891992
 10
1473.414130134606
 20
830.6008145490408
 30
0.0
 41
1.0
  0
LINE
  5
317
330
1F
100
AcDbEntity
  8
MIKY
  6
Continuous
 62
     7
100
AcDbLine
 10
1477.1669200344
 20
837.921356768
 30
0.0
 11
1453.3015841969
 21
853.3227433773
 31
0.0
  0
LINE
  5
318
330
1F
100
AcDbEntity
  8
MIKY
  6
Continuous
 62
     7
100
AcDbLine
 10
1487.2360189754
 20
831.1661155843
 30
0.0
 11
1461.4027667809
 21
816.2512804758
 31
0.0
  0
LINE
  5
319
330
1F
100
AcDbEntity
  8
MIKY
  6
Continuous
 62
     7
100
AcDbLine
 10
1457.0022784563
 20
859.3231531902
 30
0.0
 11
1480.8676142939
 21
843.921766581
 31
0.0
  0
SPLINE
  5
31A
330
1F
100
AcDbEntity
  8
MIKY
  6
Continuous
 62
     7
100
AcDbSpline
210
0.0
220
0.0
230
1.0
 70
    12
 71
     2
 72
     6
 73
     3
 74
     0
 42
0.0000000008343321
 43
0.0000000001
 40
0.0
 40
0.0
 40
0.0
 40
1.0
 40
1.0
 40
1.0
 10
1487.236018975388
 20
831.166115584308
 30
0.0
 41
1.0
 10
1481.314186525083
 20
835.1619142326973
 30
0.0
 41
0.9335804264972141
 10
1477.121072124866
 20
832.7410185049878
 30
0.0
 41
1.0
  0
SPLINE
  5
31B
330
1F
100
AcDbEntity
  8
MIKY
  6
Continuous
 62
     7
100
AcDbSpline
210
0.0
220
0.0
230
1.0
 70
     8
 71
     3
 72
    22
 73
    18
 74
     0
 42
0.0000000006741589
 43
0.0000000001
 40
0.0
 40
0.0
 40
0.0
 40
0.0
 40
0.1249999999999989
 40
0.1249999999999989
 40
0.2499999999999978
 40
0.2499999999999978
 40
0.3124999999999972
 40
0.3124999999999972
 40
0.3749999999999967
 40
0.3749999999999967
 40
0.4999999999999962
 40
0.4999999999999962
 40
0.749999999999999
 40
0.749999999999999
 40
0.8749999999999996
 40
0.8749999999999996
 40
1.0
 40
1.0
 40
1.0
 40
1.0
 10
1480.86761429386
 20
843.9217665809622
 30
0.0
 10
1481.530585189723
 20
843.4939213100068
 30
0.0
 10
1482.113065436632
 20
843.0389573062537
 30
0.0
 10
1483.150852690036
 20
842.0861823696853
 30
0.0
 10
1483.605779487796
 20
841.5882433377773
 30
0.0
 10
1484.208339378051
 20
840.8144385382865
 30
0.0
 10
1484.396222698839
 20
840.5513129146805
 30
0.0
 10
1484.743889698063
 20
840.022556855488
 30
0.0
 10
1484.904148468813
 20
839.7564251938007
 30
0.0
 10
1485.349361211936
 20
838.9534359795117
 30
0.0
 10
1485.598883907044
 20
838.4120012876191
 30
0.0
 10
1486.23947839739
 20
836.7737487962454
 30
0.0
 10
1486.522952219293
 20
835.6630311052173
 30
0.0
 10
1486.843610606179
 20
833.9834481221789
 30
0.0
 10
1486.932888392299
 20
833.4213124190416
 30
0.0
 10
1487.093576403913
 20
832.294732817295
 30
0.0
 10
1487.164890831162
 20
831.7309671505419
 30
0.0
 10
1487.236018975388
 20
831.1661155843082
 30
0.0
  0
SPLINE
  5
31C
330
1F
100
AcDbEntity
  8
MIKY
  6
Continuous
 62
     7
100
AcDbSpline
210
0.0
220
0.0
230
1.0
 70
    12
 71
     2
 72
     6
 73
     3
 74
     0
 42
0.0000000047235559
 43
0.0000000001
 40
0.0
 40
0.0
 40
0.0
 40
1.0
 40
1.0
 40
1.0
 10
1453.301584196857
 20
837.854233933821
 30
0.0
 41
1.0
 10
1453.118959928209
 20
836.633275632863
 30
0.0
 41
0.9479175224848253
 10
1453.761823990193
 20
836.0286708755725
 30
0.0
 41
1.0
  0
ARC
  5
31D
330
1F
100
AcDbEntity
  8
MIKY
  6
Continuous
 62
     7
100
AcDbCircle
 10
1473.8954867367
 20
822.1631623343
 30
0.0
 40
16.09419049324515
100
AcDbArc
 50
34.0137258752
 51
78.2718740652
  0
SPLINE
  5
31E
330
1F
100
AcDbEntity
  8
MIKY
  6
Continuous
 62
     7
100
AcDbSpline
210
0.0
220
0.0
230
1.0
 70
    12
 71
     2
 72
     6
 73
     3
 74
     0
 42
0.0000000011835863
 43
0.0000000001
 40
0.0
 40
0.0
 40
0.0
 40
1.0
 40
1.0
 40
1.0
 10
1480.86761429386
 20
843.9217665809622
 30
0.0
 41
1.0
 10
1477.004032838927
 20
842.0921964985542
 30
0.0
 41
0.709038291307218
 10
1477.166920034372
 20
837.9213567680334
 30
0.0
 41
1.0
  0
SPLINE
  5
31F
330
1F
100
AcDbEntity
  8
MIKY
  6
Continuous
 62
     7
100
AcDbSpline
210
0.0
220
0.0
230
1.0
 70
    12
 71
     2
 72
     6
 73
     3
 74
     0
 42
0.0000000011835863
 43
0.0000000001
 40
0.0
 40
0.0
 40
0.0
 40
1.0
 40
1.0
 40
1.0
 10
1457.002278456345
 20
859.3231531901796
 30
0.0
 41
1.0
 10
1453.138697001412
 20
857.4935831077718
 30
0.0
 41
0.7090382913073701
 10
1453.301584196857
 20
853.3227433772512
 30
0.0
 41
1.0
  0
LINE
  5
320
330
1F
100
AcDbEntity
  8
MIKY
  6
Continuous
 62
     7
100
AcDbLine
 10
1517.6975410571
 20
765.001937095
 30
0.0
 11
1537.4965309304
 21
776.432889228
 31
0.0
  0
SPLINE
  5
321
330
1F
100
AcDbEntity
  8
MIKY
  6
Continuous
 62
     7
100
AcDbSpline
210
0.0
220
0.0
230
1.0
 70
    12
 71
     2
 72
     6
 73
     3
 74
     0
 42
0.0000000194780488
 43
0.0000000001
 40
0.0
 40
0.0
 40
0.0
 40
1.0
 40
1.0
 40
1.0
 10
1518.149013613052
 20
764.7579387320088
 30
0.0
 41
1.0
 10
1517.923046808713
 20
764.8884007273219
 30
0.0
 41
0.9994897808092097
 10
1517.697541057147
 20
765.0019370949653
 30
0.0
 41
1.0
  0
SPLINE
  5
322
330
1F
100
AcDbEntity
  8
MIKY
  6
Continuous
 62
     7
100
AcDbSpline
210
0.0
220
0.0
230
1.0
 70
    12
 71
     2
 72
     6
 73
     3
 74
     0
 42
0.0000000006563388
 43
0.0000000001
 40
0.0
 40
0.0
 40
0.0
 40
1.0
 40
1.0
 40
1.0
 10
1528.75561533085
 20
754.5517314704117
 30
0.0
 41
1.0
 10
1525.220081424917
 20
760.6754558273705
 30
0.0
 41
0.707106781186758
 10
1518.149013613051
 20
764.7579387320086
 30
0.0
 41
1.0
  0
SPLINE
  5
323
330
1F
100
AcDbEntity
  8
MIKY
  6
Continuous
 62
     7
100
AcDbSpline
210
0.0
220
0.0
230
1.0
 70
    12
 71
     2
 72
     6
 73
     3
 74
     0
 42
0.0000000194780488
 43
0.0000000001
 40
0.0
 40
0.0
 40
0.0
 40
1.0
 40
1.0
 40
1.0
 10
1537.948003486275
 20
776.1888908649955
 30
0.0
 41
1.0
 10
1537.722036681938
 20
776.3193528603075
 30
0.0
 41
0.9994897807784004
 10
1537.49653093037
 20
776.432889227952
 30
0.0
 41
1.0
  0
SPLINE
  5
324
330
1F
100
AcDbEntity
  8
MIKY
  6
Continuous
 62
     7
100
AcDbSpline
210
0.0
220
0.0
230
1.0
 70
    12
 71
     2
 72
     6
 73
     3
 74
     0
 42
0.0000000005272537
 43
0.0000000001
 40
0.0
 40
0.0
 40
0.0
 40
1.0
 40
1.0
 40
1.0
 10
1541.483537392208
 20
761.9002006987605
 30
0.0
 41
1.0
 10
1545.01907129814
 20
772.106407960357
 30
0.0
 41
0.707106781186533
 10
1537.948003486275
 20
776.1888908649954
 30
0.0
 41
1.0
  0
SPLINE
  5
325
330
1F
100
AcDbEntity
  8
MIKY
  6
Continuous
 62
     7
100
AcDbSpline
210
0.0
220
0.0
230
1.0
 70
    12
 71
     2
 72
     6
 73
     3
 74
     0
 42
0.0000000012446167
 43
0.0000000001
 40
0.0
 40
0.0
 40
0.0
 40
1.0
 40
1.0
 40
1.0
 10
1541.483537392208
 20
761.9002006987606
 30
0.0
 41
1.0
 10
1544.401670405678
 20
765.2697704604769
 30
0.0
 41
0.9243778725903032
 10
1544.412435557476
 20
768.8468343747427
 30
0.0
 41
1.0
  0
SPLINE
  5
326
330
1F
100
AcDbEntity
  8
MIKY
  6
Continuous
 62
     7
100
AcDbSpline
210
0.0
220
0.0
230
1.0
 70
    12
 71
     2
 72
     6
 73
     3
 74
     0
 42
0.0000000006563388
 43
0.0000000001
 40
0.0
 40
0.0
 40
0.0
 40
1.0
 40
1.0
 40
1.0
 10
1514.613479707119
 20
758.6342143750508
 30
0.0
 41
1.0
 10
1521.684547518984
 20
754.5517314704125
 30
0.0
 41
0.7071067811866595
 10
1528.75561533085
 20
754.5517314704118
 30
0.0
 41
1.0
  0
LINE
  5
327
330
1F
100
AcDbEntity
  8
MIKY
  6
Continuous
 62
     7
100
AcDbLine
 10
1400.4445641125
 20
824.0358065429
 30
0.0
 11
1517.6975410571
 21
765.001937095
 31
0.0
  0
LINE
  5
328
330
1F
100
AcDbEntity
  8
MIKY
  6
Continuous
 62
     7
100
AcDbLine
 10
1420.2435539857
 20
835.4667586758
 30
0.0
 11
1400.4445641125
 21
824.0358065429
 31
0.0
  0
LINE
  5
329
330
1F
100
AcDbEntity
  8
MIKY
  6
Continuous
 62
     7
100
AcDbLine
 10
1537.4965309304
 20
776.432889228
 30
0.0
 11
1420.2435539857
 21
835.4667586758
 31
0.0
  0
LINE
  5
32A
330
1F
100
AcDbEntity
  8
MIKY
  6
Continuous
 62
     7
100
AcDbLine
 10
1397.1347664845
 20
817.7900830044
 30
0.0
 11
1389.4275672221
 21
782.1111498432
 31
0.0
  0
LINE
  5
32B
330
1F
100
AcDbEntity
  8
MIKY
  6
Continuous
 62
     7
100
AcDbLine
 10
1514.3877434292
 20
758.7562135565
 30
0.0
 11
1397.1347664845
 21
817.7900830044
 31
0.0
  0
SPLINE
  5
32C
330
1F
100
AcDbEntity
  8
MIKY
  6
Continuous
 62
     7
100
AcDbSpline
210
0.0
220
0.0
230
1.0
 70
    12
 71
     2
 72
     6
 73
     3
 74
     0
 42
0.0000000389560976
 43
0.0000000001
 40
0.0
 40
0.0
 40
0.0
 40
1.0
 40
1.0
 40
1.0
 10
1514.613479707119
 20
758.6342143750505
 30
0.0
 41
1.0
 10
1514.500496304948
 20
758.6994453727082
 30
0.0
 41
0.9994897807381151
 10
1514.387743429167
 20
758.7562135565288
 30
0.0
 41
1.0
  0
SPLINE
  5
32D
330
1F
100
AcDbEntity
  8
MIKY
  6
Continuous
 62
     7
100
AcDbSpline
210
0.0
220
0.0
230
1.0
 70
    12
 71
     2
 72
     6
 73
     3
 74
     0
 42
0.0000000012247449
 43
0.0000000001
 40
0.0
 40
0.0
 40
0.0
 40
1.0
 40
1.0
 40
1.0
 10
1518.149013613052
 20
764.7579387320086
 30
0.0
 41
1.0
 10
1514.613479707119
 20
762.7166972796896
 30
0.0
 41
0.7071067811866442
 10
1514.613479707119
 20
758.6342143750506
 30
0.0
 41
1.0
  0
SPLINE
  5
32E
330
1F
100
AcDbEntity
  8
MIKY
  6
Continuous
 62
     7
100
AcDbSpline
210
0.0
220
0.0
230
1.0
 70
    12
 71
     2
 72
     6
 73
     3
 74
     0
 42
0.0000000012058333
 43
0.0000000001
 40
0.0
 40
0.0
 40
0.0
 40
1.0
 40
1.0
 40
1.0
 10
1517.697541057147
 20
765.0019370949651
 30
0.0
 41
1.0
 10
1514.162007151214
 20
762.9606956426461
 30
0.0
 41
0.7071067811866016
 10
1514.387743429167
 20
758.7562135565291
 30
0.0
 41
1.0
  0
SPLINE
  5
32F
330
1F
100
AcDbEntity
  8
MIKY
  6
Continuous
 62
     7
100
AcDbSpline
210
0.0
220
0.0
230
1.0
 70
    12
 71
     2
 72
     6
 73
     3
 74
     0
 42
0.0000000012058333
 43
0.0000000001
 40
0.0
 40
0.0
 40
0.0
 40
1.0
 40
1.0
 40
1.0
 10
1400.444564112465
 20
824.0358065428625
 30
0.0
 41
1.0
 10
1396.909030206532
 20
821.9945650905436
 30
0.0
 41
0.7071067811867066
 10
1397.134766484485
 20
817.7900830044264
 30
0.0
 41
1.0
  0
SPLINE
  5
330
330
1F
100
AcDbEntity
  8
MIKY
  6
Continuous
 62
     7
100
AcDbSpline
210
0.0
220
0.0
230
1.0
 70
    12
 71
     2
 72
     6
 73
     3
 74
     0
 42
0.0000000025396943
 43
0.0000000001
 40
0.0
 40
0.0
 40
0.0
 40
1.0
 40
1.0
 40
1.0
 10
1395.783026933364
 20
820.8870508209072
 30
0.0
 41
1.0
 10
1395.422331364508
 20
819.2172830291872
 30
0.0
 41
0.8958139159235826
 10
1397.134766484485
 20
817.7900830044263
 30
0.0
 41
1.0
  0
SPLINE
  5
331
330
1F
100
AcDbEntity
  8
MIKY
  6
Continuous
 62
     7
100
AcDbSpline
210
0.0
220
0.0
230
1.0
 70
    12
 71
     2
 72
     6
 73
     3
 74
     0
 42
0.00000000387693
 43
0.0000000001
 40
0.0
 40
0.0
 40
0.0
 40
1.0
 40
1.0
 40
1.0
 10
1400.444564112465
 20
824.0358065428626
 30
0.0
 41
1.0
 10
1399.113458543387
 20
824.7059840891727
 30
0.0
 41
0.9356311471567685
 10
1398.170300390418
 20
824.1614514756677
 30
0.0
 41
1.0
  0
SPLINE
  5
332
330
1F
100
AcDbEntity
  8
MIKY
  6
Continuous
 62
     7
100
AcDbSpline
210
0.0
220
0.0
230
1.0
 70
    12
 71
     2
 72
     6
 73
     3
 74
     0
 42
0.00000000387693
 43
0.0000000001
 40
0.0
 40
0.0
 40
0.0
 40
1.0
 40
1.0
 40
1.0
 10
1420.243553985688
 20
835.4667586758494
 30
0.0
 41
1.0
 10
1418.91244841661
 20
836.1369362221595
 30
0.0
 41
0.9356311471572373
 10
1417.969290263641
 20
835.5924036086546
 30
0.0
 41
1.0
  0
SPLINE
  5
333
330
1F
100
AcDbEntity
  8
MIKY
  6
Continuous
 62
     7
100
AcDbSpline
210
0.0
220
0.0
230
1.0
 70
    12
 71
     2
 72
     6
 73
     3
 74
     0
 42
0.000000003547281
 43
0.0000000001
 40
0.0
 40
0.0
 40
0.0
 40
1.0
 40
1.0
 40
1.0
 10
1422.717762635652
 20
835.728188813713
 30
0.0
 41
1.0
 10
1421.637980733019
 20
836.2718313337859
 30
0.0
 41
0.9302611048471674
 10
1420.243553985688
 20
835.4667586758495
 30
0.0
 41
1.0
  0
SPLINE
  5
334
330
1F
100
AcDbEntity
  8
MIKY
  6
Continuous
 62
     7
100
AcDbSpline
210
0.0
220
0.0
230
1.0
 70
    12
 71
     2
 72
     6
 73
     3
 74
     0
 42
0.0000000035456715
 43
0.0000000001
 40
0.0
 40
0.0
 40
0.0
 40
1.0
 40
1.0
 40
1.0
 10
1539.971587661991
 20
776.6938921097773
 30
0.0
 41
1.0
 10
1538.891590583986
 20
777.2383272945023
 30
0.0
 41
0.9302042590412789
 10
1537.49653093037
 20
776.4328892279519
 30
0.0
 41
1.0
  0
SPLINE
  5
335
330
1F
100
AcDbEntity
  8
MIKY
  6
Continuous
 62
     7
100
AcDbSpline
210
0.0
220
0.0
230
1.0
 70
    12
 71
     2
 72
     6
 73
     3
 74
     0
 42
0.0000000034440335
 43
0.0000000001
 40
0.0
 40
0.0
 40
0.0
 40
1.0
 40
1.0
 40
1.0
 10
1540.458261721825
 20
776.4305635792487
 30
0.0
 41
1.0
 10
1539.420992582181
 20
777.0393215160302
 30
0.0
 41
0.9230908295752623
 10
1537.948003486275
 20
776.1888908649955
 30
0.0
 41
1.0
  0
LINE
  5
336
330
1F
100
AcDbEntity
  8
MIKY
  6
Continuous
 62
     7
100
AcDbLine
 10
1509.6637322388
 20
749.7835786414
 30
0.0
 11
1368.5959293921
 21
668.3380446939
 31
0.0
  0
SPLINE
  5
337
330
1F
100
AcDbEntity
  8
MIKY
  6
Continuous
 62
     7
100
AcDbSpline
210
0.0
220
0.0
230
1.0
 70
    12
 71
     2
 72
     6
 73
     3
 74
     0
 42
0.0000000002815088
 43
0.0000000001
 40
0.0
 40
0.0
 40
0.0
 40
1.0
 40
1.0
 40
1.0
 10
1421.57938486609
 20
797.5497888575869
 30
0.0
 41
1.0
 10
1405.159924903274
 20
806.0359400901186
 30
0.0
 41
0.7903832915296954
 10
1401.89803617698
 20
789.31097845122
 30
0.0
 41
1.0
  0
LINE
  5
338
330
1F
100
AcDbEntity
  8
MIKY
  6
Continuous
 62
     7
100
AcDbLine
 10
1421.5793848661
 20
797.5497888576
 30
0.0
 11
1509.6637322388
 21
752.0247171003
 31
0.0
  0
LINE
  5
339
330
1F
100
AcDbEntity
  8
MIKY
  6
Continuous
 62
     7
100
AcDbLine
 10
1509.6637322388
 20
752.0247171003
 30
0.0
 11
1509.6637322388
 21
753.866061546
 31
0.0
  0
LINE
  5
33A
330
1F
100
AcDbEntity
  8
MIKY
  6
Continuous
 62
     7
100
AcDbLine
 10
1418.228886508
 20
791.3248290782
 30
0.0
 11
1383.1628795375
 21
771.0794605144
 31
0.0
  0
LINE
  5
33B
330
1F
100
AcDbEntity
  8
MIKY
  6
Continuous
 62
     7
100
AcDbLine
 10
1504.4402327629
 20
746.7677898129
 30
0.0
 11
1418.228886508
 21
791.3248290782
 31
0.0
  0
SPLINE
  5
33C
330
1F
100
AcDbEntity
  8
MIKY
  6
Continuous
 62
     7
100
AcDbSpline
210
0.0
220
0.0
230
1.0
 70
    12
 71
     2
 72
     6
 73
     3
 74
     0
 42
0.0000000007593773
 43
0.0000000001
 40
0.0
 40
0.0
 40
0.0
 40
1.0
 40
1.0
 40
1.0
 10
1418.228886507953
 20
791.3248290782349
 30
0.0
 41
1.0
 10
1411.452364684878
 20
794.8271725871806
 30
0.0
 41
0.9335804264972902
 10
1406.654064246936
 20
792.0568725376822
 30
0.0
 41
1.0
  0
SPLINE
  5
33D
330
1F
100
AcDbEntity
  8
MIKY
  6
Continuous
 62
     7
100
AcDbSpline
210
0.0
220
0.0
230
1.0
 70
    12
 71
     2
 72
     6
 73
     3
 74
     0
 42
0.0000000012247449
 43
0.0000000001
 40
0.0
 40
0.0
 40
0.0
 40
1.0
 40
1.0
 40
1.0
 10
1509.663732238813
 20
749.7835786413931
 30
0.0
 41
1.0
 10
1513.199266144745
 20
751.8248200937121
 30
0.0
 41
0.707106781186537
 10
1509.663732238813
 20
753.8660615460311
 30
0.0
 41
1.0
  0
SPLINE
  5
33E
330
1F
100
AcDbEntity
  8
MIKY
  6
Continuous
 62
     7
100
AcDbSpline
210
0.0
220
0.0
230
1.0
 70
    12
 71
     2
 72
     6
 73
     3
 74
     0
 42
0.0000000012091473
 43
0.0000000001
 40
0.0
 40
0.0
 40
0.0
 40
1.0
 40
1.0
 40
1.0
 10
1418.228886507953
 20
791.324829078235
 30
0.0
 41
1.0
 10
1421.764420413886
 20
793.366070530554
 30
0.0
 41
0.7071067811868078
 10
1421.57938486609
 20
797.5497888575868
 30
0.0
 41
1.0
  0
SPLINE
  5
33F
330
1F
100
AcDbEntity
  8
MIKY
  6
Continuous
 62
     7
100
AcDbSpline
210
0.0
220
0.0
230
1.0
 70
    12
 71
     2
 72
     6
 73
     3
 74
     0
 42
0.0000000038892853
 43
0.0000000001
 40
0.0
 40
0.0
 40
0.0
 40
1.0
 40
1.0
 40
1.0
 10
1509.239725353686
 20
749.5387781521267
 30
0.0
 41
1.0
 10
1509.715899450451
 20
750.8451982348301
 30
0.0
 41
0.9624799782783355
 10
1509.663732238813
 20
752.0247171002584
 30
0.0
 41
1.0
  0
SPLINE
  5
340
330
1F
100
AcDbEntity
  8
MIKY
  6
Continuous
 62
     7
100
AcDbSpline
210
0.0
220
0.0
230
1.0
 70
    12
 71
     2
 72
     6
 73
     3
 74
     0
 42
0.0000000058808972
 43
0.0000000001
 40
0.0
 40
0.0
 40
0.0
 40
1.0
 40
1.0
 40
1.0
 10
1510.867089339648
 20
750.9041478708242
 30
0.0
 41
1.0
 10
1510.493041484633
 20
751.545915183943
 30
0.0
 41
0.9735753976635948
 10
1509.663732238813
 20
752.0247171002584
 30
0.0
 41
1.0
  0
SPLINE
  5
341
330
1F
100
AcDbEntity
  8
MIKY
  6
Continuous
 62
     7
100
AcDbSpline
210
0.0
220
0.0
230
1.0
 70
    12
 71
     2
 72
     6
 73
     3
 74
     0
 42
0.000000005644847
 43
0.0000000001
 40
0.0
 40
0.0
 40
0.0
 40
1.0
 40
1.0
 40
1.0
 10
1684.44247641924
 20
599.0703817075214
 30
0.0
 41
1.0
 10
1684.938581323088
 20
599.8013728310714
 30
0.0
 41
0.9980340701071554
 10
1685.382624388299
 20
600.5704779807653
 30
0.0
 41
1.0
  0
LINE
  5
342
330
1F
100
AcDbEntity
  8
MIKY
  6
Continuous
 62
     7
100
AcDbLine
 10
1672.0183526659
 20
620.4410364892
 30
0.0
 11
1672.0183526659
 21
793.6272436881
 31
0.0
  0
SPLINE
  5
343
330
1F
100
AcDbEntity
  8
MIKY
  6
Continuous
 62
     7
100
AcDbSpline
210
0.0
220
0.0
230
1.0
 70
    12
 71
     2
 72
     6
 73
     3
 74
     0
 42
0.0000000002978761
 43
0.0000000001
 40
0.0
 40
0.0
 40
0.0
 40
1.0
 40
1.0
 40
1.0
 10
1672.018352665936
 20
793.627243688094
 30
0.0
 41
1.0
 10
1679.015806332992
 20
792.6611380739121
 30
0.0
 41
0.7431448254775841
 10
1685.382624388299
 20
818.3923269007038
 30
0.0
 41
1.0
  0
SPLINE
  5
344
330
1F
100
AcDbEntity
  8
MIKY
  6
Continuous
 62
     7
100
AcDbSpline
210
0.0
220
0.0
230
1.0
 70
    12
 71
     2
 72
     6
 73
     3
 74
     0
 42
0.0000000003923099
 43
0.0000000001
 40
0.0
 40
0.0
 40
0.0
 40
1.0
 40
1.0
 40
1.0
 10
1684.44247641924
 20
599.0703817075215
 30
0.0
 41
1.0
 10
1678.179416660571
 20
615.5307131626299
 30
0.0
 41
0.7836207575656574
 10
1672.018352665935
 20
620.4410364892
 30
0.0
 41
1.0
  0
LINE
  5
345
330
1F
100
AcDbEntity
  8
MIKY
  6
Continuous
 62
     7
100
AcDbLine
 10
1389.9392098883
 20
428.2129498751
 30
0.0
 11
1679.8501331501
 21
595.5930994614
 31
0.0
  0
LINE
  5
346
330
1F
100
AcDbEntity
  8
MIKY
  6
Continuous
 62
     7
100
AcDbLine
 10
1399.6215836625
 20
446.9322140342
 30
0.0
 11
1657.9536891409
 21
596.0803246724
 31
0.0
  0
SPLINE
  5
347
330
1F
100
AcDbEntity
  8
MIKY
  6
Continuous
 62
     7
100
AcDbSpline
210
0.0
220
0.0
230
1.0
 70
    12
 71
     2
 72
     6
 73
     3
 74
     0
 42
0.0000000004020081
 43
0.0000000001
 40
0.0
 40
0.0
 40
0.0
 40
1.0
 40
1.0
 40
1.0
 10
1389.939209888285
 20
428.212949875148
 30
0.0
 41
1.0
 10
1402.962487692542
 20
442.6345808447411
 30
0.0
 41
0.821594542307926
 10
1399.621583662531
 20
446.9322140341979
 30
0.0
 41
1.0
  0
SPLINE
  5
348
330
1F
100
AcDbEntity
  8
MIKY
  6
Continuous
 62
     7
100
AcDbSpline
210
0.0
220
0.0
230
1.0
 70
    12
 71
     2
 72
     6
 73
     3
 74
     0
 42
0.0000000004443084
 43
0.0000000001
 40
0.0
 40
0.0
 40
0.0
 40
1.0
 40
1.0
 40
1.0
 10
1657.953689140867
 20
596.0803246724212
 30
0.0
 41
1.0
 10
1664.371704425695
 20
593.5592624942593
 30
0.0
 41
0.8215945423076766
 10
1679.85013315014
 20
595.5930994613739
 30
0.0
 41
1.0
  0
SPLINE
  5
349
330
1F
100
AcDbEntity
  8
MIKY
  6
Continuous
 62
     7
100
AcDbSpline
210
0.0
220
0.0
230
1.0
 70
    12
 71
     2
 72
     6
 73
     3
 74
     0
 42
0.0000000007282811
 43
0.0000000001
 40
0.0
 40
0.0
 40
0.0
 40
1.0
 40
1.0
 40
1.0
 10
1384.856528334758
 20
644.8835044457046
 30
0.0
 41
1.0
 10
1393.643324899163
 20
646.5745242329617
 30
0.0
 41
0.9238795325111693
 10
1397.785460522894
 20
648.9659873503422
 30
0.0
 41
1.0
  0
SPLINE
  5
34A
330
1F
100
AcDbEntity
  8
MIKY
  6
Continuous
 62
     7
100
AcDbSpline
210
0.0
220
0.0
230
1.0
 70
    12
 71
     2
 72
     6
 73
     3
 74
     0
 42
0.0000000004595595
 43
0.0000000001
 40
0.0
 40
0.0
 40
0.0
 40
1.0
 40
1.0
 40
1.0
 10
1668.311556576432
 20
805.1543017296532
 30
0.0
 41
1.0
 10
1676.595827823895
 20
809.9372279644149
 30
0.0
 41
0.9238795325112052
 10
1685.382624388299
 20
818.3923269007037
 30
0.0
 41
1.0
  0
LINE
  5
34B
330
1F
100
AcDbEntity
  8
MIKY
  6
Continuous
 62
     7
100
AcDbLine
 10
1672.0183526659
 20
793.6272436881
 30
0.0
 11
1657.4019578564
 21
798.8556419719
 31
0.0
  0
LINE
  5
34C
330
1F
100
AcDbEntity
  8
MIKY
  6
Continuous
 62
     7
100
AcDbLine
 10
1571.8895753726
 20
749.4850449258
 30
0.0
 11
1571.8895753726
 21
678.2504130131
 31
0.0
  0
LINE
  5
34D
330
1F
100
AcDbEntity
  8
MIKY
  6
Continuous
 62
     7
100
AcDbLine
 10
1571.8895753726
 20
678.2504130131
 30
0.0
 11
1672.0183526659
 21
620.4410364892
 31
0.0
  0
LINE
  5
34E
330
1F
100
AcDbEntity
  8
MIKY
  6
Continuous
 62
     7
100
AcDbLine
 10
1387.7854605229
 20
456.9761841091
 30
0.0
 11
1399.6215836625
 21
446.9322140342
 31
0.0
  0
LINE
  5
34F
330
1F
100
AcDbEntity
  8
MIKY
  6
Continuous
 62
     7
100
AcDbLine
 10
1557.8249118475
 20
653.8897011964
 30
0.0
 11
1387.7854605229
 21
555.7173782012
 31
0.0
  0
LINE
  5
350
330
1F
100
AcDbEntity
  8
MIKY
  6
Continuous
 62
     7
100
AcDbLine
 10
1657.9536891409
 20
596.0803246724
 30
0.0
 11
1557.8249118475
 21
653.8897011964
 31
0.0
  0
SPLINE
  5
351
330
1F
100
AcDbEntity
  8
MIKY
  6
Continuous
 62
     7
100
AcDbSpline
210
0.0
220
0.0
230
1.0
 70
    12
 71
     2
 72
     6
 73
     3
 74
     0
 42
0.0000000007282811
 43
0.0000000001
 40
0.0
 40
0.0
 40
0.0
 40
1.0
 40
1.0
 40
1.0
 10
1387.785460522893
 20
631.6454792746529
 30
0.0
 41
1.0
 10
1387.785460522893
 20
636.4284055094156
 30
0.0
 41
0.9238795325115375
 10
1384.856528334758
 20
644.8835044457044
 30
0.0
 41
1.0
  0
SPLINE
  5
352
330
1F
100
AcDbEntity
  8
MIKY
  6
Continuous
 62
     7
100
AcDbSpline
210
0.0
220
0.0
230
1.0
 70
    12
 71
     2
 72
     6
 73
     3
 74
     0
 42
0.0000000005550493
 43
0.0000000001
 40
0.0
 40
0.0
 40
0.0
 40
1.0
 40
1.0
 40
1.0
 10
1385.68557583098
 20
426.5830047306511
 30
0.0
 41
1.0
 10
1387.785460522893
 20
436.4689977336132
 30
0.0
 41
0.9460474435277267
 10
1387.785460522893
 20
444.3788645935779
 30
0.0
 41
1.0
  0
LINE
  5
353
330
1F
100
AcDbEntity
  8
MIKY
  6
Continuous
 62
     7
100
AcDbLine
 10
1387.7854605229
 20
586.580841707
 30
0.0
 11
1545.1610319279
 21
677.4416702215
 31
0.0
  0
LINE
  5
354
330
1F
100
AcDbEntity
  8
MIKY
  6
Continuous
 62
     7
100
AcDbLine
 10
1545.1610319279
 20
677.4416702215
 30
0.0
 11
1545.1610319279
 21
734.053313173
 31
0.0
  0
ARC
  5
355
330
1F
100
AcDbEntity
  8
MIKY
  6
Continuous
 62
     7
100
AcDbCircle
 10
1673.3901168518
 20
608.8957776312
 30
0.0
 40
14.78827430985196
100
AcDbArc
 50
295.9020313459
 51
318.3633439255
  0
SPLINE
  5
356
330
1F
100
AcDbEntity
  8
MIKY
  6
Continuous
 62
     7
100
AcDbSpline
210
0.0
220
0.0
230
1.0
 70
     8
 71
     3
 72
    18
 73
    14
 74
     0
 42
0.0000000021481079
 43
0.0000000001
 40
0.0
 40
0.0
 40
0.0
 40
0.0
 40
0.2499999999999998
 40
0.2499999999999998
 40
0.4999999999999996
 40
0.4999999999999996
 40
0.7499999999999993
 40
0.7499999999999993
 40
0.8750000000000053
 40
0.8750000000000053
 40
0.9375000000000026
 40
0.9375000000000026
 40
1.0
 40
1.0
 40
1.0
 40
1.0
 10
1389.939209888285
 20
428.212949875148
 30
0.0
 10
1389.55597463419
 20
427.9916888980333
 30
0.0
 10
1389.175233476543
 20
427.7786588157633
 30
0.0
 10
1388.420703573472
 20
427.3766698449183
 30
0.0
 10
1388.045948929152
 20
427.186896931565
 30
0.0
 10
1387.311309948721
 20
426.8510217012849
 30
0.0
 10
1386.952053691127
 20
426.7033068805843
 30
0.0
 10
1386.436927628607
 20
426.5567369723664
 30
0.0
 10
1386.267615527058
 20
426.5204513222813
 30
0.0
 10
1386.03175977256
 20
426.5048956546734
 30
0.0
 10
1385.956159879236
 20
426.5062207715686
 30
0.0
 10
1385.813245084129
 20
426.5278794435519
 30
0.0
 10
1385.745464107911
 20
426.548428217844
 30
0.0
 10
1385.68557583098
 20
426.5830047306513
 30
0.0
  0
SPLINE
  5
357
330
1F
100
AcDbEntity
  8
MIKY
  6
Continuous
 62
     7
100
AcDbSpline
210
0.0
220
0.0
230
1.0
 70
    12
 71
     2
 72
     6
 73
     3
 74
     0
 42
0.0000000638017959
 43
0.0000000001
 40
0.0
 40
0.0
 40
0.0
 40
1.0
 40
1.0
 40
1.0
 10
1388.041121512875
 20
447.1726287752292
 30
0.0
 41
1.0
 10
1388.099645030336
 20
447.1204973196826
 30
0.0
 41
0.9999764659721312
 10
1388.159392321627
 20
447.0697965962525
 30
0.0
 41
1.0
  0
SPLINE
  5
358
330
1F
100
AcDbEntity
  8
MIKY
  6
Continuous
 62
     7
100
AcDbSpline
210
0.0
220
0.0
230
1.0
 70
    12
 71
     2
 72
     6
 73
     3
 74
     0
 42
0.000000000742042
 43
0.0000000001
 40
0.0
 40
0.0
 40
0.0
 40
1.0
 40
1.0
 40
1.0
 10
1388.159392321627
 20
447.0697965962525
 30
0.0
 41
1.0
 10
1392.277987770028
 20
443.5748135729822
 30
0.0
 41
0.9039995674066598
 10
1399.621583662531
 20
446.932214034198
 30
0.0
 41
1.0
  0
SPLINE
  5
359
330
1F
100
AcDbEntity
  8
MIKY
  6
Continuous
 62
     7
100
AcDbSpline
210
0.0
220
0.0
230
1.0
 70
    12
 71
     2
 72
     6
 73
     3
 74
     0
 42
0.000000000742042
 43
0.0000000001
 40
0.0
 40
0.0
 40
0.0
 40
1.0
 40
1.0
 40
1.0
 10
1672.018352665935
 20
793.6272436880942
 30
0.0
 41
1.0
 10
1671.254148809775
 20
801.6656845167389
 30
0.0
 41
0.9039995674063674
 10
1666.168107001626
 20
803.4850012913294
 30
0.0
 41
1.0
  0
SPLINE
  5
35A
330
1F
100
AcDbEntity
  8
MIKY
  6
Continuous
 62
     7
100
AcDbSpline
210
0.0
220
0.0
230
1.0
 70
    12
 71
     2
 72
     6
 73
     3
 74
     0
 42
0.0000000208688767
 43
0.0000000001
 40
0.0
 40
0.0
 40
0.0
 40
1.0
 40
1.0
 40
1.0
 10
1666.168107001626
 20
803.4850012913294
 30
0.0
 41
1.0
 10
1665.942718486025
 20
803.5656245191162
 30
0.0
 41
0.9997804495742457
 10
1665.711612825815
 20
803.6296409416153
 30
0.0
 41
1.0
  0
SPLINE
  5
35B
330
1F
100
AcDbEntity
  8
MIKY
  6
Continuous
 62
     7
100
AcDbSpline
210
0.0
220
0.0
230
1.0
 70
    12
 71
     2
 72
     6
 73
     3
 74
     0
 42
0.0000000003316481
 43
0.0000000001
 40
0.0
 40
0.0
 40
0.0
 40
1.0
 40
1.0
 40
1.0
 10
1545.161031927854
 20
677.4416702214821
 30
0.0
 41
1.0
 10
1545.161031927854
 20
662.7381337490275
 30
0.0
 41
0.7431448254774172
 10
1557.824911847513
 20
653.8897011963624
 30
0.0
 41
1.0
  0
SPLINE
  5
35C
330
1F
100
AcDbEntity
  8
MIKY
  6
Continuous
 62
     7
100
AcDbSpline
210
0.0
220
0.0
230
1.0
 70
    12
 71
     2
 72
     6
 73
     3
 74
     0
 42
0.0000000003316481
 43
0.0000000001
 40
0.0
 40
0.0
 40
0.0
 40
1.0
 40
1.0
 40
1.0
 10
1571.889575372581
 20
678.250413013141
 30
0.0
 41
1.0
 10
1557.89466803847
 20
684.7934384577084
 30
0.0
 41
0.7431448254774087
 10
1545.161031927854
 20
677.4416702214824
 30
0.0
 41
1.0
  0
SPLINE
  5
35D
330
1F
100
AcDbEntity
  8
MIKY
  6
Continuous
 62
     7
100
AcDbSpline
210
0.0
220
0.0
230
1.0
 70
    12
 71
     2
 72
     6
 73
     3
 74
     0
 42
0.0000000003246574
 43
0.0000000001
 40
0.0
 40
0.0
 40
0.0
 40
1.0
 40
1.0
 40
1.0
 10
1557.824911847513
 20
653.8897011963626
 30
0.0
 41
1.0
 10
1570.291261559789
 20
662.9327253786865
 30
0.0
 41
0.7109592814054807
 10
1571.889575372581
 20
678.2504130131412
 30
0.0
 41
1.0
  0
SPLINE
  5
35E
330
1F
100
AcDbEntity
  8
MIKY
  6
Continuous
 62
     7
100
AcDbSpline
210
0.0
220
0.0
230
1.0
 70
    12
 71
     2
 72
     6
 73
     3
 74
     0
 42
0.0000000003246574
 43
0.0000000001
 40
0.0
 40
0.0
 40
0.0
 40
1.0
 40
1.0
 40
1.0
 10
1657.953689140867
 20
596.080324672421
 30
0.0
 41
1.0
 10
1670.420038853143
 20
605.1233488547446
 30
0.0
 41
0.7109592814054744
 10
1672.018352665935
 20
620.4410364891996
 30
0.0
 41
1.0
  0
LINE
  5
35F
330
1F
100
AcDbEntity
  8
MIKY
  6
Continuous
 62
     7
100
AcDbLine
 10
1362.9390751426
 20
422.5725738346
 30
0.0
 11
1362.9390751426
 21
655.274099399
 31
0.0
  0
SPLINE
  5
360
330
1F
100
AcDbEntity
  8
MIKY
  6
Continuous
 62
     7
100
AcDbSpline
210
0.0
220
0.0
230
1.0
 70
    12
 71
     2
 72
     6
 73
     3
 74
     0
 42
0.0000000006123724
 43
0.0000000001
 40
0.0
 40
0.0
 40
0.0
 40
1.0
 40
1.0
 40
1.0
 10
1362.939075142604
 20
422.5725738346029
 30
0.0
 41
1.0
 10
1370.01014295447
 20
418.4900909299647
 30
0.0
 41
0.7071067811865389
 10
1377.081210766336
 20
422.5725738346029
 30
0.0
 41
1.0
  0
SPLINE
  5
361
330
1F
100
AcDbEntity
  8
MIKY
  6
Continuous
 62
     7
100
AcDbSpline
210
0.0
220
0.0
230
1.0
 70
    12
 71
     2
 72
     6
 73
     3
 74
     0
 42
0.0000000017320508
 43
0.0000000001
 40
0.0
 40
0.0
 40
0.0
 40
1.0
 40
1.0
 40
1.0
 10
1375.01014295447
 20
417.9948027013965
 30
0.0
 41
1.0
 10
1377.081210766336
 20
419.1905342600872
 30
0.0
 41
0.9238795325112258
 10
1377.081210766336
 20
422.5725738346028
 30
0.0
 41
1.0
  0
LINE
  5
362
330
1F
100
AcDbEntity
  8
MIKY
  6
Continuous
 62
     7
100
AcDbLine
 10
1361.5248615802
 20
423.3890704155
 30
0.0
 11
1362.9390751426
 21
422.5725738346
 31
0.0
  0
SPLINE
  5
363
330
1F
100
AcDbEntity
  8
MIKY
  6
Continuous
 62
     7
100
AcDbSpline
210
0.0
220
0.0
230
1.0
 70
    12
 71
     2
 72
     6
 73
     3
 74
     0
 42
0.0000000017320508
 43
0.0000000001
 40
0.0
 40
0.0
 40
0.0
 40
1.0
 40
1.0
 40
1.0
 10
1361.524861580231
 20
423.3890704155305
 30
0.0
 41
1.0
 10
1361.524861580231
 20
420.0070308410146
 30
0.0
 41
0.9238795325113779
 10
1363.595929392097
 20
418.811299282324
 30
0.0
 41
1.0
  0
SPLINE
  5
364
330
1F
100
AcDbEntity
  8
MIKY
  6
Continuous
 62
     7
100
AcDbSpline
210
0.0
220
0.0
230
1.0
 70
    12
 71
     2
 72
     6
 73
     3
 74
     0
 42
0.0000000017320508
 43
0.0000000001
 40
0.0
 40
0.0
 40
0.0
 40
1.0
 40
1.0
 40
1.0
 10
1362.939075142604
 20
422.5725738346028
 30
0.0
 41
1.0
 10
1362.939075142604
 20
419.1905342600872
 30
0.0
 41
0.9238795325111874
 10
1365.01014295447
 20
417.9948027013965
 30
0.0
 41
1.0
  0
SPLINE
  5
365
330
1F
100
AcDbEntity
  8
MIKY
  6
Continuous
 62
     7
100
AcDbSpline
210
0.0
220
0.0
230
1.0
 70
    12
 71
     2
 72
     6
 73
     3
 74
     0
 42
0.0000000017320508
 43
0.0000000001
 40
0.0
 40
0.0
 40
0.0
 40
1.0
 40
1.0
 40
1.0
 10
1693.157941956722
 20
605.0595596719288
 30
0.0
 41
1.0
 10
1696.086874144857
 20
606.7505794591863
 30
0.0
 41
0.9238795325115652
 10
1696.086874144857
 20
609.142042576567
 30
0.0
 41
1.0
  0
SPLINE
  5
366
330
1F
100
AcDbEntity
  8
MIKY
  6
Continuous
 62
     7
100
AcDbSpline
210
0.0
220
0.0
230
1.0
 70
    12
 71
     2
 72
     6
 73
     3
 74
     0
 42
0.0000000017320508
 43
0.0000000001
 40
0.0
 40
0.0
 40
0.0
 40
1.0
 40
1.0
 40
1.0
 10
1691.086874144856
 20
600.4817885387223
 30
0.0
 41
1.0
 10
1693.157941956722
 20
601.677520097413
 30
0.0
 41
0.9238795325109327
 10
1693.157941956722
 20
605.0595596719286
 30
0.0
 41
1.0
  0
SPLINE
  5
367
330
1F
100
AcDbEntity
  8
MIKY
  6
Continuous
 62
     7
100
AcDbSpline
210
0.0
220
0.0
230
1.0
 70
    12
 71
     2
 72
     6
 73
     3
 74
     0
 42
0.0000000006123724
 43
0.0000000001
 40
0.0
 40
0.0
 40
0.0
 40
1.0
 40
1.0
 40
1.0
 10
1693.157941956722
 20
837.761085236344
 30
0.0
 41
1.0
 10
1693.157941956722
 20
845.9260510456216
 30
0.0
 41
0.7071067811864393
 10
1686.086874144857
 20
850.0085339502597
 30
0.0
 41
1.0
  0
SPLINE
  5
368
330
1F
100
AcDbEntity
  8
MIKY
  6
Continuous
 62
     7
100
AcDbSpline
210
0.0
220
0.0
230
1.0
 70
    12
 71
     2
 72
     6
 73
     3
 74
     0
 42
0.0000000017320508
 43
0.0000000001
 40
0.0
 40
0.0
 40
0.0
 40
1.0
 40
1.0
 40
1.0
 10
1693.157941956722
 20
837.761085236344
 30
0.0
 41
1.0
 10
1696.086874144857
 20
839.4521050236015
 30
0.0
 41
0.9238795325115652
 10
1696.086874144857
 20
841.8435681409821
 30
0.0
 41
1.0
  0
LINE
  5
369
330
1F
100
AcDbEntity
  8
MIKY
  6
Continuous
 62
     7
100
AcDbLine
 10
1684.6726605825
 20
850.8250305312
 30
0.0
 11
1544.3374552351
 21
769.8024619471
 31
0.0
  0
LINE
  5
36A
330
1F
100
AcDbEntity
  8
MIKY
  6
Continuous
 62
     7
100
AcDbLine
 10
1686.0868741449
 20
850.0085339503
 30
0.0
 11
1684.6726605825
 21
850.8250305312
 31
0.0
  0
SPLINE
  5
36B
330
1F
100
AcDbEntity
  8
MIKY
  6
Continuous
 62
     7
100
AcDbSpline
210
0.0
220
0.0
230
1.0
 70
    12
 71
     2
 72
     6
 73
     3
 74
     0
 42
0.0000000017320508
 43
0.0000000001
 40
0.0
 40
0.0
 40
0.0
 40
1.0
 40
1.0
 40
1.0
 10
1689.672660582483
 20
851.3203187597544
 30
0.0
 41
1.0
 10
1687.601592770618
 20
852.5160503184447
 30
0.0
 41
0.9238795325110613
 10
1684.672660582484
 20
850.8250305311874
 30
0.0
 41
1.0
  0
SPLINE
  5
36C
330
1F
100
AcDbEntity
  8
MIKY
  6
Continuous
 62
     7
100
AcDbSpline
210
0.0
220
0.0
230
1.0
 70
    12
 71
     2
 72
     6
 73
     3
 74
     0
 42
0.0000000017320508
 43
0.0000000001
 40
0.0
 40
0.0
 40
0.0
 40
1.0
 40
1.0
 40
1.0
 10
1691.086874144856
 20
850.5038221788267
 30
0.0
 41
1.0
 10
1689.015806332991
 20
851.6995537375172
 30
0.0
 41
0.9238795325114286
 10
1686.086874144856
 20
850.0085339502598
 30
0.0
 41
1.0
  0
LINE
  5
36D
330
1F
100
AcDbEntity
  8
MIKY
  6
Continuous
 62
     7
100
AcDbLine
 10
1370.0101429545
 20
667.5215481129
 30
0.0
 11
1514.6134797071
 21
751.0083235128
 31
0.0
  0
SPLINE
  5
36E
330
1F
100
AcDbEntity
  8
MIKY
  6
Continuous
 62
     7
100
AcDbSpline
210
0.0
220
0.0
230
1.0
 70
    12
 71
     2
 72
     6
 73
     3
 74
     0
 42
0.0000000006123724
 43
0.0000000001
 40
0.0
 40
0.0
 40
0.0
 40
1.0
 40
1.0
 40
1.0
 10
1377.081210766336
 20
655.274099399018
 30
0.0
 41
1.0
 10
1377.081210766336
 20
663.4390652082959
 30
0.0
 41
0.7071067811865741
 10
1370.01014295447
 20
667.521548112934
 30
0.0
 41
1.0
  0
SPLINE
  5
36F
330
1F
100
AcDbEntity
  8
MIKY
  6
Continuous
 62
     7
100
AcDbSpline
210
0.0
220
0.0
230
1.0
 70
    12
 71
     2
 72
     6
 73
     3
 74
     0
 42
0.0000000006123724
 43
0.0000000001
 40
0.0
 40
0.0
 40
0.0
 40
1.0
 40
1.0
 40
1.0
 10
1362.939075142604
 20
655.274099399018
 30
0.0
 41
1.0
 10
1370.01014295447
 20
651.1916164943798
 30
0.0
 41
0.7071067811865389
 10
1377.081210766336
 20
655.274099399018
 30
0.0
 41
1.0
  0
LINE
  5
370
330
1F
100
AcDbEntity
  8
MIKY
  6
Continuous
 62
     7
100
AcDbLine
 10
1368.5959293921
 20
668.3380446939
 30
0.0
 11
1370.0101429545
 21
667.5215481129
 31
0.0
  0
LINE
  5
371
330
1F
100
AcDbEntity
  8
MIKY
  6
Continuous
 62
     7
100
AcDbLine
 10
1361.5248615802
 20
656.0905959799
 30
0.0
 11
1361.5248615802
 21
423.3890704155
 31
0.0
  0
LINE
  5
372
330
1F
100
AcDbEntity
  8
MIKY
  6
Continuous
 62
     7
100
AcDbLine
 10
1362.9390751426
 20
655.274099399
 30
0.0
 11
1361.5248615802
 21
656.0905959799
 31
0.0
  0
SPLINE
  5
373
330
1F
100
AcDbEntity
  8
MIKY
  6
Continuous
 62
     7
100
AcDbSpline
210
0.0
220
0.0
230
1.0
 70
    12
 71
     2
 72
     6
 73
     3
 74
     0
 42
0.0000000006123724
 43
0.0000000001
 40
0.0
 40
0.0
 40
0.0
 40
1.0
 40
1.0
 40
1.0
 10
1368.595929392097
 20
668.3380446938617
 30
0.0
 41
1.0
 10
1361.524861580231
 20
664.2555617892233
 30
0.0
 41
0.7071067811866134
 10
1361.524861580231
 20
656.0905959799458
 30
0.0
 41
1.0
  0
SPLINE
  5
374
330
1F
100
AcDbEntity
  8
MIKY
  6
Continuous
 62
     7
100
AcDbSpline
210
0.0
220
0.0
230
1.0
 70
    12
 71
     2
 72
     6
 73
     3
 74
     0
 42
0.0000000006123724
 43
0.0000000001
 40
0.0
 40
0.0
 40
0.0
 40
1.0
 40
1.0
 40
1.0
 10
1370.01014295447
 20
667.521548112934
 30
0.0
 41
1.0
 10
1362.939075142604
 20
663.4390652082959
 30
0.0
 41
0.707106781186521
 10
1362.939075142604
 20
655.2740993990182
 30
0.0
 41
1.0
  0
LINE
  5
375
330
1F
100
AcDbEntity
  8
MIKY
  6
Continuous
 62
     7
100
AcDbLine
 10
1406.6540642469
 20
792.0568725377
 30
0.0
 11
1372.3138586178
 21
772.2305455737
 31
0.0
  0
LINE
  5
376
330
1F
100
AcDbEntity
  8
MIKY
  6
Continuous
 62
     7
100
AcDbLine
 10
1477.1210721249
 20
832.741018505
 30
0.0
 11
1454.5424770587
 21
819.7052605656
 31
0.0
  0
LINE
  5
377
330
1F
100
AcDbEntity
  8
MIKY
  6
Continuous
 62
     7
100
AcDbLine
 10
1387.7854605229
 20
444.3788645936
 30
0.0
 11
1387.7854605229
 21
631.6454792747
 31
0.0
  0
LINE
  5
378
330
1F
100
AcDbEntity
  8
MIKY
  6
Continuous
 62
     7
100
AcDbLine
 10
1397.7854605229
 20
648.9659873503
 30
0.0
 11
1668.3115565764
 21
805.1543017297
 31
0.0
  0
LINE
  5
379
330
1F
100
AcDbEntity
  8
MIKY
  6
Continuous
 62
     7
100
AcDbLine
 10
1375.0101429545
 20
417.9948027014
 30
0.0
 11
1691.0868741449
 21
600.4817885387
 31
0.0
  0
LINE
  5
37A
330
1F
100
AcDbEntity
  8
MIKY
  6
Continuous
 62
     7
100
AcDbLine
 10
1696.0868741449
 20
609.1420425766
 30
0.0
 11
1696.0868741449
 21
841.843568141
 31
0.0
  0
LINE
  5
37B
330
1F
100
AcDbEntity
  8
MIKY
  6
Continuous
 62
     7
100
AcDbLine
 10
1544.4124695803
 20
760.0478125284
 30
0.0
 11
1544.4124695803
 21
768.8694349493
 31
0.0
  0
LINE
  5
37C
330
1F
100
AcDbEntity
  8
MIKY
  6
Continuous
 62
     7
100
AcDbLine
 10
1258.1803132335
 20
521.4653457181
 30
0.0
 11
1361.5248615802
 21
448.5997296702
 31
0.0
  0
LINE
  5
37D
330
1F
100
AcDbEntity
  8
MIKY
  6
Continuous
 62
     7
100
AcDbLine
 10
1659.5714612288
 20
836.3328463274
 30
0.0
 11
1527.9112972246
 21
897.2054973025
 31
0.0
  0
LINE
  5
37E
330
1F
100
AcDbEntity
  8
MIKY
  6
Continuous
 62
     7
100
AcDbLine
 10
1452.1873140041
 20
855.1394348631
 30
0.0
 11
1452.1873140041
 21
839.6709254197
 31
0.0
  0
LINE
  5
37F
330
1F
100
AcDbEntity
  8
MIKY
  6
Continuous
 62
     7
100
AcDbLine
 10
1518.5864627564
 20
896.3617526151
 30
0.0
 11
1454.6873140041
 21
859.4695618821
 31
0.0
  0
ARC
  5
380
330
1F
100
AcDbEntity
  8
MIKY
  6
Continuous
 62
     7
100
AcDbCircle
 10
1524.0047337882
 20
888.0493683116
 30
0.0
 40
9.92236835564036
100
AcDbArc
 50
66.9690695905
 51
123.0975613888
  0
ARC
  5
381
330
1F
100
AcDbEntity
  8
MIKY
  6
Continuous
 62
     7
100
AcDbCircle
 10
1264.1367718466
 20
529.4094507417
 30
0.0
 40
9.90364017864126
100
AcDbArc
 50
176.7972490886
 51
232.6020804715
  0
LINE
  5
382
330
1F
100
AcDbEntity
  8
MIKY
  6
Continuous
 62
     7
100
AcDbLine
 10
1254.2486003329
 20
732.7056892346
 30
0.0
 11
1254.2486003329
 21
529.9627615975
 31
0.0
  0
LINE
  5
383
330
1F
100
AcDbEntity
  8
MIKY
  6
Continuous
 62
     7
100
AcDbLine
 10
1327.7091262443
 20
786.1586709977
 30
0.0
 11
1263.8099774921
 21
749.2664802646
 31
0.0
  0
ARC
  5
384
330
1F
100
AcDbEntity
  8
MIKY
  6
Continuous
 62
     7
100
AcDbCircle
 10
1274.7672796998
 20
731.8997515321
 30
0.0
 40
20.5345011759025
100
AcDbArc
 50
122.2493213689
 51
177.7506786311
  0
ARC
  5
385
330
1F
100
AcDbEntity
  8
MIKY
  6
Continuous
 62
     7
100
AcDbCircle
 10
1330.2091262443
 20
781.8285439788
 30
0.0
 40
4.999999999999986
100
AcDbArc
 50
67.5706713384
 51
120.0
  0
LINE
  5
386
330
1F
100
AcDbEntity
  8
MIKY
  6
Continuous
 62
     7
100
AcDbLine
 10
1361.5880795328
 20
774.2854792188
 30
0.0
 11
1332.1168441673
 21
786.4502982265
 31
0.0
  0
ARC
  5
387
330
1F
100
AcDbEntity
  8
MIKY
  6
Continuous
 62
     7
100
AcDbCircle
 10
1375.0764775688
 20
813.862572348
 30
0.0
 40
41.80464042242544
100
AcDbArc
 50
251.1980016302
 51
270.2907706627
  0
ARC
  5
388
330
1F
100
AcDbEntity
  8
MIKY
  6
Continuous
 62
     7
100
AcDbCircle
 10
1457.1873140041
 20
839.6709254197
 30
0.0
 40
4.999999999999992
100
AcDbArc
 50
180.0
 51
226.756685
  0
LINE
  5
389
330
1F
100
AcDbEntity
  8
MIKY
  6
Continuous
 62
     7
100
AcDbLine
 10
1453.7618239902
 20
836.0286708756
 30
0.0
 11
1464.8131600722
 21
825.6350421682
 31
0.0
  0
ARC
  5
38A
330
1F
100
AcDbEntity
  8
MIKY
  6
Continuous
 62
     7
100
AcDbCircle
 10
1457.1873140041
 20
855.1394348631
 30
0.0
 40
5.000000000000003
100
AcDbArc
 50
120.0
 51
180.0
  0
LINE
  5
38B
330
1F
100
AcDbEntity
  8
MIKY
  6
Continuous
 62
     7
100
AcDbLine
 10
1395.7830269334
 20
820.8870508209
 30
0.0
 11
1387.1189067286
 21
780.7782440858
 31
0.0
  0
ARC
  5
38C
330
1F
100
AcDbEntity
  8
MIKY
  6
Continuous
 62
     7
100
AcDbCircle
 10
1400.6703003904
 20
819.8313244567
 30
0.0
 40
4.999999999999983
100
AcDbArc
 50
120.0
 51
167.8105234034
  0
LINE
  5
38D
330
1F
100
AcDbEntity
  8
MIKY
  6
Continuous
 62
     7
100
AcDbLine
 10
1417.9692902636
 20
835.5924036087
 30
0.0
 11
1398.1703003904
 21
824.1614514757
 31
0.0
  0
ARC
  5
38E
330
1F
100
AcDbEntity
  8
MIKY
  6
Continuous
 62
     7
100
AcDbCircle
 10
1420.4692902636
 20
831.2622765897
 30
0.0
 40
5.000000000000011
100
AcDbArc
 50
63.2759165639
 51
120.0
  0
LINE
  5
38F
330
1F
100
AcDbEntity
  8
MIKY
  6
Continuous
 62
     7
100
AcDbLine
 10
1539.9707395803
 20
776.6943193658
 30
0.0
 11
1422.7177626357
 21
835.7281888137
 31
0.0
  0
LINE
  5
390
330
1F
100
AcDbEntity
  8
MIKY
  6
Continuous
 62
     7
100
AcDbLine
 10
1540.4480034863
 20
776.4365349793
 30
0.0
 11
1539.9707395803
 21
776.6943193658
 31
0.0
  0
ARC
  5
391
330
1F
100
AcDbEntity
  8
MIKY
  6
Continuous
 62
     7
100
AcDbCircle
 10
1535.9793190476
 20
769.2747278669
 30
0.0
 40
8.44160066143223
100
AcDbArc
 50
356.9594070896
 51
58.0374674932
  0
ARC
  5
392
330
1F
100
AcDbEntity
  8
MIKY
  6
Continuous
 62
     7
100
AcDbCircle
 10
1407.7854605229
 20
631.6454792747
 30
0.0
 40
20.0
100
AcDbArc
 50
120.2068836928
 51
179.9627994249
  0
SPLINE
  5
393
330
1F
100
AcDbEntity
  8
MIKY
  6
Continuous
 62
     7
100
AcDbSpline
210
0.0
220
0.0
230
1.0
 70
     8
 71
     3
 72
     9
 73
     5
 74
     0
 42
0.0000000018932629
 43
0.0000000001
 40
0.0
 40
0.0
 40
0.0
 40
0.0
 40
0.075575167309574
 40
0.1014397875278176
 40
0.1014397875278176
 40
0.1014397875278176
 40
0.1014397875278176
 10
1388.159392321627
 20
447.0697965962524
 30
0.0
 10
1388.043828597353
 20
447.1727194920048
 30
0.0
 10
1387.914639142214
 20
447.2879142454362
 30
0.0
 10
1387.798036980595
 20
447.4064155225066
 30
0.0
 10
1387.769240743299
 20
447.4365820712155
 30
0.0
  0
SPLINE
  5
394
330
1F
100
AcDbEntity
  8
MIKY
  6
Continuous
 62
     7
100
AcDbSpline
210
0.0
220
0.0
230
1.0
 70
     8
 71
     3
 72
     8
 73
     4
 74
     0
 42
0.0000000018592958
 43
0.0000000001
 40
0.8994837992775113
 40
0.8994837992775113
 40
0.8994837992775113
 40
0.8994837992775113
 40
1.0
 40
1.0
 40
1.0
 40
1.0
 10
1665.649381373153
 20
803.6369464692838
 30
0.0
 10
1665.803584339935
 20
803.5965271386334
 30
0.0
 10
1665.973028384089
 20
803.5444285056211
 30
0.0
 10
1666.168107001626
 20
803.4850012913294
 30
0.0
  0
LINE
  5
395
330
1F
100
AcDbEntity
  8
MIKY
  6
Continuous
 62
     7
100
AcDbLine
 10
1363.5959293921
 20
418.8112992823
 30
0.0
 11
1365.0101429545
 21
417.9948027014
 31
0.0
  0
ARC
  5
396
330
1F
100
AcDbEntity
  8
MIKY
  6
Continuous
 62
     7
100
AcDbCircle
 10
1370.0101429545
 20
426.6550567392
 30
0.0
 40
10.00000000000001
100
AcDbArc
 50
240.0
 51
300.0
  0
ARC
  5
397
330
1F
100
AcDbEntity
  8
MIKY
  6
Continuous
 62
     7
100
AcDbCircle
 10
1686.0868741449
 20
609.1420425766
 30
0.0
 40
10.0
100
AcDbArc
 50
300.0
 51
360.0
  0
LINE
  5
398
330
1F
100
AcDbEntity
  8
MIKY
  6
Continuous
 62
     7
100
AcDbLine
 10
1691.0868741449
 20
850.5038221788
 30
0.0
 11
1689.6726605825
 21
851.3203187598
 31
0.0
  0
ARC
  5
399
330
1F
100
AcDbEntity
  8
MIKY
  6
Continuous
 62
     7
100
AcDbCircle
 10
1686.0868741449
 20
841.843568141
 30
0.0
 40
9.999999999999991
100
AcDbArc
 50
0.0
 51
60.0
  0
INSERT
  5
39B
330
1F
100
AcDbEntity
  8
Default
100
AcDbBlockReference
  2
GDimGGroup
 10
0.0
 20
0.0
 30
0.0
  0
INSERT
  5
3A5
330
1F
100
AcDbEntity
  8
Default
100
AcDbBlockReference
  2
GDimGGroup1
 10
0.0
 20
0.0
 30
0.0
  0
INSERT
  5
3AF
330
1F
100
AcDbEntity
  8
Default
100
AcDbBlockReference
  2
GDimGGroup2
 10
0.0
 20
0.0
 30
0.0
  0
INSERT
  5
3B9
330
1F
100
AcDbEntity
  8
Default
100
AcDbBlockReference
  2
GDimGGroup3
 10
0.0
 20
0.0
 30
0.0
  0
INSERT
  5
3C3
330
1F
100
AcDbEntity
  8
Default
100
AcDbBlockReference
  2
GDimGGroup4
 10
0.0
 20
0.0
 30
0.0
  0
INSERT
  5
3CF
330
1F
100
AcDbEntity
  8
Default
100
AcDbBlockReference
  2
GDimGGroup5
 10
0.0
 20
0.0
 30
0.0
  0
INSERT
  5
3DA
330
1F
100
AcDbEntity
  8
Default
100
AcDbBlockReference
  2
GDimGGroup6
 10
0.0
 20
0.0
 30
0.0
  0
INSERT
  5
3E4
330
1F
100
AcDbEntity
  8
Default
100
AcDbBlockReference
  2
GDimGGroup7
 10
0.0
 20
0.0
 30
0.0
  0
INSERT
  5
3EE
330
1F
100
AcDbEntity
  8
Default
100
AcDbBlockReference
  2
GDimGGroup8
 10
0.0
 20
0.0
 30
0.0
  0
INSERT
  5
3F8
330
1F
100
AcDbEntity
  8
Default
100
AcDbBlockReference
  2
GDimGGroup9
 10
0.0
 20
0.0
 30
0.0
  0
INSERT
  5
402
330
1F
100
AcDbEntity
  8
Default
100
AcDbBlockReference
  2
GDimGGroup10
 10
0.0
 20
0.0
 30
0.0
  0
INSERT
  5
40C
330
1F
100
AcDbEntity
  8
Default
100
AcDbBlockReference
  2
GDimGGroup11
 10
0.0
 20
0.0
 30
0.0
  0
INSERT
  5
416
330
1F
100
AcDbEntity
  8
Default
100
AcDbBlockReference
  2
GDimGGroup12
 10
0.0
 20
0.0
 30
0.0
  0
INSERT
  5
420
330
1F
100
AcDbEntity
  8
Default
100
AcDbBlockReference
  2
GDimGGroup13
 10
0.0
 20
0.0
 30
0.0
  0
INSERT
  5
42A
330
1F
100
AcDbEntity
  8
Default
100
AcDbBlockReference
  2
GDimGGroup14
 10
0.0
 20
0.0
 30
0.0
  0
INSERT
  5
434
330
1F
100
AcDbEntity
  8
Default
100
AcDbBlockReference
  2
GDimGGroup15
 10
0.0
 20
0.0
 30
0.0
  0
INSERT
  5
43E
330
1F
100
AcDbEntity
  8
Default
100
AcDbBlockReference
  2
GDimGGroup16
 10
0.0
 20
0.0
 30
0.0
  0
INSERT
  5
448
330
1F
100
AcDbEntity
  8
Default
100
AcDbBlockReference
  2
GDimGGroup17
 10
0.0
 20
0.0
 30
0.0
  0
INSERT
  5
452
330
1F
100
AcDbEntity
  8
Default
100
AcDbBlockReference
  2
GDimGGroup18
 10
0.0
 20
0.0
 30
0.0
  0
INSERT
  5
45C
330
1F
100
AcDbEntity
  8
Default
100
AcDbBlockReference
  2
GDimGGroup19
 10
0.0
 20
0.0
 30
0.0
  0
INSERT
  5
466
330
1F
100
AcDbEntity
  8
Default
100
AcDbBlockReference
  2
GDimGGroup20
 10
0.0
 20
0.0
 30
0.0
  0
INSERT
  5
470
330
1F
100
AcDbEntity
  8
Default
100
AcDbBlockReference
  2
GDimGGroup21
 10
0.0
 20
0.0
 30
0.0
  0
INSERT
  5
47A
330
1F
100
AcDbEntity
  8
Default
100
AcDbBlockReference
  2
GDimGGroup22
 10
0.0
 20
0.0
 30
0.0
  0
INSERT
  5
484
330
1F
100
AcDbEntity
  8
Default
100
AcDbBlockReference
  2
GDimGGroup23
 10
0.0
 20
0.0
 30
0.0
  0
INSERT
  5
48E
330
1F
100
AcDbEntity
  8
Default
100
AcDbBlockReference
  2
GDimGGroup24
 10
0.0
 20
0.0
 30
0.0
  0
INSERT
  5
498
330
1F
100
AcDbEntity
  8
Default
100
AcDbBlockReference
  2
GDimGGroup25
 10
0.0
 20
0.0
 30
0.0
  0
INSERT
  5
4A2
330
1F
100
AcDbEntity
  8
Default
100
AcDbBlockReference
  2
GDimGGroup26
 10
0.0
 20
0.0
 30
0.0
  0
INSERT
  5
4AC
330
1F
100
AcDbEntity
  8
Default
100
AcDbBlockReference
  2
GDimGGroup27
 10
0.0
 20
0.0
 30
0.0
  0
INSERT
  5
4B6
330
1F
100
AcDbEntity
  8
Default
100
AcDbBlockReference
  2
GDimGGroup28
 10
0.0
 20
0.0
 30
0.0
  0
INSERT
  5
4C1
330
1F
100
AcDbEntity
  8
Default
100
AcDbBlockReference
  2
GDimGGroup29
 10
0.0
 20
0.0
 30
0.0
  0
TEXT
  5
4CA
330
1F
100
AcDbEntity
  8
1
  6
Continuous
 62
     7
100
AcDbText
 10
1514.3071496018
 20
111.0378243887
 30
0.0
 40
9.7671669079
  1
DENOMINAZIONE
  7
SEACAD_seiso_ttf
 11
1514.3071496018
 21
120.8049912966
 31
0.0
100
AcDbText
 73
     3
  0
TEXT
  5
4CC
330
1F
100
AcDbEntity
  8
1
  6
Continuous
 62
     7
100
AcDbText
 10
1782.3288956567
 20
138.3529109289
 30
0.0
 40
22.4
  1
±5 %
  7
SEACAD_seiso_ttf
 11
1782.3288956567
 21
160.7529109289
 31
0.0
100
AcDbText
 73
     3
  0
TEXT
  5
4CD
330
1F
100
AcDbEntity
  8
1
  6
Continuous
 62
     7
100
AcDbText
 10
2205.0490690237
 20
202.8255895997
 30
0.0
 40
25.6
  1
1 : 8
  7
SEACAD_seiso_ttf
 11
2205.0490690237
 21
228.4255895997
 31
0.0
100
AcDbText
 73
     3
  0
LINE
  5
4CE
330
1F
100
AcDbEntity
  8
1
  6
Continuous
 62
     7
100
AcDbLine
 10
1494.2462144373
 20
129.1836513288
 30
0.0
 11
2274.8527005592
 21
129.1836513288
 31
0.0
  0
LINE
  5
4CF
330
1F
100
AcDbEntity
  8
1
  6
Continuous
 62
     7
100
AcDbLine
 10
710.3427320008
 20
58.4755619034
 30
0.0
 11
2274.8527005592
 21
58.4755619034
 31
0.0
  0
INSERT
  5
4D1
330
1F
100
AcDbEntity
  8
Default
100
AcDbBlockReference
  2
SEANNOT_GROUP4
 10
0.0
 20
0.0
 30
0.0
  0
TEXT
  5
4D6
330
1F
100
AcDbEntity
  8
Predefinito
  6
Continuous
 62
     7
100
AcDbText
 10
1304.1391382158
 20
206.6542003732
 30
0.0
 40
12.8
  1
SCARABEO CERAMICHE SRL
  7
SEACAD_seiso_ttfBI
 11
1304.1391382158
 21
219.4542003732
 31
0.0
100
AcDbText
 73
     3
  0
TEXT
  5
4D8
330
1F
100
AcDbEntity
  8
Predefinito
  6
Continuous
 62
     7
100
AcDbText
 10
1338.9027745794
 20
185.7087458277
 30
0.0
 40
12.8
  1
ROMA - ITALY
  7
SEACAD_seiso_ttfBI
 11
1338.9027745794
 21
198.5087458277
 31
0.0
100
AcDbText
 73
     3
  0
TEXT
  5
4D9
330
1F
100
AcDbEntity
  8
Predefinito
  6
Continuous
 62
     7
100
AcDbText
 10
1281.7188050958
 20
263.1091153163
 30
0.0
 40
11.2
  1
I.D.R.
  7
SEACAD_seiso_ttf
 11
1281.7188050958
 21
274.3091153163
 31
0.0
100
AcDbText
 73
     3
  0
TEXT
  5
4DA
330
1F
100
AcDbEntity
  8
Predefinito
  6
Continuous
 62
     7
100
AcDbText
 10
1288.2907602875
 20
289.4505901793
 30
0.0
 40
16.0
  1
1
  7
SEACAD_seiso_ttf
 11
1288.2907602875
 21
305.4505901793
 31
0.0
100
AcDbText
 73
     3
  0
LINE
  5
4DB
330
1F
100
AcDbEntity
  8
1
  6
Continuous
 62
     7
100
AcDbLine
 10
2032.7016558042
 20
257.1836513288
 30
0.0
 11
2032.7016558042
 21
378.7836513288
 31
0.0
  0
TEXT
  5
4DC
330
1F
100
AcDbEntity
  8
Predefinito
  6
Continuous
 62
     7
100
AcDbText
 10
1558.8327152255
 20
259.6992742532
 30
0.0
 40
14.0
  1
DESCRIZIONE
  7
SEACAD_seiso_ttf
 11
1558.8327152255
 21
273.6992742532
 31
0.0
100
AcDbText
 73
     3
  0
TEXT
  5
4DD
330
1F
100
AcDbEntity
  8
Predefinito
  6
Continuous
 62
     7
100
AcDbText
 10
2080.6610891648
 20
261.6617431862
 30
0.0
 40
11.2
  1
DATA
  7
SEACAD_seiso_ttf
 11
2080.6610891648
 21
272.8617431862
 31
0.0
100
AcDbText
 73
     3
  0
TEXT
  5
4DE
330
1F
100
AcDbEntity
  8
Predefinito
  6
Continuous
 62
     7
100
AcDbText
 10
2198.7592237026
 20
263.09888744
 30
0.0
 40
11.2
  1
FIRMA
  7
SEACAD_seiso_ttf
 11
2198.7592237026
 21
274.29888744
 31
0.0
100
AcDbText
 73
     3
  0
INSERT
  5
4E0
330
1F
100
AcDbEntity
  8
Default
100
AcDbBlockReference
  2
SEANNOT_GROUP5
 10
0.0
 20
0.0
 30
0.0
  0
LINE
  5
4E5
330
1F
100
AcDbEntity
  8
1
  6
Continuous
 62
     7
100
AcDbLine
 10
2183.0958279606
 20
257.1836513288
 30
0.0
 11
2183.0958279606
 21
193.1836513288
 31
0.0
  0
CIRCLE
  5
4E6
330
1F
100
AcDbEntity
  8
1
  6
Continuous
 62
     7
100
AcDbCircle
 10
2144.406079028
 20
225.1057846513
 30
0.0
 40
18.23294462732581
  0
CIRCLE
  5
4E7
330
1F
100
AcDbEntity
  8
1
  6
Continuous
 62
     7
100
AcDbCircle
 10
2144.406079028
 20
225.1057846513
 30
0.0
 40
9.116472313662907
  0
INSERT
  5
4E9
330
1F
100
AcDbEntity
  8
Predefinito
100
AcDbBlockReference
  2
SEANNOT_GROUP6
 10
0.0
 20
0.0
 30
0.0
  0
LINE
  5
4EE
330
1F
100
AcDbEntity
  8
1
  6
Continuous
 62
     7
100
AcDbLine
 10
2100.28245117
 20
243.3387292787
 30
0.0
 11
2100.28245117
 21
206.872840024
 31
0.0
  0
LINE
  5
4EF
330
1F
100
AcDbEntity
  8
1
  6
Continuous
 62
     7
100
AcDbLine
 10
2056.7891608529
 20
234.222256965
 30
0.0
 11
2056.7891608529
 21
215.9893123377
 31
0.0
  0
LINE
  5
4F0
330
1F
100
AcDbEntity
  8
1
  6
Continuous
 62
     7
100
AcDbLine
 10
2056.7891608529
 20
234.222256965
 30
0.0
 11
2100.28245117
 21
243.3387292787
 31
0.0
  0
LINE
  5
4F1
330
1F
100
AcDbEntity
  8
1
  6
Continuous
 62
     7
100
AcDbLine
 10
2056.7891608529
 20
215.9893123377
 30
0.0
 11
2100.28245117
 21
206.872840024
 31
0.0
  0
INSERT
  5
4F3
330
1F
100
AcDbEntity
  8
Predefinito
100
AcDbBlockReference
  2
SEANNOT_GROUP7
 10
0.0
 20
0.0
 30
0.0
  0
LINE
  5
4F7
330
1F
100
AcDbEntity
  8
1
  6
Continuous
 62
     7
100
AcDbLine
 10
1265.0347448603
 20
282.7938792051
 30
0.0
 11
2274.8527005592
 21
282.7938792051
 31
0.0
  0
LINE
  5
4F8
330
1F
100
AcDbEntity
  8
1
  6
Continuous
 62
     7
100
AcDbLine
 10
1265.0347448603
 20
314.7938792051
 30
0.0
 11
2274.8527005592
 21
314.7938792051
 31
0.0
  0
LINE
  5
4F9
330
1F
100
AcDbEntity
  8
1
  6
Continuous
 62
     7
100
AcDbLine
 10
1265.0347448603
 20
346.7938792051
 30
0.0
 11
2274.8527005592
 21
346.7938792051
 31
0.0
  0
LINE
  5
4FA
330
1F
100
AcDbEntity
  8
1
  6
Continuous
 62
     7
100
AcDbLine
 10
1265.0347448603
 20
378.7938792051
 30
0.0
 11
2274.8527005592
 21
378.7938792051
 31
0.0
  0
TEXT
  5
4FB
330
1F
100
AcDbEntity
  8
Predefinito
  6
Continuous
 62
     7
100
AcDbText
 10
1287.3816693784
 20
353.4505901793
 30
0.0
 40
16.0
  1
3
  7
SEACAD_seiso_ttf
 11
1287.3816693784
 21
369.4505901793
 31
0.0
100
AcDbText
 73
     3
  0
TEXT
  5
4FC
330
1F
100
AcDbEntity
  8
Predefinito
  6
Continuous
 62
     7
100
AcDbText
 10
1286.6543966511
 20
321.4505901793
 30
0.0
 40
16.0
  1
2
  7
SEACAD_seiso_ttf
 11
1286.6543966511
 21
337.4505901793
 31
0.0
100
AcDbText
 73
     3
  0
LINE
  5
4FD
330
1F
100
AcDbEntity
  8
1
  6
Continuous
 62
     7
100
AcDbLine
 10
2183.0958279606
 20
129.1836513288
 30
0.0
 11
2183.0958279606
 21
193.1836513288
 31
0.0
  0
LINE
  5
4FE
330
1F
100
AcDbEntity
  8
1
  6
Continuous
 62
     7
100
AcDbLine
 10
2183.0958279606
 20
129.1836513288
 30
0.0
 11
2183.0958279606
 21
59.7716518368
 31
0.0
  0
LINE
  5
4FF
330
1F
100
AcDbEntity
  8
1
  6
Continuous
 62
     7
100
AcDbLine
 10
1494.2462144373
 20
193.1836513288
 30
0.0
 11
2274.8527005592
 21
193.1836513288
 31
0.0
  0
LINE
  5
500
330
1F
100
AcDbEntity
  8
1
  6
Continuous
 62
     7
100
AcDbLine
 10
1265.0347448603
 20
257.1836513288
 30
0.0
 11
2274.8527005592
 21
257.1836513288
 31
0.0
  0
TEXT
  5
501
330
1F
100
AcDbEntity
  8
1
  6
Continuous
 62
     7
100
AcDbText
 10
2188.6339626062
 20
240.8124116653
 30
0.0
 40
9.792
  1
SCALA
  7
SEACAD_seiso_ttf
 11
2188.6339626062
 21
250.6044116653
 31
0.0
100
AcDbText
 73
     3
  0
TEXT
  5
502
330
1F
100
AcDbEntity
  8
1
  6
Continuous
 62
     7
100
AcDbText
 10
2188.6339626062
 20
112.8124116653
 30
0.0
 40
9.792
  1
FOGLIO
  7
SEACAD_seiso_ttf
 11
2188.6339626062
 21
122.6044116653
 31
0.0
100
AcDbText
 73
     3
  0
TEXT
  5
503
330
1F
100
AcDbEntity
  8
1
  6
Continuous
 62
     7
100
AcDbText
 10
1625.4525939107
 20
175.1639004174
 30
0.0
 40
9.792
  1
DISEGNATO
  7
SEACAD_seiso_ttf
 11
1625.4525939107
 21
184.9559004174
 31
0.0
100
AcDbText
 73
     3
  0
TEXT
  5
504
330
1F
100
AcDbEntity
  8
1
  6
Continuous
 62
     7
100
AcDbText
 10
1509.9235459944
 20
172.298385482
 30
0.0
 40
9.792
  1
DATA
  7
SEACAD_seiso_ttf
 11
1509.9235459944
 21
182.090385482
 31
0.0
100
AcDbText
 73
     3
  0
TEXT
  5
505
330
1F
100
AcDbEntity
  8
1
  6
Continuous
 62
     7
100
AcDbText
 10
1737.1319663657
 20
166.2832100579
 30
0.0
 40
9.792
  1
TOLL. GENER.
  7
SEACAD_seiso_ttf
 11
1737.1319663657
 21
176.0752100579
 31
0.0
100
AcDbText
 73
     3
  0
TEXT
  5
506
330
1F
100
AcDbEntity
  8
1
  6
Continuous
 62
     7
100
AcDbText
 10
1503.784089916
 20
239.1203033714
 30
0.0
 40
9.792
  1
MATERIALE
  7
SEACAD_seiso_ttf
 11
1503.784089916
 21
248.9123033714
 31
0.0
100
AcDbText
 73
     3
  0
TEXT
  5
507
330
1F
100
AcDbEntity
  8
Predefinito
  6
Continuous
 62
     7
100
AcDbText
 10
1287.2847575326
 20
145.0412057573
 30
0.0
 40
10.24
  1
Documento riservato a termini di legge
  7
SEACAD_seiso_ttf
 11
1287.2847575326
 21
155.2812057573
 31
0.0
100
AcDbText
 73
     3
  0
TEXT
  5
508
330
1F
100
AcDbEntity
  8
Predefinito
  6
Continuous
 62
     7
100
AcDbText
 10
1283.4447575326
 20
128.2848421209
 30
0.0
 40
10.24
  1
con divieto di riproduzione o di renderlo
  7
SEACAD_seiso_ttf
 11
1283.4447575326
 21
138.5248421209
 31
0.0
100
AcDbText
 73
     3
  0
TEXT
  5
509
330
1F
100
AcDbEntity
  8
Predefinito
  6
Continuous
 62
     7
100
AcDbText
 10
1312.0702120781
 20
111.5284784846
 30
0.0
 40
10.24
  1
comunque noto a terzi senza 
  7
SEACAD_seiso_ttf
 11
1312.0702120781
 21
121.7684784846
 31
0.0
100
AcDbText
 73
     3
  0
TEXT
  5
50A
330
1F
100
AcDbEntity
  8
Predefinito
  6
Continuous
 62
     7
100
AcDbText
 10
1328.2447575326
 20
94.7721148482
 30
0.0
 40
10.24
  1
autorizzazione scritta
  7
SEACAD_seiso_ttf
 11
1328.2447575326
 21
105.0121148482
 31
0.0
100
AcDbText
 73
     3
  0
INSERT
  5
50C
330
1F
100
AcDbEntity
  8
Predefinito
100
AcDbBlockReference
  2
SEANNOT_GROUP8
 10
0.0
 20
0.0
 30
0.0
  0
INSERT
  5
511
330
1F
100
AcDbEntity
  8
Predefinito
100
AcDbBlockReference
  2
SEANNOT_GROUP9
 10
0.0
 20
0.0
 30
0.0
  0
TEXT
  5
514
330
1F
100
AcDbEntity
  8
1
  6
Continuous
 62
     7
100
AcDbText
 10
2187.2490642928
 20
175.3171056733
 30
0.0
 40
9.792
  1
REV.
  7
SEACAD_seiso_ttf
 11
2187.2490642928
 21
185.1091056733
 31
0.0
100
AcDbText
 73
     3
  0
LINE
  5
515
330
1F
100
AcDbEntity
  8
1
  6
Continuous
 62
     7
100
AcDbLine
 10
2032.7016558042
 20
257.1836513288
 30
0.0
 11
2032.7016558042
 21
193.1836513288
 31
0.0
  0
INSERT
  5
517
330
1F
100
AcDbEntity
  8
Predefinito
100
AcDbBlockReference
  2
SEANNOT_GROUP10
 10
0.0
 20
0.0
 30
0.0
  0
TEXT
  5
51B
330
1F
100
AcDbEntity
  8
1
  6
Continuous
 62
     7
100
AcDbText
 10
1876.9950404566
 20
240.8124116653
 30
0.0
 40
9.792
  1
NOTE
  7
SEACAD_seiso_ttf
 11
1876.9950404566
 21
250.6044116653
 31
0.0
100
AcDbText
 73
     3
  0
INSERT
  5
51D
330
1F
100
AcDbEntity
  8
Predefinito
100
AcDbBlockReference
  2
SEANNOT_GROUP11
 10
0.0
 20
0.0
 30
0.0
  0
TEXT
  5
520
330
1F
100
AcDbEntity
  8
1
  6
Continuous
 62
     7
100
AcDbText
 10
1876.2014387746
 20
175.8456536957
 30
0.0
 40
9.792
  1
CODICE
  7
SEACAD_seiso_ttf
 11
1876.2014387746
 21
185.6376536957
 31
0.0
100
AcDbText
 73
     3
  0
INSERT
  5
522
330
1F
100
AcDbEntity
  8
Predefinito
100
AcDbBlockReference
  2
SEANNOT_GROUP12
 10
0.0
 20
0.0
 30
0.0
  0
LINE
  5
526
330
1F
100
AcDbEntity
  8
1
  6
Continuous
 62
     7
100
AcDbLine
 10
2154.3016558042
 20
257.1836513288
 30
0.0
 11
2154.3016558042
 21
378.7836513288
 31
0.0
  0
INSERT
  5
528
330
1F
100
AcDbEntity
  8
Predefinito
100
AcDbBlockReference
  2
SEANNOT_GROUP13
 10
0.0
 20
0.0
 30
0.0
  0
LINE
  5
52C
330
1F
100
AcDbEntity
  8
1
  6
Continuous
 62
     7
100
AcDbLine
 10
2274.8527005593
 20
58.2501321268
 30
0.0
 11
86.8513052672
 21
58.2501321268
 31
0.0
  0
LINE
  5
52D
330
1F
100
AcDbEntity
  8
1
  6
Continuous
 62
     7
100
AcDbLine
 10
86.8513052672
 20
1622.7601006853
 30
0.0
 11
2274.8527005592
 21
1622.7601006853
 31
0.0
  0
LINE
  5
52E
330
1F
100
AcDbEntity
  8
1
  6
Continuous
 62
     7
100
AcDbLine
 10
86.8513052672
 20
1622.7601006853
 30
0.0
 11
86.8513052672
 21
58.2501321268
 31
0.0
  0
LINE
  5
52F
330
1F
100
AcDbEntity
  8
1
  6
Continuous
 62
     7
100
AcDbLine
 10
2274.8527005593
 20
1622.7601006853
 30
0.0
 11
2274.8527005593
 21
58.2501321268
 31
0.0
  0
LINE
  5
530
330
1F
100
AcDbEntity
  8
Predefinito
  6
Continuous
 62
     7
100
AcDbLine
 10
1859.4824493559
 20
257.1836513288
 30
0.0
 11
1859.4824493559
 21
129.1836513288
 31
0.0
  0
LINE
  5
531
330
1F
100
AcDbEntity
  8
Predefinito
  6
Continuous
 62
     7
100
AcDbLine
 10
1727.6687623254
 20
193.1836513288
 30
0.0
 11
1727.6687623254
 21
129.1836513288
 31
0.0
  0
LINE
  5
532
330
1F
100
AcDbEntity
  8
Predefinito
  6
Continuous
 62
     7
100
AcDbLine
 10
1613.7140107017
 20
193.1836513288
 30
0.0
 11
1613.7140107017
 21
129.1836513288
 31
0.0
  0
LINE
  5
533
330
1F
100
AcDbEntity
  8
Predefinito
  6
Continuous
 62
     7
100
AcDbLine
 10
1494.2462144373
 20
257.1836513288
 30
0.0
 11
1494.2462144373
 21
59.5913080155
 31
0.0
  0
LINE
  5
534
330
1F
100
AcDbEntity
  8
Predefinito
  6
Continuous
 62
     7
100
AcDbLine
 10
1613.7140107017
 20
59.7716518368
 30
0.0
 11
1613.7140107017
 21
59.5913080155
 31
0.0
  0
LINE
  5
535
330
1F
100
AcDbEntity
  8
Predefinito
  6
Continuous
 62
     7
100
AcDbLine
 10
1265.0347448603
 20
378.7938792051
 30
0.0
 11
1265.0347448603
 21
59.5913080155
 31
0.0
  0
LINE
  5
536
330
1F
100
AcDbEntity
  8
Predefinito
  6
Continuous
 62
     7
100
AcDbLine
 10
1327.5469638359
 20
378.7938792051
 30
0.0
 11
1327.5469638359
 21
257.1836513288
 31
0.0
  0
LINE
  5
537
330
1F
100
AcDbEntity
  8
Predefinito
  6
Continuous
 62
     7
100
AcDbLine
 10
710.3427320008
 20
58.4755619034
 30
0.0
 11
710.3427320008
 21
58.2501321268
 31
0.0
  0
IMAGE
  5
53B
330
1F
100
AcDbEntity
  8
0
 92
      140
310
8C00000001000000840000000600000005000000804CACAE35E99340CE92997C883A6C400000000000000000ACA19777F8299740CE92997C883A6C400000000000000000ACA19777F82997400C5450B9CFB26F400000000000000000804CACAE35E993400C5450B9CFB26F400000000000000000804CACAE35E99340CE9299
310
7C883A6C400000000000000000
100
AcDbRasterImage
 90
        0
 10
1274.3024241373
 20
225.8291609764
 30
0.0
 11
0.6939673985706122
 21
0.0
 31
0.0
 12
0.0
 22
0.6939673985706107
 32
0.0
 13
300.0
 23
40.0
340
53A
 70
     3
280
     0
281
    50
282
    50
283
     0
360
53C
 71
     1
 91
        2
 14
-0.5
 24
-0.5
 14
299.5
 24
39.5
  0
ENDSEC
  0
SECTION
  2
OBJECTS
  0
DICTIONARY
  5
C
330
0
100
AcDbDictionary
281
     1
  3
ACAD_GROUP
350
D
  3
ACAD_IMAGE_DICT
350
539
  3
ACAD_IMAGE_VARS
350
538
  3
ACAD_LAYOUT
350
1A
  3
ACAD_MLINESTYLE
350
17
  3
ACAD_PLOTSETTINGS
350
19
  3
ACAD_PLOTSTYLENAME
350
E
  0
IMAGEDEF_REACTOR
  5
53C
330
53B
100
AcDbRasterImageDefReactor
 90
        2
330
53B
  0
DICTIONARY
  5
D
102
{ACAD_REACTORS
330
C
102
}
330
C
100
AcDbDictionary
281
     1
  0
DICTIONARY
  5
539
102
{ACAD_REACTORS
330
C
102
}
330
C
100
AcDbDictionary
281
     1
  3
Miky_marchioScarabeoCART.jpg
350
53A
  0
RASTERVARIABLES
  5
538
102
{ACAD_REACTORS
330
C
102
}
330
C
100
AcDbRasterVariables
 90
        0
 70
     1
 71
     1
 72
     1
  0
DICTIONARY
  5
1A
102
{ACAD_REACTORS
330
C
102
}
330
C
100
AcDbDictionary
281
     1
  3
Layout1
350
1E
  3
Model
350
22
  0
DICTIONARY
  5
17
102
{ACAD_REACTORS
330
C
102
}
330
C
100
AcDbDictionary
281
     1
  3
Standard
350
18
  0
DICTIONARY
  5
19
102
{ACAD_REACTORS
330
C
102
}
330
C
100
AcDbDictionary
281
     1
  0
ACDBDICTIONARYWDFLT
  5
E
102
{ACAD_REACTORS
330
C
102
}
330
C
100
AcDbDictionary
281
     1
  3
Normal
350
F
100
AcDbDictionaryWithDefault
340
F
  0
IMAGEDEF
  5
53A
102
{ACAD_REACTORS
330
539
330
53C
102
}
330
539
100
AcDbRasterImageDef
 90
        0
  1
Miky_marchioScarabeoCART.jpg
 10
300.0
 20
40.0
 11
0.003333333333333334
 21
0.003333333333333334
280
     1
281
     5
  0
LAYOUT
  5
1E
102
{ACAD_REACTORS
330
1A
102
}
330
1A
100
AcDbPlotSettings
  1

  2
none_device
  4

  6

 40
0.0
 41
0.0
 42
0.0
 43
0.0
 44
0.0
 45
0.0
 46
0.0
 47
0.0
 48
0.0
 49
0.0
140
0.0
141
0.0
142
1.0
143
1.0
 70
   688
 72
     0
 73
     0
 74
     5
  7

 75
    16
147
1.0
148
0.0
149
0.0
100
AcDbLayout
  1
Layout1
 70
     1
 71
     1
 10
0.0
 20
0.0
 11
2376.0
 21
1680.0
 12
0.0
 22
0.0
 32
0.0
 14
0.0
 24
0.0
 34
0.0
 15
2376.0
 25
1680.0
 35
0.0
146
0.0
 13
0.0
 23
0.0
 33
0.0
 16
1.0
 26
0.0
 36
0.0
 17
0.0
 27
1.0
 37
0.0
 76
     0
330
1B
  0
LAYOUT
  5
22
102
{ACAD_REACTORS
330
1A
102
}
330
1A
100
AcDbPlotSettings
  1

  2
none_device
  4

  6

 40
0.0
 41
0.0
 42
0.0
 43
0.0
 44
0.0
 45
0.0
 46
0.0
 47
0.0
 48
0.0
 49
0.0
140
0.0
141
0.0
142
1.0
143
1.0
 70
  1712
 72
     0
 73
     0
 74
     0
  7

 75
     0
147
1.0
148
0.0
149
0.0
100
AcDbLayout
  1
Model
 70
     1
 71
     0
 10
0.0
 20
0.0
 11
2376.0
 21
1680.0
 12
0.0
 22
0.0
 32
0.0
 14
0.0
 24
0.0
 34
0.0
 15
2376.0
 25
1680.0
 35
0.0
146
0.0
 13
0.0
 23
0.0
 33
0.0
 16
1.0
 26
0.0
 36
0.0
 17
0.0
 27
1.0
 37
0.0
 76
     0
330
1F
  0
MLINESTYLE
  5
18
102
{ACAD_REACTORS
330
17
102
}
330
17
100
AcDbMlineStyle
  2
Standard
 70
     0
  3

 62
   256
 51
90.0
 52
90.0
 71
     2
 49
0.5
 62
   256
  6
BYLAYER
 49
-0.5
 62
   256
  6
BYLAYER
  0
ACDBPLACEHOLDER
  5
F
102
{ACAD_REACTORS
330
E
102
}
330
E
  0
ENDSEC
  0
EOF
