  0
SECTION
  2
HEADER
  9
$ACADVER
  1
AC1021
  9
$ACADMAINTVER
 70
    25
  9
$DWGCODEPAGE
  3
ANSI_1252
  9
$AUTHOR
  1
User
  9
$CUSTOMPROPERTYTAG
  1
Manager
  9
$CUSTOMPROPERTY
  1

  9
$CUSTOMPROPERTYTAG
  1
Company
  9
$CUSTOMPROPERTY
  1

  9
$CUSTOMPROPERTYTAG
  1
Category
  9
$CUSTOMPROPERTY
  1

  9
$CUSTOMPROPERTYTAG
  1
Part Number
  9
$CUSTOMPROPERTY
  1
C33103 td
  9
$CUSTOMPROPERTYTAG
  1
Description
  9
$CUSTOMPROPERTY
  1

  9
$CUSTOMPROPERTYTAG
  1
Project
  9
$CUSTOMPROPERTY
  1

  9
$CUSTOMPROPERTYTAG
  1
Designer
  9
$CUSTOMPROPERTY
  1
User
  9
$CUSTOMPROPERTYTAG
  1
Engineer
  9
$CUSTOMPROPERTY
  1

  9
$CUSTOMPROPERTYTAG
  1
Authority
  9
$CUSTOMPROPERTY
  1

  9
$CUSTOMPROPERTYTAG
  1
Cost Center
  9
$CUSTOMPROPERTY
  1

  9
$CUSTOMPROPERTYTAG
  1
Vendor
  9
$CUSTOMPROPERTY
  1

  9
$CUSTOMPROPERTYTAG
  1
User Status
  9
$CUSTOMPROPERTY
  1

  9
$CUSTOMPROPERTYTAG
  1
Design Status
  9
$CUSTOMPROPERTY
  1
WorkInProgress
  9
$CUSTOMPROPERTYTAG
  1
Checked by
  9
$CUSTOMPROPERTY
  1

  9
$CUSTOMPROPERTYTAG
  1
Engr Approved by
  9
$CUSTOMPROPERTY
  1

  9
$CUSTOMPROPERTYTAG
  1
Mfg Approved by
  9
$CUSTOMPROPERTY
  1

  9
$INSBASE
 10
0.0
 20
0.0
 30
0.0
  9
$EXTMIN
 10
0.0
 20
0.0
 30
0.0
  9
$EXTMAX
 10
891.0
 20
630.0
 30
0.0
  9
$LIMMIN
 10
0.0
 20
0.0
  9
$LIMMAX
 10
891.0
 20
630.0
  9
$ORTHOMODE
 70
     0
  9
$REGENMODE
 70
     1
  9
$FILLMODE
 70
     1
  9
$QTEXTMODE
 70
     0
  9
$MIRRTEXT
 70
     0
  9
$LTSCALE
 40
3.0
  9
$ATTMODE
 70
     1
  9
$TEXTSIZE
 40
0.2
  9
$TRACEWID
 40
0.05
  9
$TEXTSTYLE
  7
Standard
  9
$CLAYER
  8
0
  9
$CELTYPE
  6
ByLayer
  9
$CECOLOR
 62
   256
  9
$CELTSCALE
 40
1.0
  9
$DISPSILH
 70
     0
  9
$DIMSCALE
 40
1.0
  9
$DIMASZ
 40
1.799999999999999
  9
$DIMEXO
 40
0.0625
  9
$DIMDLI
 40
0.38
  9
$DIMRND
 40
0.0
  9
$DIMDLE
 40
0.0
  9
$DIMEXE
 40
0.18
  9
$DIMTP
 40
0.0
  9
$DIMTM
 40
0.0
  9
$DIMTXT
 40
0.3499999940395355
  9
$DIMCEN
 40
0.09
  9
$DIMTSZ
 40
0.0
  9
$DIMTOL
 70
     0
  9
$DIMLIM
 70
     0
  9
$DIMTIH
 70
     1
  9
$DIMTOH
 70
     1
  9
$DIMSE1
 70
     0
  9
$DIMSE2
 70
     0
  9
$DIMTAD
 70
     0
  9
$DIMZIN
 70
     0
  9
$DIMBLK
  1

  9
$DIMASO
 70
     1
  9
$DIMSHO
 70
     1
  9
$DIMPOST
  1

  9
$DIMAPOST
  1

  9
$DIMALT
 70
     0
  9
$DIMALTD
 70
     2
  9
$DIMALTF
 40
25.4
  9
$DIMLFAC
 40
1.0
  9
$DIMTOFL
 70
     0
  9
$DIMTVP
 40
0.0
  9
$DIMTIX
 70
     0
  9
$DIMSOXD
 70
     0
  9
$DIMSAH
 70
     0
  9
$DIMBLK1
  1

  9
$DIMBLK2
  1

  9
$DIMSTYLE
  2
Standard
  9
$DIMCLRD
 70
     0
  9
$DIMCLRE
 70
     0
  9
$DIMCLRT
 70
     0
  9
$DIMTFAC
 40
1.0
  9
$DIMGAP
 40
0.09
  9
$DIMJUST
 70
     0
  9
$DIMSD1
 70
     0
  9
$DIMSD2
 70
     0
  9
$DIMTOLJ
 70
     1
  9
$DIMTZIN
 70
     0
  9
$DIMALTZ
 70
     0
  9
$DIMALTTZ
 70
     0
  9
$DIMUPT
 70
     0
  9
$DIMDEC
 70
     4
  9
$DIMTDEC
 70
     4
  9
$DIMALTU
 70
     2
  9
$DIMALTTD
 70
     2
  9
$DIMTXSTY
  7
Standard
  9
$DIMAUNIT
 70
     0
  9
$DIMADEC
 70
     0
  9
$DIMALTRND
 40
0.0
  9
$DIMAZIN
 70
     0
  9
$DIMDSEP
 70
    46
  9
$DIMATFIT
 70
     3
  9
$DIMFRAC
 70
     0
  9
$DIMLDRBLK
  1

  9
$DIMLUNIT
 70
     2
  9
$DIMLWD
 70
    -2
  9
$DIMLWE
 70
    -2
  9
$DIMTMOVE
 70
     0
  9
$DIMFXL
 40
1.0
  9
$DIMFXLON
 70
     0
  9
$DIMJOGANG
 40
0.7853981633974483
  9
$DIMTFILL
 70
     0
  9
$DIMTFILLCLR
 70
     0
  9
$DIMARCSYM
 70
     0
  9
$DIMLTYPE
  6

  9
$DIMLTEX1
  6

  9
$DIMLTEX2
  6

  9
$LUNITS
 70
     2
  9
$LUPREC
 70
     4
  9
$SKETCHINC
 40
0.1
  9
$FILLETRAD
 40
0.0
  9
$AUNITS
 70
     0
  9
$AUPREC
 70
     0
  9
$MENU
  1
.
  9
$ELEVATION
 40
0.0
  9
$PELEVATION
 40
0.0
  9
$THICKNESS
 40
0.0
  9
$LIMCHECK
 70
     0
  9
$CHAMFERA
 40
0.0
  9
$CHAMFERB
 40
0.0
  9
$CHAMFERC
 40
0.0
  9
$CHAMFERD
 40
0.0
  9
$SKPOLY
 70
     0
  9
$TDCREATE
 40
2454312.701019421
  9
$TDUCREATE
 40
2454312.367686088
  9
$TDUPDATE
 40
2454312.701019421
  9
$TDUUPDATE
 40
2454312.367686088
  9
$TDINDWG
 40
0.0000088657
  9
$TDUSRTIMER
 40
0.0000088657
  9
$USRTIMER
 70
     1
  9
$ANGBASE
 50
0.0
  9
$ANGDIR
 70
     0
  9
$PDMODE
 70
     0
  9
$PDSIZE
 40
0.0
  9
$PLINEWID
 40
0.0
  9
$SPLFRAME
 70
     0
  9
$SPLINETYPE
 70
     6
  9
$SPLINESEGS
 70
     8
  9
$HANDSEED
  5
7EE
  9
$SURFTAB1
 70
     6
  9
$SURFTAB2
 70
     6
  9
$SURFTYPE
 70
     6
  9
$SURFU
 70
     6
  9
$SURFV
 70
     6
  9
$UCSBASE
  2

  9
$UCSNAME
  2

  9
$UCSORG
 10
0.0
 20
0.0
 30
0.0
  9
$UCSXDIR
 10
1.0
 20
0.0
 30
0.0
  9
$UCSYDIR
 10
0.0
 20
1.0
 30
0.0
  9
$UCSORTHOREF
  2

  9
$UCSORTHOVIEW
 70
     0
  9
$UCSORGTOP
 10
0.0
 20
0.0
 30
0.0
  9
$UCSORGBOTTOM
 10
0.0
 20
0.0
 30
0.0
  9
$UCSORGLEFT
 10
0.0
 20
0.0
 30
0.0
  9
$UCSORGRIGHT
 10
0.0
 20
0.0
 30
0.0
  9
$UCSORGFRONT
 10
0.0
 20
0.0
 30
0.0
  9
$UCSORGBACK
 10
0.0
 20
0.0
 30
0.0
  9
$PUCSBASE
  2

  9
$PUCSNAME
  2

  9
$PUCSORG
 10
0.0
 20
0.0
 30
0.0
  9
$PUCSXDIR
 10
1.0
 20
0.0
 30
0.0
  9
$PUCSYDIR
 10
0.0
 20
1.0
 30
0.0
  9
$PUCSORTHOREF
  2

  9
$PUCSORTHOVIEW
 70
     0
  9
$PUCSORGTOP
 10
0.0
 20
0.0
 30
0.0
  9
$PUCSORGBOTTOM
 10
0.0
 20
0.0
 30
0.0
  9
$PUCSORGLEFT
 10
0.0
 20
0.0
 30
0.0
  9
$PUCSORGRIGHT
 10
0.0
 20
0.0
 30
0.0
  9
$PUCSORGFRONT
 10
0.0
 20
0.0
 30
0.0
  9
$PUCSORGBACK
 10
0.0
 20
0.0
 30
0.0
  9
$USERI1
 70
     0
  9
$USERI2
 70
     0
  9
$USERI3
 70
     0
  9
$USERI4
 70
     0
  9
$USERI5
 70
     0
  9
$USERR1
 40
0.0
  9
$USERR2
 40
0.0
  9
$USERR3
 40
0.0
  9
$USERR4
 40
0.0
  9
$USERR5
 40
0.0
  9
$WORLDVIEW
 70
     1
  9
$SHADEDGE
 70
     3
  9
$SHADEDIF
 70
    70
  9
$TILEMODE
 70
     1
  9
$MAXACTVP
 70
    64
  9
$PINSBASE
 10
0.0
 20
0.0
 30
0.0
  9
$PLIMCHECK
 70
     0
  9
$PEXTMIN
 10
0.0
 20
0.0
 30
0.0
  9
$PEXTMAX
 10
891.0
 20
630.0
 30
0.0
  9
$PLIMMIN
 10
0.0
 20
0.0
  9
$PLIMMAX
 10
891.0
 20
630.0
  9
$UNITMODE
 70
     0
  9
$VISRETAIN
 70
     1
  9
$PLINEGEN
 70
     0
  9
$PSLTSCALE
 70
     1
  9
$TREEDEPTH
 70
  3020
  9
$CMLSTYLE
  2
Standard
  9
$CMLJUST
 70
     0
  9
$CMLSCALE
 40
1.0
  9
$PROXYGRAPHICS
 70
     1
  9
$MEASUREMENT
 70
     1
  9
$CELWEIGHT
370
    -1
  9
$ENDCAPS
280
     0
  9
$JOINSTYLE
280
     0
  9
$LWDISPLAY
290
     0
  9
$INSUNITS
 70
     4
  9
$HYPERLINKBASE
  1

  9
$STYLESHEET
  1

  9
$XEDIT
290
     1
  9
$CEPSNTYPE
380
     0
  9
$PSTYLEMODE
290
     1
  9
$FINGERPRINTGUID
  2
{C30050BD-F2F7-47B0-A6E5-3243729E2155}
  9
$VERSIONGUID
  2
{7338F441-8116-43C6-80B0-F8DA89E2EF80}
  9
$EXTNAMES
290
     1
  9
$PSVPSCALE
 40
0.0
  9
$OLESTARTUP
290
     0
  9
$SORTENTS
280
   127
  9
$INDEXCTL
280
     0
  9
$HIDETEXT
280
     1
  9
$XCLIPFRAME
290
     0
  9
$HALOGAP
280
     0
  9
$OBSCOLOR
 70
   257
  9
$OBSLTYPE
280
     0
  9
$INTERSECTIONDISPLAY
280
     0
  9
$INTERSECTIONCOLOR
 70
   257
  9
$DIMASSOC
280
     1
  9
$PROJECTNAME
  1

  9
$CAMERADISPLAY
290
     0
  9
$LENSLENGTH
 40
50.0
  9
$CAMERAHEIGHT
 40
0.0
  9
$STEPSPERSEC
 40
2.0
  9
$STEPSIZE
 40
6.0
  9
$3DDWFPREC
 40
2.0
  9
$PSOLWIDTH
 40
0.25
  9
$PSOLHEIGHT
 40
4.0
  9
$LOFTANG1
 40
1.570796326794896
  9
$LOFTANG2
 40
1.570796326794896
  9
$LOFTMAG1
 40
0.0
  9
$LOFTMAG2
 40
0.0
  9
$LOFTPARAM
 70
     7
  9
$LOFTNORMALS
280
     1
  9
$LATITUDE
 40
37.795
  9
$LONGITUDE
 40
-122.394
  9
$NORTHDIRECTION
 40
0.0
  9
$TIMEZONE
 70
 -8000
  9
$LIGHTGLYPHDISPLAY
280
     1
  9
$TILEMODELIGHTSYNCH
280
     1
  9
$CMATERIAL
347
11
  9
$SOLIDHIST
280
     1
  9
$SHOWHIST
280
     1
  9
$DWFFRAME
280
     2
  9
$DGNFRAME
280
     0
  9
$REALWORLDSCALE
290
     1
  9
$INTERFERECOLOR
 62
     1
  9
$INTERFEREOBJVS
345
33
  9
$INTERFEREVPVS
346
30
  9
$CSHADOW
280
     0
  9
$SHADOWPLANELOCATION
 40
0.0
  0
ENDSEC
  0
SECTION
  2
CLASSES
  0
CLASS
  1
ACDBDICTIONARYWDFLT
  2
AcDbDictionaryWithDefault
  3
ObjectDBX Classes
 90
        0
 91
        1
280
     0
281
     0
  0
CLASS
  1
MATERIAL
  2
AcDbMaterial
  3
ObjectDBX Classes
 90
     1153
 91
        3
280
     0
281
     0
  0
CLASS
  1
VISUALSTYLE
  2
AcDbVisualStyle
  3
ObjectDBX Classes
 90
     4095
 91
       16
280
     0
281
     0
  0
CLASS
  1
SCALE
  2
AcDbScale
  3
ObjectDBX Classes
 90
     1153
 91
       33
280
     0
281
     0
  0
CLASS
  1
TABLESTYLE
  2
AcDbTableStyle
  3
ObjectDBX Classes
 90
     4095
 91
        1
280
     0
281
     0
  0
CLASS
  1
MLEADERSTYLE
  2
AcDbMLeaderStyle
  3
ACDB_MLEADERSTYLE_CLASS
 90
     4095
 91
        1
280
     0
281
     0
  0
CLASS
  1
DICTIONARYVAR
  2
AcDbDictionaryVar
  3
ObjectDBX Classes
 90
        0
 91
        3
280
     0
281
     0
  0
CLASS
  1
CELLSTYLEMAP
  2
AcDbCellStyleMap
  3
ObjectDBX Classes
 90
     1152
 91
        1
280
     0
281
     0
  0
ENDSEC
  0
SECTION
  2
TABLES
  0
TABLE
  2
VPORT
  5
8
330
0
100
AcDbSymbolTable
 70
     1
  0
VPORT
  5
5F
330
8
100
AcDbSymbolTableRecord
100
AcDbViewportTableRecord
  2
*Active
 70
     0
 10
0.0
 20
0.0
 11
1.0
 21
1.0
 12
445.5
 22
315.0
 13
0.0
 23
0.0
 14
1.0
 24
1.0
 15
0.0
 25
0.0
 16
0.0
 26
0.0
 36
1.0
 17
0.0
 27
0.0
 37
0.0
 40
630.0
 41
1.414285714285714
 42
50.0
 43
0.0
 44
0.0
 50
0.0
 51
0.0
 71
     0
 72
   100
 73
     1
 74
     1
 75
     0
 76
     0
 77
     0
 78
     0
281
     0
 65
     1
110
0.0
120
0.0
130
0.0
111
1.0
121
0.0
131
0.0
112
0.0
122
1.0
132
0.0
 79
     0
146
0.0
 60
     3
 61
     5
292
     1
282
     1
141
0.0
142
0.0
 63
   250
421
  3355443
  0
ENDTAB
  0
TABLE
  2
LTYPE
  5
5
330
0
100
AcDbSymbolTable
 70
    59
  0
LTYPE
  5
63
330
5
100
AcDbSymbolTableRecord
100
AcDbLinetypeTableRecord
  2
ByBlock
 70
     0
  3

 72
    65
 73
     0
 40
0.0
  0
LTYPE
  5
64
330
5
100
AcDbSymbolTableRecord
100
AcDbLinetypeTableRecord
  2
ByLayer
 70
     0
  3

 72
    65
 73
     0
 40
0.0
  0
LTYPE
  5
65
330
5
100
AcDbSymbolTableRecord
100
AcDbLinetypeTableRecord
  2
Continuous
 70
     0
  3
Solid line
 72
    65
 73
     0
 40
0.0
  0
LTYPE
  5
7D
330
5
100
AcDbSymbolTableRecord
100
AcDbLinetypeTableRecord
  2
BY_STANDARD
 70
     0
  3
By Standard ____________    ____    ____   _
 72
    65
 73
     6
 40
1.240299999999999
 49
0.6614
 74
     0
 49
-0.0827
 74
     0
 49
0.1654
 74
     0
 49
-0.0827
 74
     0
 49
0.1654
 74
     0
 49
-0.0827
 74
     0
  0
LTYPE
  5
7E
330
5
100
AcDbSymbolTableRecord
100
AcDbLinetypeTableRecord
  2
CHAIN
 70
     0
  3
Chain ____ _ ____ _ ____ _ ____ _ ____ _ ____
 72
    65
 73
     4
 40
0.7087
 49
0.4724000000000001
 74
     0
 49
-0.0591
 74
     0
 49
0.1181
 74
     0
 49
-0.0591
 74
     0
  0
LTYPE
  5
7F
330
5
100
AcDbSymbolTableRecord
100
AcDbLinetypeTableRecord
  2
DASH_DOT
 70
     0
  3
Dash dot __ . __ . __ . __ . __ . __ . __ . __
 72
    65
 73
     4
 40
0.37
 49
0.24
 74
     0
 49
-0.06
 74
     0
 49
0.01
 74
     0
 49
-0.06
 74
     0
  0
LTYPE
  5
80
330
5
100
AcDbSymbolTableRecord
100
AcDbLinetypeTableRecord
  2
DOUBLE_DASH_DOT
 70
     0
  3
Double-Dash Dot __ __ . __ __ . __ __ . __ _
 72
    65
 73
     6
 40
0.4398
 49
0.24
 74
     0
 49
-0.06
 74
     0
 49
0.0098
 74
     0
 49
-0.06
 74
     0
 49
0.01
 74
     0
 49
-0.06
 74
     0
  0
LTYPE
  5
81
330
5
100
AcDbSymbolTableRecord
100
AcDbLinetypeTableRecord
  2
DASH_TRIPLE_DOT
 70
     0
  3
Dash Triple-Dot _ . . . _ . . . _ . . . _
 72
    65
 73
     8
 40
0.51
 49
0.24
 74
     0
 49
-0.06
 74
     0
 49
0.01
 74
     0
 49
-0.06
 74
     0
 49
0.01
 74
     0
 49
-0.06
 74
     0
 49
0.01
 74
     0
 49
-0.06
 74
     0
  0
LTYPE
  5
82
330
5
100
AcDbSymbolTableRecord
100
AcDbLinetypeTableRecord
  2
DASHED
 70
     0
  3
Dashed __ __ __ __ __ __ __ __ __ __ __ __ __ _
 72
    65
 73
     2
 40
0.2067
 49
0.1654
 74
     0
 49
-0.0413
 74
     0
  0
LTYPE
  5
83
330
5
100
AcDbSymbolTableRecord
100
AcDbLinetypeTableRecord
  2
DASH_DOUBLE_DOT
 70
     0
  3
Dash Double-Dot __ . . __ . . __ . . __ . .
 72
    65
 73
     6
 40
0.4398
 49
0.24
 74
     0
 49
-0.06
 74
     0
 49
0.0098
 74
     0
 49
-0.06
 74
     0
 49
0.01
 74
     0
 49
-0.06
 74
     0
  0
LTYPE
  5
84
330
5
100
AcDbSymbolTableRecord
100
AcDbLinetypeTableRecord
  2
DASHED_SPACE
 70
     0
  3
Dashed Space __ __ __ __ __ __ __ __ __ __ __ _
 72
    65
 73
     2
 40
0.2067
 49
0.1654
 74
     0
 49
-0.0413
 74
     0
  0
LTYPE
  5
85
330
5
100
AcDbSymbolTableRecord
100
AcDbLinetypeTableRecord
  2
DOTTED
 70
     0
  3
Dotted . . . . . . . . . . . . . . . . . . . . 
 72
    65
 73
     2
 40
0.0482
 49
0.0069
 74
     0
 49
-0.0413
 74
     0
  0
LTYPE
  5
86
330
5
100
AcDbSymbolTableRecord
100
AcDbLinetypeTableRecord
  2
DOUBLE_DASH_CHAIN
 70
     0
  3
Double-Dash Chain ______  __  __  ______  __  _
 72
    65
 73
     6
 40
1.240299999999999
 49
0.6614
 74
     0
 49
-0.0827
 74
     0
 49
0.1654
 74
     0
 49
-0.0827
 74
     0
 49
0.1654
 74
     0
 49
-0.0827
 74
     0
  0
LTYPE
  5
88
330
5
100
AcDbSymbolTableRecord
100
AcDbLinetypeTableRecord
  2
DOUBLE_DASH_DOUBLE_DOT
 70
     0
  3
Double-Dash Double-dot _ _ . . _ _ . . _
 72
    65
 73
     8
 40
0.7400000000000001
 49
0.24
 74
     0
 49
-0.06
 74
     0
 49
0.24
 74
     0
 49
-0.06
 74
     0
 49
0.01
 74
     0
 49
-0.06
 74
     0
 49
0.01
 74
     0
 49
-0.06
 74
     0
  0
LTYPE
  5
89
330
5
100
AcDbSymbolTableRecord
100
AcDbLinetypeTableRecord
  2
DOUBLE_DASH_TRIPLE_DOT
 70
     0
  3
Double Dash Triple Dot __ __ . . . __ __ . .
 72
    65
 73
    10
 40
0.8100000000000001
 49
0.24
 74
     0
 49
-0.06
 74
     0
 49
0.24
 74
     0
 49
-0.06
 74
     0
 49
0.01
 74
     0
 49
-0.06
 74
     0
 49
0.01
 74
     0
 49
-0.06
 74
     0
 49
0.01
 74
     0
 49
-0.06
 74
     0
  0
LTYPE
  5
8A
330
5
100
AcDbSymbolTableRecord
100
AcDbLinetypeTableRecord
  2
LONG_DASH_DOTTED
 70
     0
  3
Long Dash Dotted ____ . ____ . ____ . ____ . _
 72
    65
 73
     4
 40
0.3543
 49
0.2362
 74
     0
 49
-0.0295
 74
     0
 49
0.0591
 74
     0
 49
-0.0295
 74
     0
  0
LTYPE
  5
8B
330
5
100
AcDbSymbolTableRecord
100
AcDbLinetypeTableRecord
  2
LONG_DASH_DOUBLE_DOT
 70
     0
  3
Long Dash Double Dot ________  .  .  ________  
 72
    65
 73
     6
 40
0.6799999999999999
 49
0.48
 74
     0
 49
-0.06
 74
     0
 49
0.01
 74
     0
 49
-0.06
 74
     0
 49
0.01
 74
     0
 49
-0.06
 74
     0
  0
LTYPE
  5
8C
330
5
100
AcDbSymbolTableRecord
100
AcDbLinetypeTableRecord
  2
LONG_DASH_TRIPLE_DOT
 70
     0
  3
Long Dash Triple Dot ____ ... ____ ... ____
 72
    65
 73
     8
 40
0.3689
 49
0.2362
 74
     0
 49
-0.0295
 74
     0
 49
0.0049
 74
     0
 49
-0.0295
 74
     0
 49
0.0049
 74
     0
 49
-0.0295
 74
     0
 49
0.0049
 74
     0
 49
-0.0295
 74
     0
  0
LTYPE
  5
8D
330
5
100
AcDbSymbolTableRecord
100
AcDbLinetypeTableRecord
  2
BORDER
 70
     0
  3
Border __ __ . __ __ . __ __ . __ __ . __ __ .
 72
    65
 73
     6
 40
1.75
 49
0.5
 74
     0
 49
-0.25
 74
     0
 49
0.5
 74
     0
 49
-0.25
 74
     0
 49
0.0
 74
     0
 49
-0.25
 74
     0
  0
LTYPE
  5
8E
330
5
100
AcDbSymbolTableRecord
100
AcDbLinetypeTableRecord
  2
BORDER2
 70
     0
  3
Border (.5x) __.__.__.__.__.__.__.__.__.__.__.
 72
    65
 73
     6
 40
0.875
 49
0.25
 74
     0
 49
-0.125
 74
     0
 49
0.25
 74
     0
 49
-0.125
 74
     0
 49
0.0
 74
     0
 49
-0.125
 74
     0
  0
LTYPE
  5
8F
330
5
100
AcDbSymbolTableRecord
100
AcDbLinetypeTableRecord
  2
BORDERX2
 70
     0
  3
Border (2x) ____  ____  .  ____  ____  .  ___
 72
    65
 73
     6
 40
3.5
 49
1.0
 74
     0
 49
-0.5
 74
     0
 49
1.0
 74
     0
 49
-0.5
 74
     0
 49
0.0
 74
     0
 49
-0.5
 74
     0
  0
LTYPE
  5
90
330
5
100
AcDbSymbolTableRecord
100
AcDbLinetypeTableRecord
  2
CENTER
 70
     0
  3
Center ____ _ ____ _ ____ _ ____ _ ____ _ ____
 72
    65
 73
     4
 40
2.0
 49
1.25
 74
     0
 49
-0.25
 74
     0
 49
0.25
 74
     0
 49
-0.25
 74
     0
  0
LTYPE
  5
91
330
5
100
AcDbSymbolTableRecord
100
AcDbLinetypeTableRecord
  2
CENTER2
 70
     0
  3
Center (.5x) ___ _ ___ _ ___ _ ___ _ ___ _ ___
 72
    65
 73
     4
 40
1.125
 49
0.75
 74
     0
 49
-0.125
 74
     0
 49
0.125
 74
     0
 49
-0.125
 74
     0
  0
LTYPE
  5
92
330
5
100
AcDbSymbolTableRecord
100
AcDbLinetypeTableRecord
  2
CENTERX2
 70
     0
  3
Center (2x) ________  __  ________  __  _____
 72
    65
 73
     4
 40
4.0
 49
2.5
 74
     0
 49
-0.5
 74
     0
 49
0.5
 74
     0
 49
-0.5
 74
     0
  0
LTYPE
  5
93
330
5
100
AcDbSymbolTableRecord
100
AcDbLinetypeTableRecord
  2
DASHDOT2
 70
     0
  3
Dash dot (.5x) _._._._._._._._._._._._._._._.
 72
    65
 73
     4
 40
0.5
 49
0.25
 74
     0
 49
-0.125
 74
     0
 49
0.0
 74
     0
 49
-0.125
 74
     0
  0
LTYPE
  5
94
330
5
100
AcDbSymbolTableRecord
100
AcDbLinetypeTableRecord
  2
DASHDOTX2
 70
     0
  3
Dash dot (2x) ____  .  ____  .  ____  .  ___
 72
    65
 73
     4
 40
2.0
 49
1.0
 74
     0
 49
-0.5
 74
     0
 49
0.0
 74
     0
 49
-0.5
 74
     0
  0
LTYPE
  5
96
330
5
100
AcDbSymbolTableRecord
100
AcDbLinetypeTableRecord
  2
DASHED2
 70
     0
  3
Dashed (.5x) _ _ _ _ _ _ _ _ _ _ _ _ _ _ _ _ _
 72
    65
 73
     2
 40
0.375
 49
0.25
 74
     0
 49
-0.125
 74
     0
  0
LTYPE
  5
97
330
5
100
AcDbSymbolTableRecord
100
AcDbLinetypeTableRecord
  2
DASHEDX2
 70
     0
  3
Dashed (2x) ____  ____  ____  ____  ____  ___
 72
    65
 73
     2
 40
1.5
 49
1.0
 74
     0
 49
-0.5
 74
     0
  0
LTYPE
  5
98
330
5
100
AcDbSymbolTableRecord
100
AcDbLinetypeTableRecord
  2
DIVIDE
 70
     0
  3
Divide ____ . . ____ . . ____ . . ____ . . ____
 72
    65
 73
     6
 40
1.25
 49
0.5
 74
     0
 49
-0.25
 74
     0
 49
0.0
 74
     0
 49
-0.25
 74
     0
 49
0.0
 74
     0
 49
-0.25
 74
     0
  0
LTYPE
  5
99
330
5
100
AcDbSymbolTableRecord
100
AcDbLinetypeTableRecord
  2
DIVIDE2
 70
     0
  3
Divide (.5x) __..__..__..__..__..__..__..__.._
 72
    65
 73
     6
 40
0.625
 49
0.25
 74
     0
 49
-0.125
 74
     0
 49
0.0
 74
     0
 49
-0.125
 74
     0
 49
0.0
 74
     0
 49
-0.125
 74
     0
  0
LTYPE
  5
9A
330
5
100
AcDbSymbolTableRecord
100
AcDbLinetypeTableRecord
  2
DIVIDEX2
 70
     0
  3
Divide (2x) ________  .  .  ________  .  .  _
 72
    65
 73
     6
 40
2.5
 49
1.0
 74
     0
 49
-0.5
 74
     0
 49
0.0
 74
     0
 49
-0.5
 74
     0
 49
0.0
 74
     0
 49
-0.5
 74
     0
  0
LTYPE
  5
9B
330
5
100
AcDbSymbolTableRecord
100
AcDbLinetypeTableRecord
  2
DOT
 70
     0
  3
Dot . . . . . . . . . . . . . . . . . . . . . .
 72
    65
 73
     2
 40
0.25
 49
0.0
 74
     0
 49
-0.25
 74
     0
  0
LTYPE
  5
9C
330
5
100
AcDbSymbolTableRecord
100
AcDbLinetypeTableRecord
  2
DOT2
 70
     0
  3
Dot (.5x) .....................................
 72
    65
 73
     2
 40
0.125
 49
0.0
 74
     0
 49
-0.125
 74
     0
  0
LTYPE
  5
9D
330
5
100
AcDbSymbolTableRecord
100
AcDbLinetypeTableRecord
  2
DOTX2
 70
     0
  3
Dot (2x) .  .  .  .  .  .  .  .  .  .  .  .  . 
 72
    65
 73
     2
 40
0.5
 49
0.0
 74
     0
 49
-0.5
 74
     0
  0
LTYPE
  5
9E
330
5
100
AcDbSymbolTableRecord
100
AcDbLinetypeTableRecord
  2
HIDDEN
 70
     0
  3
Hidden __ __ __ __ __ __ __ __ __ __ __ __ __ _
 72
    65
 73
     2
 40
0.375
 49
0.25
 74
     0
 49
-0.125
 74
     0
  0
LTYPE
  5
9F
330
5
100
AcDbSymbolTableRecord
100
AcDbLinetypeTableRecord
  2
HIDDEN2
 70
     0
  3
Hidden (.5x) _ _ _ _ _ _ _ _ _ _ _ _ _ _ _ _ _
 72
    65
 73
     2
 40
0.1875
 49
0.125
 74
     0
 49
-0.0625
 74
     0
  0
LTYPE
  5
A0
330
5
100
AcDbSymbolTableRecord
100
AcDbLinetypeTableRecord
  2
HIDDENX2
 70
     0
  3
Hidden (2x) ____ ____ ____ ____ ____ ____ ____
 72
    65
 73
     2
 40
0.75
 49
0.5
 74
     0
 49
-0.25
 74
     0
  0
LTYPE
  5
A1
330
5
100
AcDbSymbolTableRecord
100
AcDbLinetypeTableRecord
  2
PHANTOM
 70
     0
  3
Phantom ______  __  __  ______  __  __  ______
 72
    65
 73
     6
 40
2.5
 49
1.25
 74
     0
 49
-0.25
 74
     0
 49
0.25
 74
     0
 49
-0.25
 74
     0
 49
0.25
 74
     0
 49
-0.25
 74
     0
  0
LTYPE
  5
A2
330
5
100
AcDbSymbolTableRecord
100
AcDbLinetypeTableRecord
  2
PHANTOM2
 70
     0
  3
Phantom (.5x) ___ _ _ ___ _ _ ___ _ _ ___ _ _
 72
    65
 73
     6
 40
1.25
 49
0.625
 74
     0
 49
-0.125
 74
     0
 49
0.125
 74
     0
 49
-0.125
 74
     0
 49
0.125
 74
     0
 49
-0.125
 74
     0
  0
LTYPE
  5
A3
330
5
100
AcDbSymbolTableRecord
100
AcDbLinetypeTableRecord
  2
PHANTOMX2
 70
     0
  3
Phantom (2x) ____________    ____    ____   _
 72
    65
 73
     6
 40
5.0
 49
2.5
 74
     0
 49
-0.5
 74
     0
 49
0.5
 74
     0
 49
-0.5
 74
     0
 49
0.5
 74
     0
 49
-0.5
 74
     0
  0
LTYPE
  5
A4
330
5
100
AcDbSymbolTableRecord
100
AcDbLinetypeTableRecord
  2
ACAD_ISO02W100
 70
     0
  3
ISO dash __ __ __ __ __ __ __ __ __ __ __ __ __
 72
    65
 73
     2
 40
0.59
 49
0.47
 74
     0
 49
-0.12
 74
     0
  0
LTYPE
  5
A5
330
5
100
AcDbSymbolTableRecord
100
AcDbLinetypeTableRecord
  2
ACAD_ISO03W100
 70
     0
  3
ISO dash space __    __    __    __    __    __
 72
    65
 73
     2
 40
1.179999999999999
 49
0.47
 74
     0
 49
-0.71
 74
     0
  0
LTYPE
  5
A6
330
5
100
AcDbSymbolTableRecord
100
AcDbLinetypeTableRecord
  2
ACAD_ISO04W100
 70
     0
  3
ISO long-dash dot ____ . ____ . ____ . ____ . _
 72
    65
 73
     4
 40
1.179999999999999
 49
0.9399999999999998
 74
     0
 49
-0.12
 74
     0
 49
0.0
 74
     0
 49
-0.12
 74
     0
  0
LTYPE
  5
A7
330
5
100
AcDbSymbolTableRecord
100
AcDbLinetypeTableRecord
  2
ACAD_ISO05W100
 70
     0
  3
ISO long-dash double-dot ____ .. ____ .. ____ .
 72
    65
 73
     6
 40
1.299999999999999
 49
0.9399999999999998
 74
     0
 49
-0.12
 74
     0
 49
0.0
 74
     0
 49
-0.12
 74
     0
 49
0.0
 74
     0
 49
-0.12
 74
     0
  0
LTYPE
  5
A8
330
5
100
AcDbSymbolTableRecord
100
AcDbLinetypeTableRecord
  2
ACAD_ISO06W100
 70
     0
  3
ISO long-dash triple-dot ____ ... ____ ... ____
 72
    65
 73
     8
 40
1.419999999999999
 49
0.9399999999999998
 74
     0
 49
-0.12
 74
     0
 49
0.0
 74
     0
 49
-0.12
 74
     0
 49
0.0
 74
     0
 49
-0.12
 74
     0
 49
0.0
 74
     0
 49
-0.12
 74
     0
  0
LTYPE
  5
A9
330
5
100
AcDbSymbolTableRecord
100
AcDbLinetypeTableRecord
  2
ACAD_ISO07W100
 70
     0
  3
ISO dot . . . . . . . . . . . . . . . . . . . .
 72
    65
 73
     2
 40
0.12
 49
0.0
 74
     0
 49
-0.12
 74
     0
  0
LTYPE
  5
AA
330
5
100
AcDbSymbolTableRecord
100
AcDbLinetypeTableRecord
  2
ACAD_ISO08W100
 70
     0
  3
ISO long-dash short-dash ____ __ ____ __ ____ _
 72
    65
 73
     4
 40
0.95
 49
0.47
 74
     0
 49
-0.12
 74
     0
 49
0.24
 74
     0
 49
-0.12
 74
     0
  0
LTYPE
  5
AB
330
5
100
AcDbSymbolTableRecord
100
AcDbLinetypeTableRecord
  2
ACAD_ISO09W100
 70
     0
  3
ISO long-dash double-short-dash ____ __ __ ____
 72
    65
 73
     6
 40
1.31
 49
0.47
 74
     0
 49
-0.12
 74
     0
 49
0.24
 74
     0
 49
-0.12
 74
     0
 49
0.24
 74
     0
 49
-0.12
 74
     0
  0
LTYPE
  5
AC
330
5
100
AcDbSymbolTableRecord
100
AcDbLinetypeTableRecord
  2
ACAD_ISO10W100
 70
     0
  3
ISO dash dot __ . __ . __ . __ . __ . __ . __ .
 72
    65
 73
     4
 40
0.71
 49
0.47
 74
     0
 49
-0.12
 74
     0
 49
0.0
 74
     0
 49
-0.12
 74
     0
  0
LTYPE
  5
AD
330
5
100
AcDbSymbolTableRecord
100
AcDbLinetypeTableRecord
  2
ACAD_ISO11W100
 70
     0
  3
ISO double-dash dot __ __ . __ __ . __ __ . __ 
 72
    65
 73
     6
 40
1.299999999999999
 49
0.47
 74
     0
 49
-0.12
 74
     0
 49
0.47
 74
     0
 49
-0.12
 74
     0
 49
0.0
 74
     0
 49
-0.12
 74
     0
  0
LTYPE
  5
AE
330
5
100
AcDbSymbolTableRecord
100
AcDbLinetypeTableRecord
  2
ACAD_ISO12W100
 70
     0
  3
ISO dash double-dot __ . . __ . . __ . . __ . .
 72
    65
 73
     6
 40
0.8299999999999998
 49
0.47
 74
     0
 49
-0.12
 74
     0
 49
0.0
 74
     0
 49
-0.12
 74
     0
 49
0.0
 74
     0
 49
-0.12
 74
     0
  0
LTYPE
  5
AF
330
5
100
AcDbSymbolTableRecord
100
AcDbLinetypeTableRecord
  2
ACAD_ISO13W100
 70
     0
  3
ISO double-dash double-dot __ __ . . __ __ . . 
 72
    65
 73
     8
 40
1.419999999999999
 49
0.47
 74
     0
 49
-0.12
 74
     0
 49
0.47
 74
     0
 49
-0.12
 74
     0
 49
0.0
 74
     0
 49
-0.12
 74
     0
 49
0.0
 74
     0
 49
-0.12
 74
     0
  0
LTYPE
  5
B0
330
5
100
AcDbSymbolTableRecord
100
AcDbLinetypeTableRecord
  2
ACAD_ISO14W100
 70
     0
  3
ISO dash triple-dot __ . . . __ . . . __ . . . 
 72
    65
 73
     8
 40
0.95
 49
0.47
 74
     0
 49
-0.12
 74
     0
 49
0.0
 74
     0
 49
-0.12
 74
     0
 49
0.0
 74
     0
 49
-0.12
 74
     0
 49
0.0
 74
     0
 49
-0.12
 74
     0
  0
LTYPE
  5
B1
330
5
100
AcDbSymbolTableRecord
100
AcDbLinetypeTableRecord
  2
ACAD_ISO15W100
 70
     0
  3
ISO double-dash triple-dot __ __ . . . __ __ . 
 72
    65
 73
    10
 40
1.539999999999999
 49
0.47
 74
     0
 49
-0.12
 74
     0
 49
0.47
 74
     0
 49
-0.12
 74
     0
 49
0.0
 74
     0
 49
-0.12
 74
     0
 49
0.0
 74
     0
 49
-0.12
 74
     0
 49
0.0
 74
     0
 49
-0.12
 74
     0
  0
LTYPE
  5
B4
330
5
100
AcDbSymbolTableRecord
100
AcDbLinetypeTableRecord
  2
FENCELINE1
 70
     0
  3
Fenceline circle ----0-----0----0-----0----0---
 72
    65
 73
     4
 40
1.45
 49
0.25
 74
     0
 49
-0.1
 74
     4
 75
   133
340
B3
 46
0.1
 50
0.0
 44
-0.1
 45
0.0
 49
-0.1
 74
     0
 49
1.0
 74
     0
  0
LTYPE
  5
B5
330
5
100
AcDbSymbolTableRecord
100
AcDbLinetypeTableRecord
  2
FENCELINE2
 70
     0
  3
Fenceline square ----[]-----[]----[]-----[]----
 72
    65
 73
     4
 40
1.45
 49
0.25
 74
     0
 49
-0.1
 74
     4
 75
   132
340
B3
 46
0.1
 50
0.0
 44
-0.1
 45
0.0
 49
-0.1
 74
     0
 49
1.0
 74
     0
  0
LTYPE
  5
B6
330
5
100
AcDbSymbolTableRecord
100
AcDbLinetypeTableRecord
  2
TRACKS
 70
     0
  3
Tracks -|-|-|-|-|-|-|-|-|-|-|-|-|-|-|-|-|-|-|-|
 72
    65
 73
     2
 40
0.3
 49
0.15
 74
     4
 75
   130
340
B3
 46
0.25
 50
0.0
 44
0.0
 45
0.0
 49
0.15
 74
     0
  0
LTYPE
  5
B7
330
5
100
AcDbSymbolTableRecord
100
AcDbLinetypeTableRecord
  2
BATTING
 70
     0
  3
Batting SSSSSSSSSSSSSSSSSSSSSSSSSSSSSSSSSSSSSSS
 72
    65
 73
     4
 40
0.4001000000000001
 49
0.0001
 74
     0
 49
-0.1
 74
     4
 75
   134
340
B3
 46
0.1
 50
0.0
 44
-0.1
 45
0.0
 49
-0.2
 74
     4
 75
   134
340
B3
 46
0.1
 50
180.0
 44
0.1
 45
0.0
 49
-0.1
 74
     0
  0
LTYPE
  5
B8
330
5
100
AcDbSymbolTableRecord
100
AcDbLinetypeTableRecord
  2
HOT_WATER_SUPPLY
 70
     0
  3
Hot water supply ---- HW ---- HW ---- HW ----
 72
    65
 73
     3
 40
0.9
 49
0.5
 74
     0
 49
-0.2
 74
     2
 75
     0
340
5D
 46
0.1
 50
0.0
 44
-0.1
 45
-0.05
  9
HW
 49
-0.2
 74
     0
  0
LTYPE
  5
B9
330
5
100
AcDbSymbolTableRecord
100
AcDbLinetypeTableRecord
  2
GAS_LINE
 70
     0
  3
Gas line ----GAS----GAS----GAS----GAS----GAS---
 72
    65
 73
     3
 40
0.95
 49
0.5
 74
     0
 49
-0.2
 74
     2
 75
     0
340
5D
 46
0.1
 50
0.0
 44
-0.1
 45
-0.05
  9
GAS
 49
-0.25
 74
     0
  0
LTYPE
  5
BA
330
5
100
AcDbSymbolTableRecord
100
AcDbLinetypeTableRecord
  2
ZIGZAG
 70
     0
  3
Zig zag /\/\/\/\/\/\/\/\/\/\/\/\/\/\/\/\/\/\/\/
 72
    65
 73
     4
 40
0.8001000000000001
 49
0.0001
 74
     0
 49
-0.2
 74
     4
 75
   131
340
B3
 46
0.2
 50
0.0
 44
-0.2
 45
0.0
 49
-0.4
 74
     4
 75
   131
340
B3
 46
0.2
 50
180.0
 44
0.2
 45
0.0
 49
-0.2
 74
     0
  0
ENDTAB
  0
TABLE
  2
LAYER
  5
2
330
0
100
AcDbSymbolTable
 70
    25
  0
LAYER
  5
5C
330
2
100
AcDbSymbolTableRecord
100
AcDbLayerTableRecord
  2
0
 70
     0
 62
     7
  6
Continuous
370
    -3
390
F
347
21
  0
LAYER
  5
CE
330
2
100
AcDbSymbolTableRecord
100
AcDbLayerTableRecord
  2
Visible (ISO)
 70
     0
 62
     7
  6
Continuous
370
    50
390
F
347
21
  0
LAYER
  5
CF
330
2
100
AcDbSymbolTableRecord
100
AcDbLayerTableRecord
  2
Visible Narrow (ISO)
 70
     0
 62
     7
  6
Continuous
370
    35
390
F
347
21
  0
ENDTAB
  0
TABLE
  2
STYLE
  5
3
330
0
100
AcDbSymbolTable
 70
    12
  0
STYLE
  5
5D
330
3
100
AcDbSymbolTableRecord
100
AcDbTextStyleTableRecord
  2
Standard
 70
     0
 40
0.0
 41
1.0
 50
0.0
 71
     0
 42
0.2
  3
TAHOMA.TTF
  4

1001
ACAD
1000
Tahoma
1071
      256
  0
STYLE
  5
62
330
3
100
AcDbSymbolTableRecord
100
AcDbTextStyleTableRecord
  2
Annotative
 70
     0
 40
0.0
 41
1.0
 50
0.0
 71
     0
 42
0.2
  3

  4

1001
AcadAnnotative
1000
AnnotativeData
1002
{
1070
     1
1070
     1
1002
}
  0
STYLE
  5
B3
330
3
100
AcDbSymbolTableRecord
100
AcDbTextStyleTableRecord
  2

 70
     1
 40
0.0
 41
1.0
 50
0.0
 71
     0
 42
0.2
  3
ltypeshp.shx
  4

  0
STYLE
  5
D3
330
3
100
AcDbSymbolTableRecord
100
AcDbTextStyleTableRecord
  2
Installation
 70
     0
 40
0.0
 41
1.0
 50
0.0
 71
     0
 42
0.2
  3
TAHOMA.TTF
  4

1001
ACAD
1000
Tahoma
1071
      256
  0
STYLE
  5
D4
330
3
100
AcDbSymbolTableRecord
100
AcDbTextStyleTableRecord
  2
Label Text (ANSI)
 70
     0
 40
0.0
 41
1.0
 50
0.0
 71
     0
 42
0.2
  3
TAHOMA.TTF
  4

1001
ACAD
1000
Tahoma
1071
      256
  0
STYLE
  5
D5
330
3
100
AcDbSymbolTableRecord
100
AcDbTextStyleTableRecord
  2
Label Text (DIN)
 70
     0
 40
0.0
 41
1.0
 50
0.0
 71
     0
 42
0.2
  3
isocpeur.ttf
  4

1001
ACAD
1000
ISOCPEUR
1071
      256
  0
STYLE
  5
D6
330
3
100
AcDbSymbolTableRecord
100
AcDbTextStyleTableRecord
  2
Label Text (ISO)
 70
     0
 40
0.0
 41
1.0
 50
0.0
 71
     0
 42
0.2
  3
TAHOMA.TTF
  4

1001
ACAD
1000
Tahoma
1071
      256
  0
STYLE
  5
D7
330
3
100
AcDbSymbolTableRecord
100
AcDbTextStyleTableRecord
  2
Label Text (JIS)
 70
     0
 40
0.0
 41
1.0
 50
0.0
 71
     0
 42
0.2
  3
TAHOMA.TTF
  4

1001
ACAD
1000
Tahoma
1071
      256
  0
STYLE
  5
D8
330
3
100
AcDbSymbolTableRecord
100
AcDbTextStyleTableRecord
  2
Note Text (ANSI)
 70
     0
 40
0.0
 41
1.0
 50
0.0
 71
     0
 42
0.2
  3
TAHOMA.TTF
  4

1001
ACAD
1000
Tahoma
1071
      256
  0
STYLE
  5
D9
330
3
100
AcDbSymbolTableRecord
100
AcDbTextStyleTableRecord
  2
Note Text (DIN)
 70
     0
 40
0.0
 41
1.0
 50
0.0
 71
     0
 42
0.2
  3
isocpeur.ttf
  4

1001
ACAD
1000
ISOCPEUR
1071
      256
  0
STYLE
  5
DA
330
3
100
AcDbSymbolTableRecord
100
AcDbTextStyleTableRecord
  2
Note Text (ISO)
 70
     0
 40
0.0
 41
1.0
 50
0.0
 71
     0
 42
0.2
  3
TAHOMA.TTF
  4

1001
ACAD
1000
Tahoma
1071
      256
  0
STYLE
  5
DB
330
3
100
AcDbSymbolTableRecord
100
AcDbTextStyleTableRecord
  2
Note Text (JIS)
 70
     0
 40
0.0
 41
1.0
 50
0.0
 71
     0
 42
0.2
  3
TAHOMA.TTF
  4

1001
ACAD
1000
Tahoma
1071
      256
  0
ENDTAB
  0
TABLE
  2
VIEW
  5
6
330
0
100
AcDbSymbolTable
 70
     0
  0
ENDTAB
  0
TABLE
  2
UCS
  5
7
330
0
100
AcDbSymbolTable
 70
     0
  0
ENDTAB
  0
TABLE
  2
APPID
  5
9
330
0
100
AcDbSymbolTable
 70
     3
  0
APPID
  5
5E
330
9
100
AcDbSymbolTableRecord
100
AcDbRegAppTableRecord
  2
ACAD
 70
     0
  0
APPID
  5
66
330
9
100
AcDbSymbolTableRecord
100
AcDbRegAppTableRecord
  2
AcadAnnotative
 70
     0
  0
APPID
  5
70
330
9
100
AcDbSymbolTableRecord
100
AcDbRegAppTableRecord
  2
ACAD_MLEADERVER
 70
     0
  0
ENDTAB
  0
TABLE
  2
DIMSTYLE
  5
A
330
0
100
AcDbSymbolTable
 70
    16
100
AcDbDimStyleTable
 71
     0
  0
DIMSTYLE
105
60
330
A
100
AcDbSymbolTableRecord
100
AcDbDimStyleTableRecord
  2
Standard
 70
     0
340
5D
  0
DIMSTYLE
105
61
330
A
100
AcDbSymbolTableRecord
100
AcDbDimStyleTableRecord
  2
Annotative
 70
     0
340
5D
1001
AcadAnnotative
1000
AnnotativeData
1002
{
1070
     1
1070
     1
1002
}
  0
DIMSTYLE
105
DC
330
A
100
AcDbSymbolTableRecord
100
AcDbDimStyleTableRecord
  2
Default - Method 1b (ISO)
 70
     0
 40
3.0
 41
2.5
 42
0.0
 43
5.999999999999999
 44
3.174999999999999
 45
0.00000001
 46
10.0
 73
     0
 77
     1
 78
     8
 79
     2
140
3.5
143
0.03937
147
0.762
171
     3
172
     1
176
   256
177
   256
178
   256
179
     2
271
     2
272
     2
274
     3
278
    44
284
     8
286
     8
340
DA
371
    -1
372
    -1
  0
DIMSTYLE
105
DD
330
A
100
AcDbSymbolTableRecord
100
AcDbDimStyleTableRecord
  2
Default - Method 1b (ISO)$7
 70
     0
 40
3.0
 41
2.5
 42
0.0
 43
5.999999999999999
 44
3.174999999999999
 45
0.00000001
 46
10.0
 73
     0
 77
     1
 78
     8
 79
     2
140
3.5
143
0.03937
147
0.762
171
     3
172
     1
176
   256
177
   256
178
   256
179
     2
271
     2
272
     2
274
     3
278
    44
284
     8
286
     8
340
DA
371
    -1
372
    -1
  0
DIMSTYLE
105
DE
330
A
100
AcDbSymbolTableRecord
100
AcDbDimStyleTableRecord
  2
Default - Method 2a (ISO)
 70
     0
 40
3.0
 41
2.5
 42
0.0
 43
5.999999999999999
 44
3.174999999999999
 45
0.00000001
 46
10.0
 77
     1
 78
     8
 79
     2
140
3.5
143
0.03937
147
0.762
171
     3
172
     1
176
   256
177
   256
178
   256
179
     2
271
     2
272
     2
274
     3
278
    44
284
     8
286
     8
340
DA
371
    -1
372
    -1
  0
DIMSTYLE
105
DF
330
A
100
AcDbSymbolTableRecord
100
AcDbDimStyleTableRecord
  2
Default - Method 2a (ISO)$7
 70
     0
 40
3.0
 41
2.5
 42
0.0
 43
5.999999999999999
 44
3.174999999999999
 45
0.00000001
 46
10.0
 77
     1
 78
     8
 79
     2
140
3.5
143
0.03937
147
0.762
171
     3
172
     1
176
   256
177
   256
178
   256
179
     2
271
     2
272
     2
274
     3
278
    44
284
     8
286
     8
340
DA
371
    -1
372
    -1
  0
DIMSTYLE
105
E0
330
A
100
AcDbSymbolTableRecord
100
AcDbDimStyleTableRecord
  2
Default - Method 2b (ISO)
 70
     0
 40
3.0
 41
2.5
 42
0.0
 43
5.999999999999999
 44
3.174999999999999
 45
0.00000001
 46
10.0
 77
     1
 78
     8
 79
     2
140
3.5
143
0.03937
147
0.762
171
     3
172
     1
176
   256
177
   256
178
   256
179
     2
271
     2
272
     2
274
     3
278
    44
284
     8
286
     8
340
DA
371
    -1
372
    -1
  0
DIMSTYLE
105
E1
330
A
100
AcDbSymbolTableRecord
100
AcDbDimStyleTableRecord
  2
Default - Method 2b (ISO)$7
 70
     0
 40
3.0
 41
2.5
 42
0.0
 43
5.999999999999999
 44
3.174999999999999
 45
0.00000001
 46
10.0
 77
     1
 78
     8
 79
     2
140
3.5
143
0.03937
147
0.762
171
     3
172
     1
176
   256
177
   256
178
   256
179
     2
271
     2
272
     2
274
     3
278
    44
284
     8
286
     8
340
DA
371
    -1
372
    -1
  0
DIMSTYLE
105
E2
330
A
100
AcDbSymbolTableRecord
100
AcDbDimStyleTableRecord
  2
Default - mm [in] (ISO)
 70
     0
  4
 in
 40
3.0
 41
2.5
 42
0.0
 43
5.999999999999999
 44
3.174999999999999
 45
0.00000001
 46
10.0
 73
     0
 74
     0
 77
     1
 78
     8
 79
     2
140
3.5
143
0.03937
147
0.762
170
     1
171
     3
172
     1
176
   256
177
   256
178
   256
179
     3
271
     3
272
     2
274
     3
275
     1
278
    44
284
     8
285
     8
286
     8
340
DA
371
    -1
372
    -1
  0
DIMSTYLE
105
E3
330
A
100
AcDbSymbolTableRecord
100
AcDbDimStyleTableRecord
  2
Default - mm [in] (ISO)$7
 70
     0
  4
 in
 40
3.0
 41
2.5
 42
0.0
 43
5.999999999999999
 44
3.174999999999999
 45
0.00000001
 46
10.0
 73
     0
 74
     0
 77
     1
 78
     8
 79
     2
140
3.5
143
0.03937
147
0.762
170
     1
171
     3
172
     1
176
   256
177
   256
178
   256
179
     3
271
     3
272
     2
274
     3
275
     1
278
    44
284
     8
285
     8
286
     8
340
DA
371
    -1
372
    -1
  0
DIMSTYLE
105
E4
330
A
100
AcDbSymbolTableRecord
100
AcDbDimStyleTableRecord
  2
Default (ISO)
 70
     0
 40
3.0
 41
2.5
 42
0.0
 43
5.999999999999999
 44
3.174999999999999
 45
0.00000001
 46
10.0
 73
     0
 74
     0
 77
     1
140
3.5
143
0.03937
146
1.001485756465366
147
0.762
171
     3
172
     1
176
   256
177
   256
178
   256
179
     2
271
     2
272
     2
274
     3
278
    44
340
DA
371
    -1
372
    -1
  0
DIMSTYLE
105
E5
330
A
100
AcDbSymbolTableRecord
100
AcDbDimStyleTableRecord
  2
Default (ISO)$7
 70
     0
 40
3.0
 41
2.5
 42
0.0
 43
5.999999999999999
 44
3.174999999999999
 45
0.00000001
 46
10.0
 73
     0
 74
     0
 77
     1
140
3.5
143
0.03937
146
1.001485756465366
147
0.762
171
     3
172
     1
176
   256
177
   256
178
   256
179
     2
271
     2
272
     2
274
     3
278
    44
340
DA
371
    -1
372
    -1
  0
DIMSTYLE
105
F4
330
A
100
AcDbSymbolTableRecord
100
AcDbDimStyleTableRecord
  2
Miscellaneous Object (ISO)
 70
     0
 40
3.0
 41
2.5
 42
0.0
 43
5.999999999999999
 44
3.174999999999999
 45
0.00000001
 46
10.0
 73
     0
 74
     0
 77
     1
140
5.25
143
0.03937
146
0.6676571709769112
147
0.762
171
     3
172
     1
176
   256
177
   256
178
   256
179
     2
271
     2
272
     2
274
     3
278
    44
340
D6
341
E6
371
    -1
372
    -1
  0
DIMSTYLE
105
F5
330
A
100
AcDbSymbolTableRecord
100
AcDbDimStyleTableRecord
  2
Miscellaneous Object (ISO)$7
 70
     0
 40
3.0
 41
5.0
 42
0.0
 43
5.999999999999999
 44
3.174999999999999
 45
0.00000001
 46
10.0
 73
     0
 74
     0
 77
     1
140
5.25
143
0.03937
146
0.6676571709769112
147
0.762
171
     3
172
     1
176
   256
177
   256
178
   256
179
     2
271
     2
272
     2
274
     3
278
    44
340
D6
341
E6
371
    25
372
    -1
  0
DIMSTYLE
105
F6
330
A
100
AcDbSymbolTableRecord
100
AcDbDimStyleTableRecord
  2
Alternate (ISO)
 70
     0
 40
3.0
 41
2.5
340
5D
342
F7
  0
DIMSTYLE
105
108
330
A
100
AcDbSymbolTableRecord
100
AcDbDimStyleTableRecord
  2
Datum (ISO)
 70
     0
 40
3.0
 41
2.5
340
5D
342
F7
  0
ENDTAB
  0
TABLE
  2
BLOCK_RECORD
  5
1
330
0
100
AcDbSymbolTable
 70
     4
  0
BLOCK_RECORD
  5
75
330
1
100
AcDbSymbolTableRecord
100
AcDbBlockTableRecord
  2
*Model_Space
340
78
 70
     0
280
     1
281
     0
  0
BLOCK_RECORD
  5
71
330
1
100
AcDbSymbolTableRecord
100
AcDbBlockTableRecord
  2
*Paper_Space
340
74
 70
     0
280
     1
281
     0
  0
BLOCK_RECORD
  5
79
330
1
100
AcDbSymbolTableRecord
100
AcDbBlockTableRecord
  2
*Paper_Space0
340
7C
 70
     0
280
     1
281
     0
  0
BLOCK_RECORD
  5
E6
330
1
100
AcDbSymbolTableRecord
100
AcDbBlockTableRecord
  2
Filled-1
340
0
 70
     0
280
     1
281
     0
  0
BLOCK_RECORD
  5
F7
330
1
100
AcDbSymbolTableRecord
100
AcDbBlockTableRecord
  2
_Closed
340
0
 70
     0
280
     1
281
     0
  0
BLOCK_RECORD
  5
FE
330
1
100
AcDbSymbolTableRecord
100
AcDbBlockTableRecord
  2
DatumFilled45
340
0
 70
     0
280
     1
281
     0
  0
ENDTAB
  0
ENDSEC
  0
SECTION
  2
BLOCKS
  0
BLOCK
  5
76
330
75
100
AcDbEntity
  8
0
100
AcDbBlockBegin
  2
*Model_Space
 70
     0
 10
0.0
 20
0.0
 30
0.0
  3
*Model_Space
  1

  0
ENDBLK
  5
77
330
75
100
AcDbEntity
  8
0
100
AcDbBlockEnd
  0
BLOCK
  5
72
330
71
100
AcDbEntity
 67
     1
  8
0
100
AcDbBlockBegin
  2
*Paper_Space
 70
     0
 10
0.0
 20
0.0
 30
0.0
  3
*Paper_Space
  1

  0
ENDBLK
  5
73
330
71
100
AcDbEntity
 67
     1
  8
0
100
AcDbBlockEnd
  0
BLOCK
  5
7A
330
79
100
AcDbEntity
 67
     1
  8
0
100
AcDbBlockBegin
  2
*Paper_Space0
 70
     0
 10
0.0
 20
0.0
 30
0.0
  3
*Paper_Space0
  1

  0
ENDBLK
  5
7B
330
79
100
AcDbEntity
 67
     1
  8
0
100
AcDbBlockEnd
  0
BLOCK
  5
E7
330
E6
100
AcDbEntity
  8
0
100
AcDbBlockBegin
  2
Filled-1
 70
     0
 10
0.0
 20
0.0
 30
0.0
  3
Filled-1
  1

  0
LINE
  5
E9
330
E6
100
AcDbEntity
  8
0
 62
     0
100
AcDbLine
 10
-1.0
 20
0.0
 30
0.0
 11
0.0
 21
0.0
 31
0.0
  0
POLYLINE
  5
EA
330
E6
100
AcDbEntity
  8
0
 62
     0
100
AcDb2dPolyline
 66
     1
 10
0.0
 20
0.0
 30
0.0
 70
   128
  0
VERTEX
  5
EB
330
EA
100
AcDbEntity
  8
0
 62
     0
100
AcDbVertex
100
AcDb2dVertex
 10
-1.0
 20
-0.1
 30
0.0
  0
VERTEX
  5
EC
330
EA
100
AcDbEntity
  8
0
 62
     0
100
AcDbVertex
100
AcDb2dVertex
 10
0.0
 20
0.0
 30
0.0
  0
VERTEX
  5
EE
330
EA
100
AcDbEntity
  8
0
 62
     0
100
AcDbVertex
100
AcDb2dVertex
 10
-1.0
 20
0.1
 30
0.0
  0
VERTEX
  5
EF
330
EA
100
AcDbEntity
  8
0
 62
     0
100
AcDbVertex
100
AcDb2dVertex
 10
-1.0
 20
-0.1
 30
0.0
  0
SEQEND
  5
ED
330
EA
100
AcDbEntity
  8
0
 62
     0
  0
SOLID
  5
F0
330
E6
100
AcDbEntity
  8
0
 62
     0
100
AcDbTrace
 10
-1.0
 20
-0.1
 30
0.0
 11
0.0
 21
0.0
 31
0.0
 12
-1.0
 22
0.1
 32
0.0
 13
-1.0
 23
-0.1
 33
0.0
  0
LINE
  5
F1
330
E6
100
AcDbEntity
  8
0
 62
     0
100
AcDbLine
 10
-1.0
 20
-0.1
 30
0.0
 11
0.0
 21
0.0
 31
0.0
  0
LINE
  5
F2
330
E6
100
AcDbEntity
  8
0
 62
     0
100
AcDbLine
 10
0.0
 20
0.0
 30
0.0
 11
-1.0
 21
0.1
 31
0.0
  0
LINE
  5
F3
330
E6
100
AcDbEntity
  8
0
 62
     0
100
AcDbLine
 10
-1.0
 20
0.1
 30
0.0
 11
-1.0
 21
-0.1
 31
0.0
  0
ENDBLK
  5
E8
330
E6
100
AcDbEntity
  8
0
100
AcDbBlockEnd
  0
BLOCK
  5
FC
330
F7
100
AcDbEntity
  8
0
100
AcDbBlockBegin
  2
_Closed
 70
     0
 10
0.0
 20
0.0
 30
0.0
  3
_Closed
  1

  0
LINE
  5
F8
330
F7
100
AcDbEntity
  8
0
  6
ByBlock
 62
     0
370
    -2
100
AcDbLine
 10
-1.0
 20
0.1666666666666666
 30
0.0
 11
0.0
 21
0.0
 31
0.0
  0
LINE
  5
F9
330
F7
100
AcDbEntity
  8
0
  6
ByBlock
 62
     0
370
    -2
100
AcDbLine
 10
0.0
 20
0.0
 30
0.0
 11
-1.0
 21
-0.1666666666666666
 31
0.0
  0
LINE
  5
FA
330
F7
100
AcDbEntity
  8
0
  6
ByBlock
 62
     0
370
    -2
100
AcDbLine
 10
-1.0
 20
0.1666666666666666
 30
0.0
 11
-1.0
 21
-0.1666666666666666
 31
0.0
  0
LINE
  5
FB
330
F7
100
AcDbEntity
  8
0
  6
ByBlock
 62
     0
370
    -2
100
AcDbLine
 10
0.0
 20
0.0
 30
0.0
 11
-1.0
 21
0.0
 31
0.0
  0
ENDBLK
  5
FD
330
F7
100
AcDbEntity
  8
0
100
AcDbBlockEnd
  0
BLOCK
  5
FF
330
FE
100
AcDbEntity
  8
0
100
AcDbBlockBegin
  2
DatumFilled45
 70
     0
 10
0.0
 20
0.0
 30
0.0
  3
DatumFilled45
  1

  0
POLYLINE
  5
101
330
FE
100
AcDbEntity
  8
0
 62
     0
100
AcDb2dPolyline
 66
     1
 10
0.0
 20
0.0
 30
0.0
 70
   128
  0
VERTEX
  5
102
330
101
100
AcDbEntity
  8
0
 62
     0
100
AcDbVertex
100
AcDb2dVertex
 10
0.0
 20
1.0
 30
0.0
  0
VERTEX
  5
103
330
101
100
AcDbEntity
  8
0
 62
     0
100
AcDbVertex
100
AcDb2dVertex
 10
0.0
 20
-1.0
 30
0.0
  0
VERTEX
  5
105
330
101
100
AcDbEntity
  8
0
 62
     0
100
AcDbVertex
100
AcDb2dVertex
 10
-1.0
 20
0.0
 30
0.0
  0
VERTEX
  5
106
330
101
100
AcDbEntity
  8
0
 62
     0
100
AcDbVertex
100
AcDb2dVertex
 10
0.0
 20
1.0
 30
0.0
  0
SEQEND
  5
104
330
101
100
AcDbEntity
  8
0
 62
     0
  0
SOLID
  5
107
330
FE
100
AcDbEntity
  8
0
 62
     0
100
AcDbTrace
 10
0.0
 20
1.0
 30
0.0
 11
0.0
 21
-1.0
 31
0.0
 12
-1.0
 22
0.0
 32
0.0
 13
0.0
 23
1.0
 33
0.0
  0
ENDBLK
  5
100
330
FE
100
AcDbEntity
  8
0
100
AcDbBlockEnd
  0
ENDSEC
  0
SECTION
  2
ENTITIES
  0
LINE
  5
109
330
75
100
AcDbEntity
  8
Visible (ISO)
100
AcDbLine
 10
338.3501837621358
 20
456.0139782709566
 30
0.0
 11
338.3501837621358
 21
420.0139782709566
 31
0.0
  0
POLYLINE
  5
10A
330
75
100
AcDbEntity
  8
Visible (ISO)
100
AcDb2dPolyline
 66
     1
 10
0.0
 20
0.0
 30
0.0
 70
   128
  0
VERTEX
  5
10B
330
10A
100
AcDbEntity
  8
Visible (ISO)
100
AcDbVertex
100
AcDb2dVertex
 10
338.3501834811124
 20
420.0139785093752
 30
0.0
  0
VERTEX
  5
10C
330
10A
100
AcDbEntity
  8
Visible (ISO)
100
AcDbVertex
100
AcDb2dVertex
 10
338.3485860766324
 20
419.7598731798617
 30
0.0
  0
VERTEX
  5
10E
330
10A
100
AcDbEntity
  8
Visible (ISO)
100
AcDbVertex
100
AcDb2dVertex
 10
338.3438653887662
 20
419.5024299902406
 30
0.0
  0
VERTEX
  5
10F
330
10A
100
AcDbEntity
  8
Visible (ISO)
100
AcDbVertex
100
AcDb2dVertex
 10
338.3361358584318
 20
419.2437696737734
 30
0.0
  0
VERTEX
  5
110
330
10A
100
AcDbEntity
  8
Visible (ISO)
100
AcDbVertex
100
AcDb2dVertex
 10
338.3255047739896
 20
418.9860165399996
 30
0.0
  0
VERTEX
  5
111
330
10A
100
AcDbEntity
  8
Visible (ISO)
100
AcDbVertex
100
AcDb2dVertex
 10
338.3120865763577
 20
418.7312913221804
 30
0.0
  0
VERTEX
  5
112
330
10A
100
AcDbEntity
  8
Visible (ISO)
100
AcDbVertex
100
AcDb2dVertex
 10
338.2959885538968
 20
418.4817183298555
 30
0.0
  0
VERTEX
  5
113
330
10A
100
AcDbEntity
  8
Visible (ISO)
100
AcDbVertex
100
AcDb2dVertex
 10
338.2774729670438
 20
418.2392931265322
 30
0.0
  0
VERTEX
  5
114
330
10A
100
AcDbEntity
  8
Visible (ISO)
100
AcDbVertex
100
AcDb2dVertex
 10
338.2570524157437
 20
418.0055427832094
 30
0.0
  0
VERTEX
  5
115
330
10A
100
AcDbEntity
  8
Visible (ISO)
100
AcDbVertex
100
AcDb2dVertex
 10
338.2352132738981
 20
417.7818811220614
 30
0.0
  0
VERTEX
  5
116
330
10A
100
AcDbEntity
  8
Visible (ISO)
100
AcDbVertex
100
AcDb2dVertex
 10
338.2124466837796
 20
417.5697255415407
 30
0.0
  0
VERTEX
  5
117
330
10A
100
AcDbEntity
  8
Visible (ISO)
100
AcDbVertex
100
AcDb2dVertex
 10
338.1892366351041
 20
417.3704898638217
 30
0.0
  0
VERTEX
  5
118
330
10A
100
AcDbEntity
  8
Visible (ISO)
100
AcDbVertex
100
AcDb2dVertex
 10
338.1660718859586
 20
417.1855914873567
 30
0.0
  0
VERTEX
  5
119
330
10A
100
AcDbEntity
  8
Visible (ISO)
100
AcDbVertex
100
AcDb2dVertex
 10
338.1429357470425
 20
417.012499598929
 30
0.0
  0
VERTEX
  5
11A
330
10A
100
AcDbEntity
  8
Visible (ISO)
100
AcDbVertex
100
AcDb2dVertex
 10
338.1198043764981
 20
416.8487859053103
 30
0.0
  0
VERTEX
  5
11B
330
10A
100
AcDbEntity
  8
Visible (ISO)
100
AcDbVertex
100
AcDb2dVertex
 10
338.097159379855
 20
416.6960203928439
 30
0.0
  0
VERTEX
  5
11C
330
10A
100
AcDbEntity
  8
Visible (ISO)
100
AcDbVertex
100
AcDb2dVertex
 10
338.0754775942715
 20
416.5557718557803
 30
0.0
  0
VERTEX
  5
11D
330
10A
100
AcDbEntity
  8
Visible (ISO)
100
AcDbVertex
100
AcDb2dVertex
 10
338.0552382410916
 20
416.4296138567415
 30
0.0
  0
VERTEX
  5
11E
330
10A
100
AcDbEntity
  8
Visible (ISO)
100
AcDbVertex
100
AcDb2dVertex
 10
338.0369205416593
 20
416.3191151899782
 30
0.0
  0
VERTEX
  5
11F
330
10A
100
AcDbEntity
  8
Visible (ISO)
100
AcDbVertex
100
AcDb2dVertex
 10
338.021020406619
 20
416.2255776209322
 30
0.0
  0
VERTEX
  5
120
330
10A
100
AcDbEntity
  8
Visible (ISO)
100
AcDbVertex
100
AcDb2dVertex
 10
338.0077810229214
 20
416.1492097658602
 30
0.0
  0
VERTEX
  5
121
330
10A
100
AcDbEntity
  8
Visible (ISO)
100
AcDbVertex
100
AcDb2dVertex
 10
337.9973072947415
 20
416.0899377150027
 30
0.0
  0
VERTEX
  5
122
330
10A
100
AcDbEntity
  8
Visible (ISO)
100
AcDbVertex
100
AcDb2dVertex
 10
337.9896993578824
 20
416.0476899427859
 30
0.0
  0
VERTEX
  5
123
330
10A
100
AcDbEntity
  8
Visible (ISO)
100
AcDbVertex
100
AcDb2dVertex
 10
337.9850597323331
 20
416.0223937315432
 30
0.0
  0
VERTEX
  5
124
330
10A
100
AcDbEntity
  8
Visible (ISO)
100
AcDbVertex
100
AcDb2dVertex
 10
337.9834909380826
 20
416.0139787477938
 30
0.0
  0
SEQEND
  5
10D
330
10A
100
AcDbEntity
  8
Visible (ISO)
  0
POLYLINE
  5
125
330
75
100
AcDbEntity
  8
Visible (ISO)
100
AcDb2dPolyline
 66
     1
 10
0.0
 20
0.0
 30
0.0
 70
   128
  0
VERTEX
  5
126
330
125
100
AcDbEntity
  8
Visible (ISO)
100
AcDbVertex
100
AcDb2dVertex
 10
337.9834909380826
 20
460.0139773172823
 30
0.0
  0
VERTEX
  5
127
330
125
100
AcDbEntity
  8
Visible (ISO)
100
AcDbVertex
100
AcDb2dVertex
 10
337.9850597323331
 20
460.0055611414401
 30
0.0
  0
VERTEX
  5
129
330
125
100
AcDbEntity
  8
Visible (ISO)
100
AcDbVertex
100
AcDb2dVertex
 10
337.9896993578824
 20
459.9802649301974
 30
0.0
  0
VERTEX
  5
12A
330
125
100
AcDbEntity
  8
Visible (ISO)
100
AcDbVertex
100
AcDb2dVertex
 10
337.9973072947415
 20
459.9380171579806
 30
0.0
  0
VERTEX
  5
12B
330
125
100
AcDbEntity
  8
Visible (ISO)
100
AcDbVertex
100
AcDb2dVertex
 10
338.0077810229214
 20
459.8787462992159
 30
0.0
  0
VERTEX
  5
12C
330
125
100
AcDbEntity
  8
Visible (ISO)
100
AcDbVertex
100
AcDb2dVertex
 10
338.021020406619
 20
459.8023760599581
 30
0.0
  0
VERTEX
  5
12D
330
125
100
AcDbEntity
  8
Visible (ISO)
100
AcDbVertex
100
AcDb2dVertex
 10
338.0369205416593
 20
459.7088396830049
 30
0.0
  0
VERTEX
  5
12E
330
125
100
AcDbEntity
  8
Visible (ISO)
100
AcDbVertex
100
AcDb2dVertex
 10
338.0552382410916
 20
459.5983422083346
 30
0.0
  0
VERTEX
  5
12F
330
125
100
AcDbEntity
  8
Visible (ISO)
100
AcDbVertex
100
AcDb2dVertex
 10
338.0754775942715
 20
459.4721854013887
 30
0.0
  0
VERTEX
  5
130
330
125
100
AcDbEntity
  8
Visible (ISO)
100
AcDbVertex
100
AcDb2dVertex
 10
338.097159379855
 20
459.3319380564181
 30
0.0
  0
VERTEX
  5
131
330
125
100
AcDbEntity
  8
Visible (ISO)
100
AcDbVertex
100
AcDb2dVertex
 10
338.1198043764981
 20
459.1791689676729
 30
0.0
  0
VERTEX
  5
132
330
125
100
AcDbEntity
  8
Visible (ISO)
100
AcDbVertex
100
AcDb2dVertex
 10
338.1429357470425
 20
459.0154564661471
 30
0.0
  0
VERTEX
  5
133
330
125
100
AcDbEntity
  8
Visible (ISO)
100
AcDbVertex
100
AcDb2dVertex
 10
338.1660718859586
 20
458.8423645777194
 30
0.0
  0
VERTEX
  5
134
330
125
100
AcDbEntity
  8
Visible (ISO)
100
AcDbVertex
100
AcDb2dVertex
 10
338.1892366351041
 20
458.6574662012544
 30
0.0
  0
VERTEX
  5
135
330
125
100
AcDbEntity
  8
Visible (ISO)
100
AcDbVertex
100
AcDb2dVertex
 10
338.2124466837796
 20
458.4582293314425
 30
0.0
  0
VERTEX
  5
136
330
125
100
AcDbEntity
  8
Visible (ISO)
100
AcDbVertex
100
AcDb2dVertex
 10
338.2352132738981
 20
458.2460749430147
 30
0.0
  0
VERTEX
  5
137
330
125
100
AcDbEntity
  8
Visible (ISO)
100
AcDbVertex
100
AcDb2dVertex
 10
338.2570524157437
 20
458.0224144739595
 30
0.0
  0
VERTEX
  5
138
330
125
100
AcDbEntity
  8
Visible (ISO)
100
AcDbVertex
100
AcDb2dVertex
 10
338.2774729670438
 20
457.7886641306368
 30
0.0
  0
VERTEX
  5
139
330
125
100
AcDbEntity
  8
Visible (ISO)
100
AcDbVertex
100
AcDb2dVertex
 10
338.2959885538968
 20
457.5462401194063
 30
0.0
  0
VERTEX
  5
13A
330
125
100
AcDbEntity
  8
Visible (ISO)
100
AcDbVertex
100
AcDb2dVertex
 10
338.3120865763577
 20
457.2966635508028
 30
0.0
  0
VERTEX
  5
13B
330
125
100
AcDbEntity
  8
Visible (ISO)
100
AcDbVertex
100
AcDb2dVertex
 10
338.3255047739896
 20
457.0419419092623
 30
0.0
  0
VERTEX
  5
13C
330
125
100
AcDbEntity
  8
Visible (ISO)
100
AcDbVertex
100
AcDb2dVertex
 10
338.3361358584318
 20
456.7841875833956
 30
0.0
  0
VERTEX
  5
13D
330
125
100
AcDbEntity
  8
Visible (ISO)
100
AcDbVertex
100
AcDb2dVertex
 10
338.3438653887662
 20
456.5255272669283
 30
0.0
  0
VERTEX
  5
13E
330
125
100
AcDbEntity
  8
Visible (ISO)
100
AcDbVertex
100
AcDb2dVertex
 10
338.3485860766324
 20
456.2680828852144
 30
0.0
  0
VERTEX
  5
13F
330
125
100
AcDbEntity
  8
Visible (ISO)
100
AcDbVertex
100
AcDb2dVertex
 10
338.3501834811124
 20
456.013976363608
 30
0.0
  0
SEQEND
  5
128
330
125
100
AcDbEntity
  8
Visible (ISO)
  0
LINE
  5
140
330
75
100
AcDbEntity
  8
Visible (ISO)
100
AcDbLine
 10
337.9834914149198
 20
517.0139782709566
 30
0.0
 11
381.9834914149197
 21
517.0139782709566
 31
0.0
  0
LINE
  5
141
330
75
100
AcDbEntity
  8
Visible (ISO)
100
AcDbLine
 10
337.9834914149198
 20
404.0139782709566
 30
0.0
 11
381.9834914149197
 21
404.0139782709566
 31
0.0
  0
LINE
  5
142
330
75
100
AcDbEntity
  8
Visible (ISO)
100
AcDbLine
 10
337.9834914149198
 20
404.0139782709566
 30
0.0
 11
337.9834914149198
 21
416.0139782709566
 31
0.0
  0
LINE
  5
143
330
75
100
AcDbEntity
  8
Visible (ISO)
100
AcDbLine
 10
337.9834914149198
 20
460.0139782709566
 30
0.0
 11
337.9834914149198
 21
517.0139782709566
 31
0.0
  0
LINE
  5
144
330
75
100
AcDbEntity
  8
Visible (ISO)
100
AcDbLine
 10
381.9834914149197
 20
404.0139782709566
 30
0.0
 11
381.9834914149197
 21
464.0195399768358
 31
0.0
  0
LINE
  5
145
330
75
100
AcDbEntity
  8
Visible (ISO)
100
AcDbLine
 10
381.9834914149197
 20
490.0079023502014
 30
0.0
 11
381.9834914149197
 21
517.0139782709566
 31
0.0
  0
ARC
  5
146
330
75
100
AcDbEntity
  8
Visible (ISO)
100
AcDbCircle
 10
352.6979436551467
 20
517.3929411174839
 30
0.0
 40
13.3698241020723
100
AcDbArc
 50
137.1643591908145
 51
181.6242457655645
  0
ARC
  5
147
330
75
100
AcDbEntity
  8
Visible (ISO)
100
AcDbCircle
 10
367.2690391746928
 20
517.3929411174839
 30
0.0
 40
13.3698241020723
100
AcDbArc
 50
358.3757542344355
 51
4.809801455246978
  0
LINE
  5
148
330
75
100
AcDbEntity
  8
Visible (ISO)
100
AcDbLine
 10
430.3834914149198
 20
541.0139782709568
 30
0.0
 11
430.3834914149198
 21
530.0139782709568
 31
0.0
  0
LINE
  5
149
330
75
100
AcDbEntity
  8
Visible (ISO)
100
AcDbLine
 10
381.9834914149197
 20
541.0139782709568
 30
0.0
 11
430.3834914149198
 21
541.013978270957
 31
0.0
  0
LINE
  5
14A
330
75
100
AcDbEntity
  8
Visible (ISO)
100
AcDbLine
 10
381.9834914149197
 20
530.0139782709567
 30
0.0
 11
430.3834914149198
 21
530.0139782709568
 31
0.0
  0
LINE
  5
14B
330
75
100
AcDbEntity
  8
Visible (ISO)
100
AcDbLine
 10
337.9834914149199
 20
547.5139782709569
 30
0.0
 11
381.9834914149197
 21
547.5139782709569
 31
0.0
  0
LINE
  5
14C
330
75
100
AcDbEntity
  8
Visible (ISO)
100
AcDbLine
 10
337.9834914149199
 20
528.7727467503666
 30
0.0
 11
337.9834914149199
 21
547.5139782709569
 31
0.0
  0
LINE
  5
14D
330
75
100
AcDbEntity
  8
Visible (ISO)
100
AcDbLine
 10
381.9834914149197
 20
518.5139782709565
 30
0.0
 11
381.9834914149197
 21
530.0139782709567
 31
0.0
  0
LINE
  5
14E
330
75
100
AcDbEntity
  8
Visible (ISO)
100
AcDbLine
 10
381.9834914149197
 20
541.0139782709568
 30
0.0
 11
381.9834914149197
 21
547.5139782709569
 31
0.0
  0
POLYLINE
  5
14F
330
75
100
AcDbEntity
  8
Visible (ISO)
100
AcDb2dPolyline
 66
     1
 10
0.0
 20
0.0
 30
0.0
 70
   128
  0
VERTEX
  5
150
330
14F
100
AcDbEntity
  8
Visible (ISO)
100
AcDbVertex
100
AcDb2dVertex
 10
381.2848992289455
 20
535.513978747794
 30
0.0
  0
VERTEX
  5
151
330
14F
100
AcDbEntity
  8
Visible (ISO)
100
AcDbVertex
100
AcDb2dVertex
 10
381.2879795969875
 20
535.8640559000462
 30
0.0
  0
VERTEX
  5
153
330
14F
100
AcDbEntity
  8
Visible (ISO)
100
AcDbVertex
100
AcDb2dVertex
 10
381.2970728815944
 20
536.2185700220554
 30
0.0
  0
VERTEX
  5
154
330
14F
100
AcDbEntity
  8
Visible (ISO)
100
AcDbVertex
100
AcDb2dVertex
 10
381.3119478167446
 20
536.5746052545993
 30
0.0
  0
VERTEX
  5
155
330
14F
100
AcDbEntity
  8
Visible (ISO)
100
AcDbVertex
100
AcDb2dVertex
 10
381.3323826731594
 20
536.9292469305484
 30
0.0
  0
VERTEX
  5
156
330
14F
100
AcDbEntity
  8
Visible (ISO)
100
AcDbVertex
100
AcDb2dVertex
 10
381.3581485690029
 20
537.2795768064945
 30
0.0
  0
VERTEX
  5
157
330
14F
100
AcDbEntity
  8
Visible (ISO)
100
AcDbVertex
100
AcDb2dVertex
 10
381.3890190066249
 20
537.622680215308
 30
0.0
  0
VERTEX
  5
158
330
14F
100
AcDbEntity
  8
Visible (ISO)
100
AcDbVertex
100
AcDb2dVertex
 10
381.4244742335231
 20
537.9558284563511
 30
0.0
  0
VERTEX
  5
159
330
14F
100
AcDbEntity
  8
Visible (ISO)
100
AcDbVertex
100
AcDb2dVertex
 10
381.4635224284085
 20
538.2769580168217
 30
0.0
  0
VERTEX
  5
15A
330
14F
100
AcDbEntity
  8
Visible (ISO)
100
AcDbVertex
100
AcDb2dVertex
 10
381.5052313746364
 20
538.5841472429722
 30
0.0
  0
VERTEX
  5
15B
330
14F
100
AcDbEntity
  8
Visible (ISO)
100
AcDbVertex
100
AcDb2dVertex
 10
381.5486640871914
 20
538.8754756731479
 30
0.0
  0
VERTEX
  5
15C
330
14F
100
AcDbEntity
  8
Visible (ISO)
100
AcDbVertex
100
AcDb2dVertex
 10
381.5928907336147
 20
539.1490204615085
 30
0.0
  0
VERTEX
  5
15D
330
14F
100
AcDbEntity
  8
Visible (ISO)
100
AcDbVertex
100
AcDb2dVertex
 10
381.6369767130764
 20
539.4028623384922
 30
0.0
  0
VERTEX
  5
15E
330
14F
100
AcDbEntity
  8
Visible (ISO)
100
AcDbVertex
100
AcDb2dVertex
 10
381.6809601725491
 20
539.6405227465122
 30
0.0
  0
VERTEX
  5
15F
330
14F
100
AcDbEntity
  8
Visible (ISO)
100
AcDbVertex
100
AcDb2dVertex
 10
381.7249007166775
 20
539.8653872293919
 30
0.0
  0
VERTEX
  5
160
330
14F
100
AcDbEntity
  8
Visible (ISO)
100
AcDbVertex
100
AcDb2dVertex
 10
381.7678947390468
 20
540.0752885622471
 30
0.0
  0
VERTEX
  5
161
330
14F
100
AcDbEntity
  8
Visible (ISO)
100
AcDbVertex
100
AcDb2dVertex
 10
381.8090410174282
 20
540.2680619043796
 30
0.0
  0
VERTEX
  5
162
330
14F
100
AcDbEntity
  8
Visible (ISO)
100
AcDbVertex
100
AcDb2dVertex
 10
381.8474359454067
 20
540.4415424150913
 30
0.0
  0
VERTEX
  5
163
330
14F
100
AcDbEntity
  8
Visible (ISO)
100
AcDbVertex
100
AcDb2dVertex
 10
381.882171148196
 20
540.5935676378696
 30
0.0
  0
VERTEX
  5
164
330
14F
100
AcDbEntity
  8
Visible (ISO)
100
AcDbVertex
100
AcDb2dVertex
 10
381.9123215617092
 20
540.7223303598851
 30
0.0
  0
VERTEX
  5
165
330
14F
100
AcDbEntity
  8
Visible (ISO)
100
AcDbVertex
100
AcDb2dVertex
 10
381.9374246539028
 20
540.8275182527988
 30
0.0
  0
VERTEX
  5
166
330
14F
100
AcDbEntity
  8
Visible (ISO)
100
AcDbVertex
100
AcDb2dVertex
 10
381.9572873057277
 20
540.9092028421849
 30
0.0
  0
VERTEX
  5
167
330
14F
100
AcDbEntity
  8
Visible (ISO)
100
AcDbVertex
100
AcDb2dVertex
 10
381.971716398135
 20
540.9674604219883
 30
0.0
  0
VERTEX
  5
168
330
14F
100
AcDbEntity
  8
Visible (ISO)
100
AcDbVertex
100
AcDb2dVertex
 10
381.9805140437038
 20
541.0023601335971
 30
0.0
  0
VERTEX
  5
169
330
14F
100
AcDbEntity
  8
Visible (ISO)
100
AcDbVertex
100
AcDb2dVertex
 10
381.9834918917568
 20
541.0139782709568
 30
0.0
  0
SEQEND
  5
152
330
14F
100
AcDbEntity
  8
Visible (ISO)
  0
POLYLINE
  5
16A
330
75
100
AcDbEntity
  8
Visible (ISO)
100
AcDb2dPolyline
 66
     1
 10
0.0
 20
0.0
 30
0.0
 70
   128
  0
VERTEX
  5
16B
330
16A
100
AcDbEntity
  8
Visible (ISO)
100
AcDbVertex
100
AcDb2dVertex
 10
381.9834918917568
 20
530.0139780325381
 30
0.0
  0
VERTEX
  5
16C
330
16A
100
AcDbEntity
  8
Visible (ISO)
100
AcDbVertex
100
AcDb2dVertex
 10
381.9805140437038
 20
530.0255949778049
 30
0.0
  0
VERTEX
  5
16E
330
16A
100
AcDbEntity
  8
Visible (ISO)
100
AcDbVertex
100
AcDb2dVertex
 10
381.971716398135
 20
530.0604958815068
 30
0.0
  0
VERTEX
  5
16F
330
16A
100
AcDbEntity
  8
Visible (ISO)
100
AcDbVertex
100
AcDb2dVertex
 10
381.9572873057277
 20
530.1187522692172
 30
0.0
  0
VERTEX
  5
170
330
16A
100
AcDbEntity
  8
Visible (ISO)
100
AcDbVertex
100
AcDb2dVertex
 10
381.9374246539028
 20
530.2004380506961
 30
0.0
  0
VERTEX
  5
171
330
16A
100
AcDbEntity
  8
Visible (ISO)
100
AcDbVertex
100
AcDb2dVertex
 10
381.9123215617092
 20
530.3056259436099
 30
0.0
  0
VERTEX
  5
172
330
16A
100
AcDbEntity
  8
Visible (ISO)
100
AcDbVertex
100
AcDb2dVertex
 10
381.882171148196
 20
530.4343898577181
 30
0.0
  0
VERTEX
  5
173
330
16A
100
AcDbEntity
  8
Visible (ISO)
100
AcDbVertex
100
AcDb2dVertex
 10
381.8474359454067
 20
530.5864138884036
 30
0.0
  0
VERTEX
  5
174
330
16A
100
AcDbEntity
  8
Visible (ISO)
100
AcDbVertex
100
AcDb2dVertex
 10
381.8090410174282
 20
530.7598955912082
 30
0.0
  0
VERTEX
  5
175
330
16A
100
AcDbEntity
  8
Visible (ISO)
100
AcDbVertex
100
AcDb2dVertex
 10
381.7678947390468
 20
530.9526689333408
 30
0.0
  0
VERTEX
  5
176
330
16A
100
AcDbEntity
  8
Visible (ISO)
100
AcDbVertex
100
AcDb2dVertex
 10
381.7249007166775
 20
531.1625690741031
 30
0.0
  0
VERTEX
  5
177
330
16A
100
AcDbEntity
  8
Visible (ISO)
100
AcDbVertex
100
AcDb2dVertex
 10
381.6809601725491
 20
531.3874323648898
 30
0.0
  0
VERTEX
  5
178
330
16A
100
AcDbEntity
  8
Visible (ISO)
100
AcDbVertex
100
AcDb2dVertex
 10
381.6369767130764
 20
531.6250951570956
 30
0.0
  0
VERTEX
  5
179
330
16A
100
AcDbEntity
  8
Visible (ISO)
100
AcDbVertex
100
AcDb2dVertex
 10
381.5928907336147
 20
531.8789370340794
 30
0.0
  0
VERTEX
  5
17A
330
16A
100
AcDbEntity
  8
Visible (ISO)
100
AcDbVertex
100
AcDb2dVertex
 10
381.5486640871914
 20
532.1524818224398
 30
0.0
  0
VERTEX
  5
17B
330
16A
100
AcDbEntity
  8
Visible (ISO)
100
AcDbVertex
100
AcDb2dVertex
 10
381.5052313746364
 20
532.4438090605227
 30
0.0
  0
VERTEX
  5
17C
330
16A
100
AcDbEntity
  8
Visible (ISO)
100
AcDbVertex
100
AcDb2dVertex
 10
381.4635224284085
 20
532.7509982866733
 30
0.0
  0
VERTEX
  5
17D
330
16A
100
AcDbEntity
  8
Visible (ISO)
100
AcDbVertex
100
AcDb2dVertex
 10
381.4244742335231
 20
533.0721278471438
 30
0.0
  0
VERTEX
  5
17E
330
16A
100
AcDbEntity
  8
Visible (ISO)
100
AcDbVertex
100
AcDb2dVertex
 10
381.3890190066249
 20
533.4052760881871
 30
0.0
  0
VERTEX
  5
17F
330
16A
100
AcDbEntity
  8
Visible (ISO)
100
AcDbVertex
100
AcDb2dVertex
 10
381.3581485690029
 20
533.7483794970005
 30
0.0
  0
VERTEX
  5
180
330
16A
100
AcDbEntity
  8
Visible (ISO)
100
AcDbVertex
100
AcDb2dVertex
 10
381.3323826731594
 20
534.0987093729466
 30
0.0
  0
VERTEX
  5
181
330
16A
100
AcDbEntity
  8
Visible (ISO)
100
AcDbVertex
100
AcDb2dVertex
 10
381.3119478167446
 20
534.4533510488957
 30
0.0
  0
VERTEX
  5
182
330
16A
100
AcDbEntity
  8
Visible (ISO)
100
AcDbVertex
100
AcDb2dVertex
 10
381.2970728815944
 20
534.8093862814396
 30
0.0
  0
VERTEX
  5
183
330
16A
100
AcDbEntity
  8
Visible (ISO)
100
AcDbVertex
100
AcDb2dVertex
 10
381.2879795969875
 20
535.1639015955417
 30
0.0
  0
VERTEX
  5
184
330
16A
100
AcDbEntity
  8
Visible (ISO)
100
AcDbVertex
100
AcDb2dVertex
 10
381.2848992289455
 20
535.513978747794
 30
0.0
  0
SEQEND
  5
16D
330
16A
100
AcDbEntity
  8
Visible (ISO)
  0
POLYLINE
  5
185
330
75
100
AcDbEntity
  8
Visible (ISO)
100
AcDb2dPolyline
 66
     1
 10
0.0
 20
0.0
 30
0.0
 70
   128
  0
VERTEX
  5
186
330
185
100
AcDbEntity
  8
Visible (ISO)
100
AcDbVertex
100
AcDb2dVertex
 10
381.1495013178737
 20
527.5139780325381
 30
0.0
  0
VERTEX
  5
187
330
185
100
AcDbEntity
  8
Visible (ISO)
100
AcDbVertex
100
AcDb2dVertex
 10
381.1143131197842
 20
527.5223757309405
 30
0.0
  0
VERTEX
  5
189
330
185
100
AcDbEntity
  8
Visible (ISO)
100
AcDbVertex
100
AcDb2dVertex
 10
381.0780520380886
 20
527.547691611716
 30
0.0
  0
VERTEX
  5
18A
330
185
100
AcDbEntity
  8
Visible (ISO)
100
AcDbVertex
100
AcDb2dVertex
 10
381.0419244707973
 20
527.590108661124
 30
0.0
  0
VERTEX
  5
18B
330
185
100
AcDbEntity
  8
Visible (ISO)
100
AcDbVertex
100
AcDb2dVertex
 10
381.0071248949917
 20
527.6492585224596
 30
0.0
  0
VERTEX
  5
18C
330
185
100
AcDbEntity
  8
Visible (ISO)
100
AcDbVertex
100
AcDb2dVertex
 10
380.9747190417202
 20
527.7225573343722
 30
0.0
  0
VERTEX
  5
18D
330
185
100
AcDbEntity
  8
Visible (ISO)
100
AcDbVertex
100
AcDb2dVertex
 10
380.9457178057582
 20
527.8068716806857
 30
0.0
  0
VERTEX
  5
18E
330
185
100
AcDbEntity
  8
Visible (ISO)
100
AcDbVertex
100
AcDb2dVertex
 10
380.9199566782864
 20
527.9030562920062
 30
0.0
  0
VERTEX
  5
18F
330
185
100
AcDbEntity
  8
Visible (ISO)
100
AcDbVertex
100
AcDb2dVertex
 10
380.8973092974575
 20
528.0121453089206
 30
0.0
  0
VERTEX
  5
190
330
185
100
AcDbEntity
  8
Visible (ISO)
100
AcDbVertex
100
AcDb2dVertex
 10
380.8788652361782
 20
528.1312705559222
 30
0.0
  0
VERTEX
  5
191
330
185
100
AcDbEntity
  8
Visible (ISO)
100
AcDbVertex
100
AcDb2dVertex
 10
380.8655495585353
 20
528.2573343796221
 30
0.0
  0
VERTEX
  5
192
330
185
100
AcDbEntity
  8
Visible (ISO)
100
AcDbVertex
100
AcDb2dVertex
 10
380.8575601519497
 20
528.3863188309161
 30
0.0
  0
VERTEX
  5
193
330
185
100
AcDbEntity
  8
Visible (ISO)
100
AcDbVertex
100
AcDb2dVertex
 10
380.8548970164212
 20
528.5139782709567
 30
0.0
  0
VERTEX
  5
194
330
185
100
AcDbEntity
  8
Visible (ISO)
100
AcDbVertex
100
AcDb2dVertex
 10
380.8575601519497
 20
528.6416371149508
 30
0.0
  0
VERTEX
  5
195
330
185
100
AcDbEntity
  8
Visible (ISO)
100
AcDbVertex
100
AcDb2dVertex
 10
380.8655495585353
 20
528.7706227583377
 30
0.0
  0
VERTEX
  5
196
330
185
100
AcDbEntity
  8
Visible (ISO)
100
AcDbVertex
100
AcDb2dVertex
 10
380.8788652361782
 20
528.8966853899447
 30
0.0
  0
VERTEX
  5
197
330
185
100
AcDbEntity
  8
Visible (ISO)
100
AcDbVertex
100
AcDb2dVertex
 10
380.8973092974575
 20
529.015811232993
 30
0.0
  0
VERTEX
  5
198
330
185
100
AcDbEntity
  8
Visible (ISO)
100
AcDbVertex
100
AcDb2dVertex
 10
380.9199566782864
 20
529.1249008459536
 30
0.0
  0
VERTEX
  5
199
330
185
100
AcDbEntity
  8
Visible (ISO)
100
AcDbVertex
100
AcDb2dVertex
 10
380.9457178057582
 20
529.2210848612277
 30
0.0
  0
VERTEX
  5
19A
330
185
100
AcDbEntity
  8
Visible (ISO)
100
AcDbVertex
100
AcDb2dVertex
 10
380.9747190417202
 20
529.3053992075412
 30
0.0
  0
VERTEX
  5
19B
330
185
100
AcDbEntity
  8
Visible (ISO)
100
AcDbVertex
100
AcDb2dVertex
 10
381.0071248949917
 20
529.3786986155001
 30
0.0
  0
VERTEX
  5
19C
330
185
100
AcDbEntity
  8
Visible (ISO)
100
AcDbVertex
100
AcDb2dVertex
 10
381.0419244707973
 20
529.4378478807896
 30
0.0
  0
VERTEX
  5
19D
330
185
100
AcDbEntity
  8
Visible (ISO)
100
AcDbVertex
100
AcDb2dVertex
 10
381.0780520380886
 20
529.4802649301974
 30
0.0
  0
VERTEX
  5
19E
330
185
100
AcDbEntity
  8
Visible (ISO)
100
AcDbVertex
100
AcDb2dVertex
 10
381.1143131197842
 20
529.5055802149264
 30
0.0
  0
VERTEX
  5
19F
330
185
100
AcDbEntity
  8
Visible (ISO)
100
AcDbVertex
100
AcDb2dVertex
 10
381.1495013178737
 20
529.5139785093753
 30
0.0
  0
SEQEND
  5
188
330
185
100
AcDbEntity
  8
Visible (ISO)
  0
POLYLINE
  5
1A0
330
75
100
AcDbEntity
  8
Visible (ISO)
100
AcDb2dPolyline
 66
     1
 10
0.0
 20
0.0
 30
0.0
 70
   128
  0
VERTEX
  5
1A1
330
1A0
100
AcDbEntity
  8
Visible (ISO)
100
AcDbVertex
100
AcDb2dVertex
 10
381.1495013178737
 20
529.5139785093753
 30
0.0
  0
VERTEX
  5
1A2
330
1A0
100
AcDbEntity
  8
Visible (ISO)
100
AcDbVertex
100
AcDb2dVertex
 10
381.1839456499965
 20
529.5055802149264
 30
0.0
  0
VERTEX
  5
1A4
330
1A0
100
AcDbEntity
  8
Visible (ISO)
100
AcDbVertex
100
AcDb2dVertex
 10
381.2180395068081
 20
529.4802649301974
 30
0.0
  0
VERTEX
  5
1A5
330
1A0
100
AcDbEntity
  8
Visible (ISO)
100
AcDbVertex
100
AcDb2dVertex
 10
381.2506742419155
 20
529.4378478807896
 30
0.0
  0
VERTEX
  5
1A6
330
1A0
100
AcDbEntity
  8
Visible (ISO)
100
AcDbVertex
100
AcDb2dVertex
 10
381.2808508814724
 20
529.3786986155001
 30
0.0
  0
VERTEX
  5
1A7
330
1A0
100
AcDbEntity
  8
Visible (ISO)
100
AcDbVertex
100
AcDb2dVertex
 10
381.307949537173
 20
529.3053992075412
 30
0.0
  0
VERTEX
  5
1A8
330
1A0
100
AcDbEntity
  8
Visible (ISO)
100
AcDbVertex
100
AcDb2dVertex
 10
381.3314146937283
 20
529.2210848612277
 30
0.0
  0
VERTEX
  5
1A9
330
1A0
100
AcDbEntity
  8
Visible (ISO)
100
AcDbVertex
100
AcDb2dVertex
 10
381.3516397417934
 20
529.1249008459536
 30
0.0
  0
VERTEX
  5
1AA
330
1A0
100
AcDbEntity
  8
Visible (ISO)
100
AcDbVertex
100
AcDb2dVertex
 10
381.3689751566799
 20
529.015811232993
 30
0.0
  0
VERTEX
  5
1AB
330
1A0
100
AcDbEntity
  8
Visible (ISO)
100
AcDbVertex
100
AcDb2dVertex
 10
381.3827938975246
 20
528.8966853899447
 30
0.0
  0
VERTEX
  5
1AC
330
1A0
100
AcDbEntity
  8
Visible (ISO)
100
AcDbVertex
100
AcDb2dVertex
 10
381.3926143587978
 20
528.7706227583377
 30
0.0
  0
VERTEX
  5
1AD
330
1A0
100
AcDbEntity
  8
Visible (ISO)
100
AcDbVertex
100
AcDb2dVertex
 10
381.3984341563137
 20
528.6416371149508
 30
0.0
  0
VERTEX
  5
1AE
330
1A0
100
AcDbEntity
  8
Visible (ISO)
100
AcDbVertex
100
AcDb2dVertex
 10
381.4003510416897
 20
528.5139782709567
 30
0.0
  0
VERTEX
  5
1AF
330
1A0
100
AcDbEntity
  8
Visible (ISO)
100
AcDbVertex
100
AcDb2dVertex
 10
381.3984341563137
 20
528.3863188309161
 30
0.0
  0
VERTEX
  5
1B0
330
1A0
100
AcDbEntity
  8
Visible (ISO)
100
AcDbVertex
100
AcDb2dVertex
 10
381.3926143587978
 20
528.2573343796221
 30
0.0
  0
VERTEX
  5
1B1
330
1A0
100
AcDbEntity
  8
Visible (ISO)
100
AcDbVertex
100
AcDb2dVertex
 10
381.3827938975246
 20
528.1312705559222
 30
0.0
  0
VERTEX
  5
1B2
330
1A0
100
AcDbEntity
  8
Visible (ISO)
100
AcDbVertex
100
AcDb2dVertex
 10
381.3689751566799
 20
528.0121453089206
 30
0.0
  0
VERTEX
  5
1B3
330
1A0
100
AcDbEntity
  8
Visible (ISO)
100
AcDbVertex
100
AcDb2dVertex
 10
381.3516397417934
 20
527.9030562920062
 30
0.0
  0
VERTEX
  5
1B4
330
1A0
100
AcDbEntity
  8
Visible (ISO)
100
AcDbVertex
100
AcDb2dVertex
 10
381.3314146937283
 20
527.8068716806857
 30
0.0
  0
VERTEX
  5
1B5
330
1A0
100
AcDbEntity
  8
Visible (ISO)
100
AcDbVertex
100
AcDb2dVertex
 10
381.307949537173
 20
527.7225573343722
 30
0.0
  0
VERTEX
  5
1B6
330
1A0
100
AcDbEntity
  8
Visible (ISO)
100
AcDbVertex
100
AcDb2dVertex
 10
381.2808508814724
 20
527.6492585224596
 30
0.0
  0
VERTEX
  5
1B7
330
1A0
100
AcDbEntity
  8
Visible (ISO)
100
AcDbVertex
100
AcDb2dVertex
 10
381.2506742419155
 20
527.590108661124
 30
0.0
  0
VERTEX
  5
1B8
330
1A0
100
AcDbEntity
  8
Visible (ISO)
100
AcDbVertex
100
AcDb2dVertex
 10
381.2180395068081
 20
527.547691611716
 30
0.0
  0
VERTEX
  5
1B9
330
1A0
100
AcDbEntity
  8
Visible (ISO)
100
AcDbVertex
100
AcDb2dVertex
 10
381.1839456499965
 20
527.5223757309405
 30
0.0
  0
VERTEX
  5
1BA
330
1A0
100
AcDbEntity
  8
Visible (ISO)
100
AcDbVertex
100
AcDb2dVertex
 10
381.1495013178737
 20
527.5139780325381
 30
0.0
  0
SEQEND
  5
1A3
330
1A0
100
AcDbEntity
  8
Visible (ISO)
  0
LINE
  5
1BB
330
75
100
AcDbEntity
  8
Visible (ISO)
100
AcDbLine
 10
359.9834914149198
 20
518.5139782709565
 30
0.0
 11
337.9834914149199
 21
528.7727467503666
 31
0.0
  0
LINE
  5
1BC
330
75
100
AcDbEntity
  8
Visible (ISO)
100
AcDbLine
 10
359.9834914149198
 20
518.5139782709565
 30
0.0
 11
381.9834914149197
 21
518.5139782709565
 31
0.0
  0
ELLIPSE
  5
1BD
330
75
100
AcDbEntity
  8
Visible Narrow (ISO)
100
AcDbEllipse
 10
471.8807548395863
 20
487.9999302651555
 30
0.0
 11
0.9925683199703639
 21
-0.1216886608981668
 31
0.0
210
0.0
220
0.0
230
1.0
 40
0.914384337441559
 41
0.0841216775639389
 42
1.598311873714628
  0
POLYLINE
  5
1BE
330
75
100
AcDbEntity
  8
Visible Narrow (ISO)
100
AcDb2dPolyline
 66
     1
 10
0.0
 20
0.0
 30
0.0
 70
   128
  0
VERTEX
  5
1BF
330
1BE
100
AcDbEntity
  8
Visible Narrow (ISO)
100
AcDbVertex
100
AcDb2dVertex
 10
471.8807510812498
 20
488.9154260217082
 30
0.0
  0
VERTEX
  5
1C0
330
1BE
100
AcDbEntity
  8
Visible Narrow (ISO)
100
AcDbVertex
100
AcDb2dVertex
 10
471.9232468087888
 20
488.8339994056487
 30
0.0
  0
VERTEX
  5
1C2
330
1BE
100
AcDbEntity
  8
Visible Narrow (ISO)
100
AcDbVertex
100
AcDb2dVertex
 10
471.9655327279782
 20
488.7434738876012
 30
0.0
  0
VERTEX
  5
1C3
330
1BE
100
AcDbEntity
  8
Visible Narrow (ISO)
100
AcDbVertex
100
AcDb2dVertex
 10
472.0074753244138
 20
488.6437247932676
 30
0.0
  0
VERTEX
  5
1C4
330
1BE
100
AcDbEntity
  8
Visible Narrow (ISO)
100
AcDbVertex
100
AcDb2dVertex
 10
472.048941083691
 20
488.5346584309337
 30
0.0
  0
VERTEX
  5
1C5
330
1BE
100
AcDbEntity
  8
Visible Narrow (ISO)
100
AcDbVertex
100
AcDb2dVertex
 10
472.0897964914058
 20
488.4161406116314
 30
0.0
  0
VERTEX
  5
1C6
330
1BE
100
AcDbEntity
  8
Visible Narrow (ISO)
100
AcDbVertex
100
AcDb2dVertex
 10
472.1299175698971
 20
488.2879882989727
 30
0.0
  0
VERTEX
  5
1C7
330
1BE
100
AcDbEntity
  8
Visible Narrow (ISO)
100
AcDbVertex
100
AcDb2dVertex
 10
472.1691708047603
 20
488.1500172640829
 30
0.0
  0
VERTEX
  5
1C8
330
1BE
100
AcDbEntity
  8
Visible Narrow (ISO)
100
AcDbVertex
100
AcDb2dVertex
 10
472.2074226815913
 20
488.0020432418261
 30
0.0
  0
VERTEX
  5
1C9
330
1BE
100
AcDbEntity
  8
Visible Narrow (ISO)
100
AcDbVertex
100
AcDb2dVertex
 10
472.2448925454829
 20
487.8436867356613
 30
0.0
  0
VERTEX
  5
1CA
330
1BE
100
AcDbEntity
  8
Visible Narrow (ISO)
100
AcDbVertex
100
AcDb2dVertex
 10
472.2813038308832
 20
487.674221633247
 30
0.0
  0
VERTEX
  5
1CB
330
1BE
100
AcDbEntity
  8
Visible Narrow (ISO)
100
AcDbVertex
100
AcDb2dVertex
 10
472.3161415536615
 20
487.4928927731184
 30
0.0
  0
VERTEX
  5
1CC
330
1BE
100
AcDbEntity
  8
Visible Narrow (ISO)
100
AcDbVertex
100
AcDb2dVertex
 10
472.3488621194575
 20
487.2989426088375
 30
0.0
  0
VERTEX
  5
1CD
330
1BE
100
AcDbEntity
  8
Visible Narrow (ISO)
100
AcDbVertex
100
AcDb2dVertex
 10
472.3789600808832
 20
487.0916171698497
 30
0.0
  0
VERTEX
  5
1CE
330
1BE
100
AcDbEntity
  8
Visible Narrow (ISO)
100
AcDbVertex
100
AcDb2dVertex
 10
472.4058918435785
 20
486.8701577176241
 30
0.0
  0
VERTEX
  5
1CF
330
1BE
100
AcDbEntity
  8
Visible Narrow (ISO)
100
AcDbVertex
100
AcDb2dVertex
 10
472.4291328866693
 20
486.633809090696
 30
0.0
  0
VERTEX
  5
1D0
330
1BE
100
AcDbEntity
  8
Visible Narrow (ISO)
100
AcDbVertex
100
AcDb2dVertex
 10
472.448006101391
 20
486.3808381530338
 30
0.0
  0
VERTEX
  5
1D1
330
1BE
100
AcDbEntity
  8
Visible Narrow (ISO)
100
AcDbVertex
100
AcDb2dVertex
 10
472.460155912182
 20
486.1099181313675
 30
0.0
  0
VERTEX
  5
1D2
330
1BE
100
AcDbEntity
  8
Visible Narrow (ISO)
100
AcDbVertex
100
AcDb2dVertex
 10
472.4626068551751
 20
485.8318000638449
 30
0.0
  0
VERTEX
  5
1D3
330
1BE
100
AcDbEntity
  8
Visible Narrow (ISO)
100
AcDbVertex
100
AcDb2dVertex
 10
472.4524311502191
 20
485.5585982183885
 30
0.0
  0
VERTEX
  5
1D4
330
1BE
100
AcDbEntity
  8
Visible Narrow (ISO)
100
AcDbVertex
100
AcDb2dVertex
 10
472.4268154580805
 20
485.3034062097001
 30
0.0
  0
VERTEX
  5
1D5
330
1BE
100
AcDbEntity
  8
Visible Narrow (ISO)
100
AcDbVertex
100
AcDb2dVertex
 10
472.3868183572505
 20
485.0946823780604
 30
0.0
  0
VERTEX
  5
1D6
330
1BE
100
AcDbEntity
  8
Visible Narrow (ISO)
100
AcDbVertex
100
AcDb2dVertex
 10
472.3365025003169
 20
484.9374044380406
 30
0.0
  0
VERTEX
  5
1D7
330
1BE
100
AcDbEntity
  8
Visible Narrow (ISO)
100
AcDbVertex
100
AcDb2dVertex
 10
472.279596753857
 20
484.8265750910477
 30
0.0
  0
VERTEX
  5
1D8
330
1BE
100
AcDbEntity
  8
Visible Narrow (ISO)
100
AcDbVertex
100
AcDb2dVertex
 10
472.2198872049069
 20
484.7571976349287
 30
0.0
  0
SEQEND
  5
1C1
330
1BE
100
AcDbEntity
  8
Visible Narrow (ISO)
  0
ELLIPSE
  5
1D9
330
75
100
AcDbEntity
  8
Visible Narrow (ISO)
100
AcDbEllipse
 10
470.5314578576091
 20
477.0139782709566
 30
0.0
 11
1.473414416827997
 21
12.99999999954253
 31
0.0
210
0.0
220
0.0
230
1.0
 40
0.0000739952212806
 41
5.889839233231679
 42
6.262490804694575
  0
POLYLINE
  5
1DA
330
75
100
AcDbEntity
  8
Visible (ISO)
100
AcDb2dPolyline
 66
     1
 10
0.0
 20
0.0
 30
0.0
 70
   128
  0
VERTEX
  5
1DB
330
1DA
100
AcDbEntity
  8
Visible (ISO)
100
AcDbVertex
100
AcDb2dVertex
 10
451.529961057446
 20
467.3952693065194
 30
0.0
  0
VERTEX
  5
1DC
330
1DA
100
AcDbEntity
  8
Visible (ISO)
100
AcDbVertex
100
AcDb2dVertex
 10
451.722717710278
 20
467.5577463103678
 30
0.0
  0
VERTEX
  5
1DE
330
1DA
100
AcDbEntity
  8
Visible (ISO)
100
AcDbVertex
100
AcDb2dVertex
 10
451.92044777467
 20
467.7258769626809
 30
0.0
  0
VERTEX
  5
1DF
330
1DA
100
AcDbEntity
  8
Visible (ISO)
100
AcDbVertex
100
AcDb2dVertex
 10
452.12308449342
 20
467.8992548528861
 30
0.0
  0
VERTEX
  5
1E0
330
1DA
100
AcDbEntity
  8
Visible (ISO)
100
AcDbVertex
100
AcDb2dVertex
 10
452.3305420358394
 20
468.0774676131008
 30
0.0
  0
VERTEX
  5
1E1
330
1DA
100
AcDbEntity
  8
Visible (ISO)
100
AcDbVertex
100
AcDb2dVertex
 10
452.542720266125
 20
468.260087984532
 30
0.0
  0
VERTEX
  5
1E2
330
1DA
100
AcDbEntity
  8
Visible (ISO)
100
AcDbVertex
100
AcDb2dVertex
 10
452.7595047433588
 20
468.446760214238
 30
0.0
  0
VERTEX
  5
1E3
330
1DA
100
AcDbEntity
  8
Visible (ISO)
100
AcDbVertex
100
AcDb2dVertex
 10
452.9808048684808
 20
468.637142847294
 30
0.0
  0
VERTEX
  5
1E4
330
1DA
100
AcDbEntity
  8
Visible (ISO)
100
AcDbVertex
100
AcDb2dVertex
 10
453.2065109689447
 20
468.8308962177031
 30
0.0
  0
VERTEX
  5
1E5
330
1DA
100
AcDbEntity
  8
Visible (ISO)
100
AcDbVertex
100
AcDb2dVertex
 10
453.4365229089471
 20
469.0276782760707
 30
0.0
  0
VERTEX
  5
1E6
330
1DA
100
AcDbEntity
  8
Visible (ISO)
100
AcDbVertex
100
AcDb2dVertex
 10
453.670692868969
 20
469.2271547302757
 30
0.0
  0
VERTEX
  5
1E7
330
1DA
100
AcDbEntity
  8
Visible (ISO)
100
AcDbVertex
100
AcDb2dVertex
 10
453.9088348825187
 20
469.4290359924589
 30
0.0
  0
VERTEX
  5
1E8
330
1DA
100
AcDbEntity
  8
Visible (ISO)
100
AcDbVertex
100
AcDb2dVertex
 10
454.1507725198478
 20
469.6330563055782
 30
0.0
  0
VERTEX
  5
1E9
330
1DA
100
AcDbEntity
  8
Visible (ISO)
100
AcDbVertex
100
AcDb2dVertex
 10
454.3962959726066
 20
469.8389755406122
 30
0.0
  0
VERTEX
  5
1EA
330
1DA
100
AcDbEntity
  8
Visible (ISO)
100
AcDbVertex
100
AcDb2dVertex
 10
454.6451858957023
 20
470.0465780052564
 30
0.0
  0
VERTEX
  5
1EB
330
1DA
100
AcDbEntity
  8
Visible (ISO)
100
AcDbVertex
100
AcDb2dVertex
 10
454.8971752603263
 20
470.255665887413
 30
0.0
  0
VERTEX
  5
1EC
330
1DA
100
AcDbEntity
  8
Visible (ISO)
100
AcDbVertex
100
AcDb2dVertex
 10
455.1519588906973
 20
470.4660777298689
 30
0.0
  0
VERTEX
  5
1ED
330
1DA
100
AcDbEntity
  8
Visible (ISO)
100
AcDbVertex
100
AcDb2dVertex
 10
455.4092840631215
 20
470.6777581484009
 30
0.0
  0
VERTEX
  5
1EE
330
1DA
100
AcDbEntity
  8
Visible (ISO)
100
AcDbVertex
100
AcDb2dVertex
 10
455.6687454660147
 20
470.89048489183
 30
0.0
  0
VERTEX
  5
1EF
330
1DA
100
AcDbEntity
  8
Visible (ISO)
100
AcDbVertex
100
AcDb2dVertex
 10
455.9296946008413
 20
471.1039576418868
 30
0.0
  0
VERTEX
  5
1F0
330
1DA
100
AcDbEntity
  8
Visible (ISO)
100
AcDbVertex
100
AcDb2dVertex
 10
456.1917595346181
 20
471.3183230267539
 30
0.0
  0
VERTEX
  5
1F1
330
1DA
100
AcDbEntity
  8
Visible (ISO)
100
AcDbVertex
100
AcDb2dVertex
 10
456.4545826394765
 20
471.5337407876323
 30
0.0
  0
VERTEX
  5
1F2
330
1DA
100
AcDbEntity
  8
Visible (ISO)
100
AcDbVertex
100
AcDb2dVertex
 10
456.7178062875478
 20
471.7503712617699
 30
0.0
  0
VERTEX
  5
1F3
330
1DA
100
AcDbEntity
  8
Visible (ISO)
100
AcDbVertex
100
AcDb2dVertex
 10
456.9810633142202
 20
471.9683747848378
 30
0.0
  0
VERTEX
  5
1F4
330
1DA
100
AcDbEntity
  8
Visible (ISO)
100
AcDbVertex
100
AcDb2dVertex
 10
457.2440056283681
 20
472.1879116940836
 30
0.0
  0
SEQEND
  5
1DD
330
1DA
100
AcDbEntity
  8
Visible (ISO)
  0
ELLIPSE
  5
1F5
330
75
100
AcDbEntity
  8
Visible Narrow (ISO)
100
AcDbEllipse
 10
459.8757677758168
 20
477.0139782709566
 30
0.0
 11
-13.10928881397615
 21
-12.99999927752051
 31
0.0
210
0.0
220
0.0
230
1.0
 40
0.0003306132148175
 41
0.1367101599268174
 42
2.591491974947263
  0
POLYLINE
  5
1F6
330
75
100
AcDbEntity
  8
Visible (ISO)
100
AcDb2dPolyline
 66
     1
 10
0.0
 20
0.0
 30
0.0
 70
   128
  0
VERTEX
  5
1F7
330
1F6
100
AcDbEntity
  8
Visible (ISO)
100
AcDbVertex
100
AcDb2dVertex
 10
472.8733257730223
 20
487.8782419966015
 30
0.0
  0
VERTEX
  5
1F8
330
1F6
100
AcDbEntity
  8
Visible (ISO)
100
AcDbVertex
100
AcDb2dVertex
 10
472.8418545205808
 20
487.6215891923416
 30
0.0
  0
VERTEX
  5
1FA
330
1F6
100
AcDbEntity
  8
Visible (ISO)
100
AcDbVertex
100
AcDb2dVertex
 10
472.8232387979245
 20
487.4698419288676
 30
0.0
  0
VERTEX
  5
1FB
330
1F6
100
AcDbEntity
  8
Visible (ISO)
100
AcDbVertex
100
AcDb2dVertex
 10
472.8025822122312
 20
487.3014914571537
 30
0.0
  0
VERTEX
  5
1FC
330
1F6
100
AcDbEntity
  8
Visible (ISO)
100
AcDbVertex
100
AcDb2dVertex
 10
472.7798275430417
 20
487.1160176944654
 30
0.0
  0
VERTEX
  5
1FD
330
1F6
100
AcDbEntity
  8
Visible (ISO)
100
AcDbVertex
100
AcDb2dVertex
 10
472.7548698861812
 20
486.912581815177
 30
0.0
  0
VERTEX
  5
1FE
330
1F6
100
AcDbEntity
  8
Visible (ISO)
100
AcDbVertex
100
AcDb2dVertex
 10
472.7275185067866
 20
486.6897764373764
 30
0.0
  0
VERTEX
  5
1FF
330
1F6
100
AcDbEntity
  8
Visible (ISO)
100
AcDbVertex
100
AcDb2dVertex
 10
472.6976971109126
 20
486.4467743726938
 30
0.0
  0
VERTEX
  5
200
330
1F6
100
AcDbEntity
  8
Visible (ISO)
100
AcDbVertex
100
AcDb2dVertex
 10
472.6653770883295
 20
486.1834834102825
 30
0.0
  0
VERTEX
  5
201
330
1F6
100
AcDbEntity
  8
Visible (ISO)
100
AcDbVertex
100
AcDb2dVertex
 10
472.648430295727
 20
486.0454278098805
 30
0.0
  0
VERTEX
  5
202
330
1F6
100
AcDbEntity
  8
Visible (ISO)
100
AcDbVertex
100
AcDb2dVertex
 10
472.6313023050043
 20
485.9059349339046
 30
0.0
  0
VERTEX
  5
203
330
1F6
100
AcDbEntity
  8
Visible (ISO)
100
AcDbVertex
100
AcDb2dVertex
 10
472.6146130044672
 20
485.7700328603923
 30
0.0
  0
VERTEX
  5
204
330
1F6
100
AcDbEntity
  8
Visible (ISO)
100
AcDbVertex
100
AcDb2dVertex
 10
472.5993828256343
 20
485.6460409051948
 30
0.0
  0
VERTEX
  5
205
330
1F6
100
AcDbEntity
  8
Visible (ISO)
100
AcDbVertex
100
AcDb2dVertex
 10
472.5869755227779
 20
485.5450643619207
 30
0.0
  0
VERTEX
  5
206
330
1F6
100
AcDbEntity
  8
Visible (ISO)
100
AcDbVertex
100
AcDb2dVertex
 10
472.578087278149
 20
485.4727646936439
 30
0.0
  0
VERTEX
  5
207
330
1F6
100
AcDbEntity
  8
Visible (ISO)
100
AcDbVertex
100
AcDb2dVertex
 10
472.5725559671139
 20
485.4278422376526
 30
0.0
  0
VERTEX
  5
208
330
1F6
100
AcDbEntity
  8
Visible (ISO)
100
AcDbVertex
100
AcDb2dVertex
 10
472.56977123811
 20
485.4052013791215
 30
0.0
  0
VERTEX
  5
209
330
1F6
100
AcDbEntity
  8
Visible (ISO)
100
AcDbVertex
100
AcDb2dVertex
 10
472.5690464456295
 20
485.3993820254202
 30
0.0
  0
VERTEX
  5
20A
330
1F6
100
AcDbEntity
  8
Visible (ISO)
100
AcDbVertex
100
AcDb2dVertex
 10
472.5677494485593
 20
485.3893823915051
 30
0.0
  0
VERTEX
  5
20B
330
1F6
100
AcDbEntity
  8
Visible (ISO)
100
AcDbVertex
100
AcDb2dVertex
 10
472.5626282174801
 20
485.3557426091099
 30
0.0
  0
VERTEX
  5
20C
330
1F6
100
AcDbEntity
  8
Visible (ISO)
100
AcDbVertex
100
AcDb2dVertex
 10
472.5294784982418
 20
485.2192758902419
 30
0.0
  0
VERTEX
  5
20D
330
1F6
100
AcDbEntity
  8
Visible (ISO)
100
AcDbVertex
100
AcDb2dVertex
 10
472.4074940164303
 20
484.966443297352
 30
0.0
  0
VERTEX
  5
20E
330
1F6
100
AcDbEntity
  8
Visible (ISO)
100
AcDbVertex
100
AcDb2dVertex
 10
472.2198872049069
 20
484.7571976349287
 30
0.0
  0
SEQEND
  5
1F9
330
1F6
100
AcDbEntity
  8
Visible (ISO)
  0
POLYLINE
  5
20F
330
75
100
AcDbEntity
  8
Visible (ISO)
100
AcDb2dPolyline
 66
     1
 10
0.0
 20
0.0
 30
0.0
 70
   128
  0
VERTEX
  5
210
330
20F
100
AcDbEntity
  8
Visible (ISO)
100
AcDbVertex
100
AcDb2dVertex
 10
472.0048717935312
 20
490.013978252065
 30
0.0
  0
VERTEX
  5
211
330
20F
100
AcDbEntity
  8
Visible (ISO)
100
AcDbVertex
100
AcDb2dVertex
 10
472.2106079538094
 20
489.9925097143845
 30
0.0
  0
VERTEX
  5
213
330
20F
100
AcDbEntity
  8
Visible (ISO)
100
AcDbVertex
100
AcDb2dVertex
 10
472.4072460611092
 20
489.9293977819352
 30
0.0
  0
VERTEX
  5
214
330
20F
100
AcDbEntity
  8
Visible (ISO)
100
AcDbVertex
100
AcDb2dVertex
 10
472.5870708902109
 20
489.8270158978826
 30
0.0
  0
VERTEX
  5
215
330
20F
100
AcDbEntity
  8
Visible (ISO)
100
AcDbVertex
100
AcDb2dVertex
 10
472.7417377908456
 20
489.6899023404637
 30
0.0
  0
VERTEX
  5
216
330
20F
100
AcDbEntity
  8
Visible (ISO)
100
AcDbVertex
100
AcDb2dVertex
 10
472.8649239022957
 20
489.5241188593921
 30
0.0
  0
VERTEX
  5
217
330
20F
100
AcDbEntity
  8
Visible (ISO)
100
AcDbVertex
100
AcDb2dVertex
 10
472.9515366037118
 20
489.3361407735125
 30
0.0
  0
VERTEX
  5
218
330
20F
100
AcDbEntity
  8
Visible (ISO)
100
AcDbVertex
100
AcDb2dVertex
 10
472.9974941690194
 20
489.1352563425262
 30
0.0
  0
VERTEX
  5
219
330
20F
100
AcDbEntity
  8
Visible (ISO)
100
AcDbVertex
100
AcDb2dVertex
 10
473.0014709909188
 20
488.9315117773257
 30
0.0
  0
VERTEX
  5
21A
330
20F
100
AcDbEntity
  8
Visible (ISO)
100
AcDbVertex
100
AcDb2dVertex
 10
472.999039121412
 20
488.9060630486384
 30
0.0
  0
VERTEX
  5
21B
330
20F
100
AcDbEntity
  8
Visible (ISO)
100
AcDbVertex
100
AcDb2dVertex
 10
472.9983047921884
 20
488.8995359113404
 30
0.0
  0
VERTEX
  5
21C
330
20F
100
AcDbEntity
  8
Visible (ISO)
100
AcDbVertex
100
AcDb2dVertex
 10
472.9976944406258
 20
488.8942416823086
 30
0.0
  0
VERTEX
  5
21D
330
20F
100
AcDbEntity
  8
Visible (ISO)
100
AcDbVertex
100
AcDb2dVertex
 10
472.996778913282
 20
488.8866345588258
 30
0.0
  0
VERTEX
  5
21E
330
20F
100
AcDbEntity
  8
Visible (ISO)
100
AcDbVertex
100
AcDb2dVertex
 10
472.9940132577644
 20
488.8638412293794
 30
0.0
  0
VERTEX
  5
21F
330
20F
100
AcDbEntity
  8
Visible (ISO)
100
AcDbVertex
100
AcDb2dVertex
 10
472.9834465463384
 20
488.7772055773094
 30
0.0
  0
VERTEX
  5
220
330
20F
100
AcDbEntity
  8
Visible (ISO)
100
AcDbVertex
100
AcDb2dVertex
 10
472.9660419900638
 20
488.6349295365727
 30
0.0
  0
VERTEX
  5
221
330
20F
100
AcDbEntity
  8
Visible (ISO)
100
AcDbVertex
100
AcDb2dVertex
 10
472.9417709787111
 20
488.4367443319643
 30
0.0
  0
VERTEX
  5
222
330
20F
100
AcDbEntity
  8
Visible (ISO)
100
AcDbVertex
100
AcDb2dVertex
 10
472.9107956369141
 20
488.1839150816278
 30
0.0
  0
VERTEX
  5
223
330
20F
100
AcDbEntity
  8
Visible (ISO)
100
AcDbVertex
100
AcDb2dVertex
 10
472.8733257730223
 20
487.8782419966015
 30
0.0
  0
SEQEND
  5
212
330
20F
100
AcDbEntity
  8
Visible (ISO)
  0
POLYLINE
  5
224
330
75
100
AcDbEntity
  8
Visible (ISO)
100
AcDb2dPolyline
 66
     1
 10
0.0
 20
0.0
 30
0.0
 70
   128
  0
VERTEX
  5
225
330
224
100
AcDbEntity
  8
Visible (ISO)
100
AcDbVertex
100
AcDb2dVertex
 10
451.529961057446
 20
467.3952693065194
 30
0.0
  0
VERTEX
  5
226
330
224
100
AcDbEntity
  8
Visible (ISO)
100
AcDbVertex
100
AcDb2dVertex
 10
451.1300711114621
 20
467.0599725038346
 30
0.0
  0
VERTEX
  5
228
330
224
100
AcDbEntity
  8
Visible (ISO)
100
AcDbVertex
100
AcDb2dVertex
 10
450.7435326059081
 20
466.7358941385792
 30
0.0
  0
VERTEX
  5
229
330
224
100
AcDbEntity
  8
Visible (ISO)
100
AcDbVertex
100
AcDb2dVertex
 10
450.3726438958862
 20
466.4249672346802
 30
0.0
  0
VERTEX
  5
22A
330
224
100
AcDbEntity
  8
Visible (ISO)
100
AcDbVertex
100
AcDb2dVertex
 10
450.0196651895264
 20
466.1290813614392
 30
0.0
  0
VERTEX
  5
22B
330
224
100
AcDbEntity
  8
Visible (ISO)
100
AcDbVertex
100
AcDb2dVertex
 10
449.6860269983034
 20
465.8494427244316
 30
0.0
  0
VERTEX
  5
22C
330
224
100
AcDbEntity
  8
Visible (ISO)
100
AcDbVertex
100
AcDb2dVertex
 10
449.3745331247073
 20
465.588398351864
 30
0.0
  0
VERTEX
  5
22D
330
224
100
AcDbEntity
  8
Visible (ISO)
100
AcDbVertex
100
AcDb2dVertex
 10
449.0885261972173
 20
465.3487596550026
 30
0.0
  0
VERTEX
  5
22E
330
224
100
AcDbEntity
  8
Visible (ISO)
100
AcDbVertex
100
AcDb2dVertex
 10
448.8307146508916
 20
465.1327965078946
 30
0.0
  0
VERTEX
  5
22F
330
224
100
AcDbEntity
  8
Visible (ISO)
100
AcDbVertex
100
AcDb2dVertex
 10
448.6039833505377
 20
464.9429246609566
 30
0.0
  0
VERTEX
  5
230
330
224
100
AcDbEntity
  8
Visible (ISO)
100
AcDbVertex
100
AcDb2dVertex
 10
448.4121040780769
 20
464.782315379806
 30
0.0
  0
VERTEX
  5
231
330
224
100
AcDbEntity
  8
Visible (ISO)
100
AcDbVertex
100
AcDb2dVertex
 10
448.257737584852
 20
464.6531922769842
 30
0.0
  0
VERTEX
  5
232
330
224
100
AcDbEntity
  8
Visible (ISO)
100
AcDbVertex
100
AcDb2dVertex
 10
448.1434301812877
 20
464.5576979412212
 30
0.0
  0
VERTEX
  5
233
330
224
100
AcDbEntity
  8
Visible (ISO)
100
AcDbVertex
100
AcDb2dVertex
 10
448.0696443994275
 20
464.4962325602418
 30
0.0
  0
VERTEX
  5
234
330
224
100
AcDbEntity
  8
Visible (ISO)
100
AcDbVertex
100
AcDb2dVertex
 10
448.0447630365126
 20
464.4756297967535
 30
0.0
  0
VERTEX
  5
235
330
224
100
AcDbEntity
  8
Visible (ISO)
100
AcDbVertex
100
AcDb2dVertex
 10
448.0271868188611
 20
464.461289681307
 30
0.0
  0
VERTEX
  5
236
330
224
100
AcDbEntity
  8
Visible (ISO)
100
AcDbVertex
100
AcDb2dVertex
 10
448.0087713678114
 20
464.4465491731424
 30
0.0
  0
VERTEX
  5
237
330
224
100
AcDbEntity
  8
Visible (ISO)
100
AcDbVertex
100
AcDb2dVertex
 10
447.9671768625014
 20
464.4144820759031
 30
0.0
  0
VERTEX
  5
238
330
224
100
AcDbEntity
  8
Visible (ISO)
100
AcDbVertex
100
AcDb2dVertex
 10
447.8393320520155
 20
464.3261242666457
 30
0.0
  0
VERTEX
  5
239
330
224
100
AcDbEntity
  8
Visible (ISO)
100
AcDbVertex
100
AcDb2dVertex
 10
447.6995710809462
 20
464.244981116016
 30
0.0
  0
VERTEX
  5
23A
330
224
100
AcDbEntity
  8
Visible (ISO)
100
AcDbVertex
100
AcDb2dVertex
 10
447.4030546624891
 20
464.1180245667838
 30
0.0
  0
VERTEX
  5
23B
330
224
100
AcDbEntity
  8
Visible (ISO)
100
AcDbVertex
100
AcDb2dVertex
 10
447.088480420851
 20
464.0401972648114
 30
0.0
  0
VERTEX
  5
23C
330
224
100
AcDbEntity
  8
Visible (ISO)
100
AcDbVertex
100
AcDb2dVertex
 10
446.7664818246595
 20
464.0139782898483
 30
0.0
  0
SEQEND
  5
227
330
224
100
AcDbEntity
  8
Visible (ISO)
  0
POLYLINE
  5
23D
330
75
100
AcDbEntity
  8
Visible (ISO)
100
AcDb2dPolyline
 66
     1
 10
0.0
 20
0.0
 30
0.0
 70
   128
  0
VERTEX
  5
23E
330
23D
100
AcDbEntity
  8
Visible (ISO)
100
AcDbVertex
100
AcDb2dVertex
 10
472.2198872049069
 20
484.7571976349287
 30
0.0
  0
VERTEX
  5
23F
330
23D
100
AcDbEntity
  8
Visible (ISO)
100
AcDbVertex
100
AcDb2dVertex
 10
471.8601135690425
 20
484.4550162412936
 30
0.0
  0
VERTEX
  5
241
330
23D
100
AcDbEntity
  8
Visible (ISO)
100
AcDbVertex
100
AcDb2dVertex
 10
471.4824299295161
 20
484.1378243457156
 30
0.0
  0
VERTEX
  5
242
330
23D
100
AcDbEntity
  8
Visible (ISO)
100
AcDbVertex
100
AcDb2dVertex
 10
471.0889343698236
 20
483.8073723990704
 30
0.0
  0
VERTEX
  5
243
330
23D
100
AcDbEntity
  8
Visible (ISO)
100
AcDbVertex
100
AcDb2dVertex
 10
470.6816963632317
 20
483.4654126395833
 30
0.0
  0
VERTEX
  5
244
330
23D
100
AcDbEntity
  8
Visible (ISO)
100
AcDbVertex
100
AcDb2dVertex
 10
470.2628139932365
 20
483.1136949228719
 30
0.0
  0
VERTEX
  5
245
330
23D
100
AcDbEntity
  8
Visible (ISO)
100
AcDbVertex
100
AcDb2dVertex
 10
469.8343662698478
 20
482.7539613484624
 30
0.0
  0
VERTEX
  5
246
330
23D
100
AcDbEntity
  8
Visible (ISO)
100
AcDbVertex
100
AcDb2dVertex
 10
469.3968491037101
 20
482.386637765606
 30
0.0
  0
VERTEX
  5
247
330
23D
100
AcDbEntity
  8
Visible (ISO)
100
AcDbVertex
100
AcDb2dVertex
 10
468.9504913766592
 20
482.0119117642579
 30
0.0
  0
VERTEX
  5
248
330
23D
100
AcDbEntity
  8
Visible (ISO)
100
AcDbVertex
100
AcDb2dVertex
 10
468.4963135202139
 20
481.630627383503
 30
0.0
  0
VERTEX
  5
249
330
23D
100
AcDbEntity
  8
Visible (ISO)
100
AcDbVertex
100
AcDb2dVertex
 10
468.0352978189199
 20
481.2436292596551
 30
0.0
  0
VERTEX
  5
24A
330
23D
100
AcDbEntity
  8
Visible (ISO)
100
AcDbVertex
100
AcDb2dVertex
 10
467.0968346078602
 20
480.455872410551
 30
0.0
  0
VERTEX
  5
24B
330
23D
100
AcDbEntity
  8
Visible (ISO)
100
AcDbVertex
100
AcDb2dVertex
 10
466.1418919046131
 20
479.6543367541457
 30
0.0
  0
VERTEX
  5
24C
330
23D
100
AcDbEntity
  8
Visible (ISO)
100
AcDbVertex
100
AcDb2dVertex
 10
465.1711658914295
 20
478.8396043917209
 30
0.0
  0
VERTEX
  5
24D
330
23D
100
AcDbEntity
  8
Visible (ISO)
100
AcDbVertex
100
AcDb2dVertex
 10
464.1883282144275
 20
478.0147549493476
 30
0.0
  0
VERTEX
  5
24E
330
23D
100
AcDbEntity
  8
Visible (ISO)
100
AcDbVertex
100
AcDb2dVertex
 10
463.1976608712879
 20
477.1833758830418
 30
0.0
  0
VERTEX
  5
24F
330
23D
100
AcDbEntity
  8
Visible (ISO)
100
AcDbVertex
100
AcDb2dVertex
 10
462.203436322948
 20
476.3490547946783
 30
0.0
  0
VERTEX
  5
250
330
23D
100
AcDbEntity
  8
Visible (ISO)
100
AcDbVertex
100
AcDb2dVertex
 10
461.2081818063464
 20
475.5139182266035
 30
0.0
  0
VERTEX
  5
251
330
23D
100
AcDbEntity
  8
Visible (ISO)
100
AcDbVertex
100
AcDb2dVertex
 10
460.2110104043689
 20
474.6772084371268
 30
0.0
  0
VERTEX
  5
252
330
23D
100
AcDbEntity
  8
Visible (ISO)
100
AcDbVertex
100
AcDb2dVertex
 10
459.2153934915272
 20
473.8418537161789
 30
0.0
  0
VERTEX
  5
253
330
23D
100
AcDbEntity
  8
Visible (ISO)
100
AcDbVertex
100
AcDb2dVertex
 10
458.2251362283436
 20
473.0110298039719
 30
0.0
  0
VERTEX
  5
254
330
23D
100
AcDbEntity
  8
Visible (ISO)
100
AcDbVertex
100
AcDb2dVertex
 10
457.2440056283681
 20
472.1879116940836
 30
0.0
  0
SEQEND
  5
240
330
23D
100
AcDbEntity
  8
Visible (ISO)
  0
POLYLINE
  5
255
330
75
100
AcDbEntity
  8
Visible (ISO)
100
AcDb2dPolyline
 66
     1
 10
0.0
 20
0.0
 30
0.0
 70
   128
  0
VERTEX
  5
256
330
255
100
AcDbEntity
  8
Visible (ISO)
100
AcDbVertex
100
AcDb2dVertex
 10
388.2351664979704
 20
464.1807262118286
 30
0.0
  0
VERTEX
  5
257
330
255
100
AcDbEntity
  8
Visible (ISO)
100
AcDbVertex
100
AcDb2dVertex
 10
388.1039254148253
 20
464.1800045072151
 30
0.0
  0
VERTEX
  5
259
330
255
100
AcDbEntity
  8
Visible (ISO)
100
AcDbVertex
100
AcDb2dVertex
 10
387.9709438760528
 20
464.1778739466206
 30
0.0
  0
VERTEX
  5
25A
330
255
100
AcDbEntity
  8
Visible (ISO)
100
AcDbVertex
100
AcDb2dVertex
 10
387.8373186071165
 20
464.1743821873434
 30
0.0
  0
VERTEX
  5
25B
330
255
100
AcDbEntity
  8
Visible (ISO)
100
AcDbVertex
100
AcDb2dVertex
 10
387.7041475255735
 20
464.1695792711627
 30
0.0
  0
VERTEX
  5
25C
330
255
100
AcDbEntity
  8
Visible (ISO)
100
AcDbVertex
100
AcDb2dVertex
 10
387.5725279529341
 20
464.1635128552782
 30
0.0
  0
VERTEX
  5
25D
330
255
100
AcDbEntity
  8
Visible (ISO)
100
AcDbVertex
100
AcDb2dVertex
 10
387.4435560186155
 20
464.1562329813708
 30
0.0
  0
VERTEX
  5
25E
330
255
100
AcDbEntity
  8
Visible (ISO)
100
AcDbVertex
100
AcDb2dVertex
 10
387.3182658632048
 20
464.1478553513009
 30
0.0
  0
VERTEX
  5
25F
330
255
100
AcDbEntity
  8
Visible (ISO)
100
AcDbVertex
100
AcDb2dVertex
 10
387.1974490363843
 20
464.1386116745408
 30
0.0
  0
VERTEX
  5
260
330
255
100
AcDbEntity
  8
Visible (ISO)
100
AcDbVertex
100
AcDb2dVertex
 10
387.0818386752851
 20
464.1287218325537
 30
0.0
  0
VERTEX
  5
261
330
255
100
AcDbEntity
  8
Visible (ISO)
100
AcDbVertex
100
AcDb2dVertex
 10
386.9721691091306
 20
464.1184057063099
 30
0.0
  0
VERTEX
  5
262
330
255
100
AcDbEntity
  8
Visible (ISO)
100
AcDbVertex
100
AcDb2dVertex
 10
386.8691746671445
 20
464.1078831772725
 30
0.0
  0
VERTEX
  5
263
330
255
100
AcDbEntity
  8
Visible (ISO)
100
AcDbVertex
100
AcDb2dVertex
 10
386.7735896785505
 20
464.0973729345167
 30
0.0
  0
VERTEX
  5
264
330
255
100
AcDbEntity
  8
Visible (ISO)
100
AcDbVertex
100
AcDb2dVertex
 10
386.6841105897671
 20
464.0868705743755
 30
0.0
  0
VERTEX
  5
265
330
255
100
AcDbEntity
  8
Visible (ISO)
100
AcDbVertex
100
AcDb2dVertex
 10
386.5994868953472
 20
464.0763621221513
 30
0.0
  0
VERTEX
  5
266
330
255
100
AcDbEntity
  8
Visible (ISO)
100
AcDbVertex
100
AcDb2dVertex
 10
386.5205292184597
 20
464.0660674082671
 30
0.0
  0
VERTEX
  5
267
330
255
100
AcDbEntity
  8
Visible (ISO)
100
AcDbVertex
100
AcDb2dVertex
 10
386.4480487783199
 20
464.0562014949716
 30
0.0
  0
VERTEX
  5
268
330
255
100
AcDbEntity
  8
Visible (ISO)
100
AcDbVertex
100
AcDb2dVertex
 10
386.3828573901897
 20
464.0469842126877
 30
0.0
  0
VERTEX
  5
269
330
255
100
AcDbEntity
  8
Visible (ISO)
100
AcDbVertex
100
AcDb2dVertex
 10
386.3257650811916
 20
464.0386294315716
 30
0.0
  0
VERTEX
  5
26A
330
255
100
AcDbEntity
  8
Visible (ISO)
100
AcDbVertex
100
AcDb2dVertex
 10
386.2774441917186
 20
464.0313653647287
 30
0.0
  0
VERTEX
  5
26B
330
255
100
AcDbEntity
  8
Visible (ISO)
100
AcDbVertex
100
AcDb2dVertex
 10
386.2379978378062
 20
464.0252999841485
 30
0.0
  0
VERTEX
  5
26C
330
255
100
AcDbEntity
  8
Visible (ISO)
100
AcDbVertex
100
AcDb2dVertex
 10
386.2073872764354
 20
464.0204828912571
 30
0.0
  0
VERTEX
  5
26D
330
255
100
AcDbEntity
  8
Visible (ISO)
100
AcDbVertex
100
AcDb2dVertex
 10
386.1855713804011
 20
464.0169589190484
 30
0.0
  0
VERTEX
  5
26E
330
255
100
AcDbEntity
  8
Visible (ISO)
100
AcDbVertex
100
AcDb2dVertex
 10
386.1725114066843
 20
464.0147764768925
 30
0.0
  0
VERTEX
  5
26F
330
255
100
AcDbEntity
  8
Visible (ISO)
100
AcDbVertex
100
AcDb2dVertex
 10
386.1681668241266
 20
464.0139815899255
 30
0.0
  0
SEQEND
  5
258
330
255
100
AcDbEntity
  8
Visible (ISO)
  0
POLYLINE
  5
270
330
75
100
AcDbEntity
  8
Visible (ISO)
100
AcDb2dPolyline
 66
     1
 10
0.0
 20
0.0
 30
0.0
 70
   128
  0
VERTEX
  5
271
330
270
100
AcDbEntity
  8
Visible (ISO)
100
AcDbVertex
100
AcDb2dVertex
 10
386.168185897613
 20
464.0139782898518
 30
0.0
  0
VERTEX
  5
272
330
270
100
AcDbEntity
  8
Visible (ISO)
100
AcDbVertex
100
AcDb2dVertex
 10
386.1866436679605
 20
464.0167746025309
 30
0.0
  0
VERTEX
  5
274
330
270
100
AcDbEntity
  8
Visible (ISO)
100
AcDbVertex
100
AcDb2dVertex
 10
386.2399397571328
 20
464.02488970553
 30
0.0
  0
VERTEX
  5
275
330
270
100
AcDbEntity
  8
Visible (ISO)
100
AcDbVertex
100
AcDb2dVertex
 10
386.3283912618401
 20
464.0379645756644
 30
0.0
  0
VERTEX
  5
276
330
270
100
AcDbEntity
  8
Visible (ISO)
100
AcDbVertex
100
AcDb2dVertex
 10
386.4510939796211
 20
464.0552452568603
 30
0.0
  0
VERTEX
  5
277
330
270
100
AcDbEntity
  8
Visible (ISO)
100
AcDbVertex
100
AcDb2dVertex
 10
386.6026489217521
 20
464.0750884158633
 30
0.0
  0
VERTEX
  5
278
330
270
100
AcDbEntity
  8
Visible (ISO)
100
AcDbVertex
100
AcDb2dVertex
 10
386.7766211707831
 20
464.0957812897851
 30
0.0
  0
VERTEX
  5
279
330
270
100
AcDbEntity
  8
Visible (ISO)
100
AcDbVertex
100
AcDb2dVertex
 10
386.9751028497458
 20
464.1165271067809
 30
0.0
  0
VERTEX
  5
27A
330
270
100
AcDbEntity
  8
Visible (ISO)
100
AcDbVertex
100
AcDb2dVertex
 10
387.2000567395925
 20
464.1364581922312
 30
0.0
  0
VERTEX
  5
27B
330
270
100
AcDbEntity
  8
Visible (ISO)
100
AcDbVertex
100
AcDb2dVertex
 10
387.4456594665288
 20
464.1538359607059
 30
0.0
  0
VERTEX
  5
27C
330
270
100
AcDbEntity
  8
Visible (ISO)
100
AcDbVertex
100
AcDb2dVertex
 10
387.7056078393697
 20
464.1669973637665
 30
0.0
  0
VERTEX
  5
27D
330
270
100
AcDbEntity
  8
Visible (ISO)
100
AcDbVertex
100
AcDb2dVertex
 10
387.9716782052755
 20
464.1751787918696
 30
0.0
  0
VERTEX
  5
27E
330
270
100
AcDbEntity
  8
Visible (ISO)
100
AcDbVertex
100
AcDb2dVertex
 10
388.2351664979696
 20
464.1779926063125
 30
0.0
  0
VERTEX
  5
27F
330
270
100
AcDbEntity
  8
Visible (ISO)
100
AcDbVertex
100
AcDb2dVertex
 10
388.4986559827565
 20
464.1751787918696
 30
0.0
  0
VERTEX
  5
280
330
270
100
AcDbEntity
  8
Visible (ISO)
100
AcDbVertex
100
AcDb2dVertex
 10
388.7647263486623
 20
464.1669973637665
 30
0.0
  0
VERTEX
  5
281
330
270
100
AcDbEntity
  8
Visible (ISO)
100
AcDbVertex
100
AcDb2dVertex
 10
389.0246753175496
 20
464.1538359607059
 30
0.0
  0
VERTEX
  5
282
330
270
100
AcDbEntity
  8
Visible (ISO)
100
AcDbVertex
100
AcDb2dVertex
 10
389.2702774484395
 20
464.1364581922312
 30
0.0
  0
VERTEX
  5
283
330
270
100
AcDbEntity
  8
Visible (ISO)
100
AcDbVertex
100
AcDb2dVertex
 10
389.4952313382864
 20
464.1165271067809
 30
0.0
  0
VERTEX
  5
284
330
270
100
AcDbEntity
  8
Visible (ISO)
100
AcDbVertex
100
AcDb2dVertex
 10
389.6937124212026
 20
464.0957812897851
 30
0.0
  0
VERTEX
  5
285
330
270
100
AcDbEntity
  8
Visible (ISO)
100
AcDbVertex
100
AcDb2dVertex
 10
389.8676852662802
 20
464.0750884158633
 30
0.0
  0
VERTEX
  5
286
330
270
100
AcDbEntity
  8
Visible (ISO)
100
AcDbVertex
100
AcDb2dVertex
 10
390.0192396123649
 20
464.0552452568603
 30
0.0
  0
VERTEX
  5
287
330
270
100
AcDbEntity
  8
Visible (ISO)
100
AcDbVertex
100
AcDb2dVertex
 10
390.1419429261924
 20
464.0379645756644
 30
0.0
  0
VERTEX
  5
288
330
270
100
AcDbEntity
  8
Visible (ISO)
100
AcDbVertex
100
AcDb2dVertex
 10
390.2303938348534
 20
464.02488970553
 30
0.0
  0
VERTEX
  5
289
330
270
100
AcDbEntity
  8
Visible (ISO)
100
AcDbVertex
100
AcDb2dVertex
 10
390.2836911161187
 20
464.0167746025309
 30
0.0
  0
VERTEX
  5
28A
330
270
100
AcDbEntity
  8
Visible (ISO)
100
AcDbVertex
100
AcDb2dVertex
 10
390.3021482904199
 20
464.0139782898518
 30
0.0
  0
SEQEND
  5
273
330
270
100
AcDbEntity
  8
Visible (ISO)
  0
POLYLINE
  5
28B
330
75
100
AcDbEntity
  8
Visible (ISO)
100
AcDb2dPolyline
 66
     1
 10
0.0
 20
0.0
 30
0.0
 70
   128
  0
VERTEX
  5
28C
330
28B
100
AcDbEntity
  8
Visible (ISO)
100
AcDbVertex
100
AcDb2dVertex
 10
377.7351669748046
 20
477.0053820273938
 30
0.0
  0
VERTEX
  5
28D
330
28B
100
AcDbEntity
  8
Visible (ISO)
100
AcDbVertex
100
AcDb2dVertex
 10
377.7555696842924
 20
476.1597749139296
 30
0.0
  0
VERTEX
  5
28F
330
28B
100
AcDbEntity
  8
Visible (ISO)
100
AcDbVertex
100
AcDb2dVertex
 10
377.8163362820365
 20
475.3089399066475
 30
0.0
  0
VERTEX
  5
290
330
28B
100
AcDbEntity
  8
Visible (ISO)
100
AcDbVertex
100
AcDb2dVertex
 10
377.9168044929125
 20
474.4598697991673
 30
0.0
  0
VERTEX
  5
291
330
28B
100
AcDbEntity
  8
Visible (ISO)
100
AcDbVertex
100
AcDb2dVertex
 10
378.0555057679036
 20
473.6193421769721
 30
0.0
  0
VERTEX
  5
292
330
28B
100
AcDbEntity
  8
Visible (ISO)
100
AcDbVertex
100
AcDb2dVertex
 10
378.2283910517314
 20
472.793398564946
 30
0.0
  0
VERTEX
  5
293
330
28B
100
AcDbEntity
  8
Visible (ISO)
100
AcDbVertex
100
AcDb2dVertex
 10
378.4309380282382
 20
471.9879307566174
 30
0.0
  0
VERTEX
  5
294
330
28B
100
AcDbEntity
  8
Visible (ISO)
100
AcDbVertex
100
AcDb2dVertex
 10
378.6582265575151
 20
471.2084529690338
 30
0.0
  0
VERTEX
  5
295
330
28B
100
AcDbEntity
  8
Visible (ISO)
100
AcDbVertex
100
AcDb2dVertex
 10
378.9044847120266
 20
470.4590855352028
 30
0.0
  0
VERTEX
  5
296
330
28B
100
AcDbEntity
  8
Visible (ISO)
100
AcDbVertex
100
AcDb2dVertex
 10
379.1639375467521
 20
469.7436327670896
 30
0.0
  0
VERTEX
  5
297
330
28B
100
AcDbEntity
  8
Visible (ISO)
100
AcDbVertex
100
AcDb2dVertex
 10
379.430810042165
 20
469.0658989774476
 30
0.0
  0
VERTEX
  5
298
330
28B
100
AcDbEntity
  8
Visible (ISO)
100
AcDbVertex
100
AcDb2dVertex
 10
379.6993273277505
 20
468.4296890762593
 30
0.0
  0
VERTEX
  5
299
330
28B
100
AcDbEntity
  8
Visible (ISO)
100
AcDbVertex
100
AcDb2dVertex
 10
379.9637141604648
 20
467.838807971536
 30
0.0
  0
VERTEX
  5
29A
330
28B
100
AcDbEntity
  8
Visible (ISO)
100
AcDbVertex
100
AcDb2dVertex
 10
380.2242344398723
 20
467.2848601863087
 30
0.0
  0
VERTEX
  5
29B
330
28B
100
AcDbEntity
  8
Visible (ISO)
100
AcDbVertex
100
AcDb2dVertex
 10
380.4827447016466
 20
466.7583362689606
 30
0.0
  0
VERTEX
  5
29C
330
28B
100
AcDbEntity
  8
Visible (ISO)
100
AcDbVertex
100
AcDb2dVertex
 10
380.734332330965
 20
466.264583081871
 30
0.0
  0
VERTEX
  5
29D
330
28B
100
AcDbEntity
  8
Visible (ISO)
100
AcDbVertex
100
AcDb2dVertex
 10
380.9740741331806
 20
465.8089719103409
 30
0.0
  0
VERTEX
  5
29E
330
28B
100
AcDbEntity
  8
Visible (ISO)
100
AcDbVertex
100
AcDb2dVertex
 10
381.1970464666121
 20
465.3968740392776
 30
0.0
  0
VERTEX
  5
29F
330
28B
100
AcDbEntity
  8
Visible (ISO)
100
AcDbVertex
100
AcDb2dVertex
 10
381.3983262856238
 20
465.0336607547704
 30
0.0
  0
VERTEX
  5
2A0
330
28B
100
AcDbEntity
  8
Visible (ISO)
100
AcDbVertex
100
AcDb2dVertex
 10
381.5737591464753
 20
464.7232462657671
 30
0.0
  0
VERTEX
  5
2A1
330
28B
100
AcDbEntity
  8
Visible (ISO)
100
AcDbVertex
100
AcDb2dVertex
 10
381.7208333094356
 20
464.4672179149564
 30
0.0
  0
VERTEX
  5
2A2
330
28B
100
AcDbEntity
  8
Visible (ISO)
100
AcDbVertex
100
AcDb2dVertex
 10
381.8370310743093
 20
464.2675991544542
 30
0.0
  0
VERTEX
  5
2A3
330
28B
100
AcDbEntity
  8
Visible (ISO)
100
AcDbVertex
100
AcDb2dVertex
 10
381.9202275355102
 20
464.1259639269994
 30
0.0
  0
VERTEX
  5
2A4
330
28B
100
AcDbEntity
  8
Visible (ISO)
100
AcDbVertex
100
AcDb2dVertex
 10
381.9701196034196
 20
464.0417936365003
 30
0.0
  0
VERTEX
  5
2A5
330
28B
100
AcDbEntity
  8
Visible (ISO)
100
AcDbVertex
100
AcDb2dVertex
 10
381.9869260270839
 20
464.0139782898487
 30
0.0
  0
SEQEND
  5
28E
330
28B
100
AcDbEntity
  8
Visible (ISO)
  0
POLYLINE
  5
2A6
330
75
100
AcDbEntity
  8
Visible (ISO)
100
AcDb2dPolyline
 66
     1
 10
0.0
 20
0.0
 30
0.0
 70
   128
  0
VERTEX
  5
2A7
330
2A6
100
AcDbEntity
  8
Visible (ISO)
100
AcDbVertex
100
AcDb2dVertex
 10
381.9869275171999
 20
464.0139815899255
 30
0.0
  0
VERTEX
  5
2A8
330
2A6
100
AcDbEntity
  8
Visible (ISO)
100
AcDbVertex
100
AcDb2dVertex
 10
381.9869215567355
 20
464.0140018012512
 30
0.0
  0
VERTEX
  5
2AA
330
2A6
100
AcDbEntity
  8
Visible (ISO)
100
AcDbVertex
100
AcDb2dVertex
 10
381.9869033773189
 20
464.0140434738163
 30
0.0
  0
VERTEX
  5
2AB
330
2A6
100
AcDbEntity
  8
Visible (ISO)
100
AcDbVertex
100
AcDb2dVertex
 10
381.98687297895
 20
464.0141042234007
 30
0.0
  0
VERTEX
  5
2AC
330
2A6
100
AcDbEntity
  8
Visible (ISO)
100
AcDbVertex
100
AcDb2dVertex
 10
381.9868306596522
 20
464.0141864341583
 30
0.0
  0
VERTEX
  5
2AD
330
2A6
100
AcDbEntity
  8
Visible (ISO)
100
AcDbVertex
100
AcDb2dVertex
 10
381.9867761214022
 20
464.0142889139515
 30
0.0
  0
VERTEX
  5
2AE
330
2A6
100
AcDbEntity
  8
Visible (ISO)
100
AcDbVertex
100
AcDb2dVertex
 10
381.9867093642001
 20
464.0144116627591
 30
0.0
  0
VERTEX
  5
2AF
330
2A6
100
AcDbEntity
  8
Visible (ISO)
100
AcDbVertex
100
AcDb2dVertex
 10
381.986630686069
 20
464.0145546805347
 30
0.0
  0
VERTEX
  5
2B0
330
2A6
100
AcDbEntity
  8
Visible (ISO)
100
AcDbVertex
100
AcDb2dVertex
 10
381.9865397889858
 20
464.0147191593463
 30
0.0
  0
VERTEX
  5
2B1
330
2A6
100
AcDbEntity
  8
Visible (ISO)
100
AcDbVertex
100
AcDb2dVertex
 10
381.9864366729503
 20
464.0149027149657
 30
0.0
  0
VERTEX
  5
2B2
330
2A6
100
AcDbEntity
  8
Visible (ISO)
100
AcDbVertex
100
AcDb2dVertex
 10
381.9863216359859
 20
464.015107731541
 30
0.0
  0
VERTEX
  5
2B3
330
2A6
100
AcDbEntity
  8
Visible (ISO)
100
AcDbVertex
100
AcDb2dVertex
 10
381.9861943800693
 20
464.0153330169612
 30
0.0
  0
VERTEX
  5
2B4
330
2A6
100
AcDbEntity
  8
Visible (ISO)
100
AcDbVertex
100
AcDb2dVertex
 10
381.9860549052005
 20
464.0155773790782
 30
0.0
  0
VERTEX
  5
2B5
330
2A6
100
AcDbEntity
  8
Visible (ISO)
100
AcDbVertex
100
AcDb2dVertex
 10
381.9859032113795
 20
464.0158432020528
 30
0.0
  0
VERTEX
  5
2B6
330
2A6
100
AcDbEntity
  8
Visible (ISO)
100
AcDbVertex
100
AcDb2dVertex
 10
381.9857395966296
 20
464.0161304858477
 30
0.0
  0
VERTEX
  5
2B7
330
2A6
100
AcDbEntity
  8
Visible (ISO)
100
AcDbVertex
100
AcDb2dVertex
 10
381.9855637629276
 20
464.016436846241
 30
0.0
  0
VERTEX
  5
2B8
330
2A6
100
AcDbEntity
  8
Visible (ISO)
100
AcDbVertex
100
AcDb2dVertex
 10
381.9853760082965
 20
464.0167646673932
 30
0.0
  0
VERTEX
  5
2B9
330
2A6
100
AcDbEntity
  8
Visible (ISO)
100
AcDbVertex
100
AcDb2dVertex
 10
381.9851757366901
 20
464.0171115650822
 30
0.0
  0
VERTEX
  5
2BA
330
2A6
100
AcDbEntity
  8
Visible (ISO)
100
AcDbVertex
100
AcDb2dVertex
 10
381.9849635441546
 20
464.0174799234438
 30
0.0
  0
VERTEX
  5
2BB
330
2A6
100
AcDbEntity
  8
Visible (ISO)
100
AcDbVertex
100
AcDb2dVertex
 10
381.9847391326671
 20
464.017868550361
 30
0.0
  0
VERTEX
  5
2BC
330
2A6
100
AcDbEntity
  8
Visible (ISO)
100
AcDbVertex
100
AcDb2dVertex
 10
381.9845025022273
 20
464.0182786379015
 30
0.0
  0
VERTEX
  5
2BD
330
2A6
100
AcDbEntity
  8
Visible (ISO)
100
AcDbVertex
100
AcDb2dVertex
 10
381.9842539508586
 20
464.0187078018185
 30
0.0
  0
VERTEX
  5
2BE
330
2A6
100
AcDbEntity
  8
Visible (ISO)
100
AcDbVertex
100
AcDb2dVertex
 10
381.9839931805378
 20
464.0191584262852
 30
0.0
  0
VERTEX
  5
2BF
330
2A6
100
AcDbEntity
  8
Visible (ISO)
100
AcDbVertex
100
AcDb2dVertex
 10
381.9837201912647
 20
464.0196293191595
 30
0.0
  0
VERTEX
  5
2C0
330
2A6
100
AcDbEntity
  8
Visible (ISO)
100
AcDbVertex
100
AcDb2dVertex
 10
381.9834349830395
 20
464.0201204804169
 30
0.0
  0
SEQEND
  5
2A9
330
2A6
100
AcDbEntity
  8
Visible (ISO)
  0
POLYLINE
  5
2C1
330
75
100
AcDbEntity
  8
Visible (ISO)
100
AcDb2dPolyline
 66
     1
 10
0.0
 20
0.0
 30
0.0
 70
   128
  0
VERTEX
  5
2C2
330
2C1
100
AcDbEntity
  8
Visible (ISO)
100
AcDbVertex
100
AcDb2dVertex
 10
381.9834349830394
 20
490.0083502723583
 30
0.0
  0
VERTEX
  5
2C3
330
2C1
100
AcDbEntity
  8
Visible (ISO)
100
AcDbVertex
100
AcDb2dVertex
 10
381.981789298797
 20
490.005005940148
 30
0.0
  0
VERTEX
  5
2C5
330
2C1
100
AcDbEntity
  8
Visible (ISO)
100
AcDbVertex
100
AcDb2dVertex
 10
381.9458417375328
 20
489.943545433161
 30
0.0
  0
VERTEX
  5
2C6
330
2C1
100
AcDbEntity
  8
Visible (ISO)
100
AcDbVertex
100
AcDb2dVertex
 10
381.8753678877592
 20
489.8228370202958
 30
0.0
  0
VERTEX
  5
2C7
330
2C1
100
AcDbEntity
  8
Visible (ISO)
100
AcDbVertex
100
AcDb2dVertex
 10
381.7702628453014
 20
489.6418559234668
 30
0.0
  0
VERTEX
  5
2C8
330
2C1
100
AcDbEntity
  8
Visible (ISO)
100
AcDbVertex
100
AcDb2dVertex
 10
381.6320512969728
 20
489.4014438091224
 30
0.0
  0
VERTEX
  5
2C9
330
2C1
100
AcDbEntity
  8
Visible (ISO)
100
AcDbVertex
100
AcDb2dVertex
 10
381.4633814771408
 20
489.1037295471748
 30
0.0
  0
VERTEX
  5
2CA
330
2C1
100
AcDbEntity
  8
Visible (ISO)
100
AcDbVertex
100
AcDb2dVertex
 10
381.2668551285498
 20
488.7505808881097
 30
0.0
  0
VERTEX
  5
2CB
330
2C1
100
AcDbEntity
  8
Visible (ISO)
100
AcDbVertex
100
AcDb2dVertex
 10
381.0461278040639
 20
488.3449149071483
 30
0.0
  0
VERTEX
  5
2CC
330
2C1
100
AcDbEntity
  8
Visible (ISO)
100
AcDbVertex
100
AcDb2dVertex
 10
380.806359179758
 20
487.8923039093004
 30
0.0
  0
VERTEX
  5
2CD
330
2C1
100
AcDbEntity
  8
Visible (ISO)
100
AcDbVertex
100
AcDb2dVertex
 10
380.5527685363519
 20
487.3984477335841
 30
0.0
  0
VERTEX
  5
2CE
330
2C1
100
AcDbEntity
  8
Visible (ISO)
100
AcDbVertex
100
AcDb2dVertex
 10
380.2905742604957
 20
486.869045623365
 30
0.0
  0
VERTEX
  5
2CF
330
2C1
100
AcDbEntity
  8
Visible (ISO)
100
AcDbVertex
100
AcDb2dVertex
 10
380.0249960799441
 20
486.3097962255686
 30
0.0
  0
VERTEX
  5
2D0
330
2C1
100
AcDbEntity
  8
Visible (ISO)
100
AcDbVertex
100
AcDb2dVertex
 10
379.7569511611684
 20
485.7170317445803
 30
0.0
  0
VERTEX
  5
2D1
330
2C1
100
AcDbEntity
  8
Visible (ISO)
100
AcDbVertex
100
AcDb2dVertex
 10
379.4835600037796
 20
485.0768361330465
 30
0.0
  0
VERTEX
  5
2D2
330
2C1
100
AcDbEntity
  8
Visible (ISO)
100
AcDbVertex
100
AcDb2dVertex
 10
379.2107005198222
 20
484.3927398744244
 30
0.0
  0
VERTEX
  5
2D3
330
2C1
100
AcDbEntity
  8
Visible (ISO)
100
AcDbVertex
100
AcDb2dVertex
 10
378.9444942553263
 20
483.6687822233666
 30
0.0
  0
VERTEX
  5
2D4
330
2C1
100
AcDbEntity
  8
Visible (ISO)
100
AcDbVertex
100
AcDb2dVertex
 10
378.6910629798393
 20
482.909003627406
 30
0.0
  0
VERTEX
  5
2D5
330
2C1
100
AcDbEntity
  8
Visible (ISO)
100
AcDbVertex
100
AcDb2dVertex
 10
378.4565283884028
 20
482.1174439372416
 30
0.0
  0
VERTEX
  5
2D6
330
2C1
100
AcDbEntity
  8
Visible (ISO)
100
AcDbVertex
100
AcDb2dVertex
 10
378.2470273007372
 20
481.2983701927699
 30
0.0
  0
VERTEX
  5
2D7
330
2C1
100
AcDbEntity
  8
Visible (ISO)
100
AcDbVertex
100
AcDb2dVertex
 10
378.067900032244
 20
480.4574816514921
 30
0.0
  0
VERTEX
  5
2D8
330
2C1
100
AcDbEntity
  8
Visible (ISO)
100
AcDbVertex
100
AcDb2dVertex
 10
377.9239426147857
 20
479.6010262685363
 30
0.0
  0
VERTEX
  5
2D9
330
2C1
100
AcDbEntity
  8
Visible (ISO)
100
AcDbVertex
100
AcDb2dVertex
 10
377.8195355240919
 20
478.7353831931278
 30
0.0
  0
VERTEX
  5
2DA
330
2C1
100
AcDbEntity
  8
Visible (ISO)
100
AcDbVertex
100
AcDb2dVertex
 10
377.756376118838
 20
477.867697935373
 30
0.0
  0
VERTEX
  5
2DB
330
2C1
100
AcDbEntity
  8
Visible (ISO)
100
AcDbVertex
100
AcDb2dVertex
 10
377.7351669748046
 20
477.0053820273938
 30
0.0
  0
SEQEND
  5
2C4
330
2C1
100
AcDbEntity
  8
Visible (ISO)
  0
LINE
  5
2DC
330
75
100
AcDbEntity
  8
Visible (ISO)
100
AcDbLine
 10
381.9869259460672
 20
490.0139782709564
 30
0.0
 11
472.0048722663178
 21
490.0139782709564
 31
0.0
  0
LINE
  5
2DD
330
75
100
AcDbEntity
  8
Visible (ISO)
100
AcDbLine
 10
381.9869259460672
 20
464.013978270957
 30
0.0
 11
386.1681848499229
 21
464.013978270957
 31
0.0
  0
LINE
  5
2DE
330
75
100
AcDbEntity
  8
Visible (ISO)
100
AcDbLine
 10
390.3021490996914
 20
464.013978270957
 30
0.0
 11
446.7664811233056
 21
464.013978270957
 31
0.0
  0
ELLIPSE
  5
2DF
330
75
100
AcDbEntity
  8
Visible (ISO)
100
AcDbEllipse
 10
459.9827864579711
 20
466.7479438536402
 30
0.0
 11
9.199023679219532
 21
4.289576126979905
 31
0.0
210
0.0
220
0.0
230
0.9999999999999998
 40
0.0005992955973054
 41
3.141592663486772
 42
6.283185317076565
  0
LINE
  5
2E0
330
75
100
AcDbEntity
  8
Visible (ISO)
100
AcDbLine
 10
450.7837627787516
 20
462.4583677266604
 30
0.0
 11
449.3383449653467
 21
465.5580755528598
 31
0.0
  0
LINE
  5
2E1
330
75
100
AcDbEntity
  8
Visible (ISO)
100
AcDbLine
 10
469.1818101371906
 20
471.0375199806201
 30
0.0
 11
465.4388683719879
 21
479.0642827443061
 31
0.0
  0
POLYLINE
  5
2E2
330
75
100
AcDbEntity
  8
Visible (ISO)
100
AcDb2dPolyline
 66
     1
 10
0.0
 20
0.0
 30
0.0
 70
   128
  0
VERTEX
  5
2E3
330
2E2
100
AcDbEntity
  8
Visible (ISO)
100
AcDbVertex
100
AcDb2dVertex
 10
349.6880406817724
 20
372.4694113088337
 30
0.0
  0
VERTEX
  5
2E4
330
2E2
100
AcDbEntity
  8
Visible (ISO)
100
AcDbVertex
100
AcDb2dVertex
 10
349.8155119455012
 20
372.5419406247822
 30
0.0
  0
VERTEX
  5
2E6
330
2E2
100
AcDbEntity
  8
Visible (ISO)
100
AcDbVertex
100
AcDb2dVertex
 10
349.9710921966637
 20
372.6144675565449
 30
0.0
  0
VERTEX
  5
2E7
330
2E2
100
AcDbEntity
  8
Visible (ISO)
100
AcDbVertex
100
AcDb2dVertex
 10
350.1527639584002
 20
372.6869968724934
 30
0.0
  0
VERTEX
  5
2E8
330
2E2
100
AcDbEntity
  8
Visible (ISO)
100
AcDbVertex
100
AcDb2dVertex
 10
350.3581718789352
 20
372.7595261884419
 30
0.0
  0
VERTEX
  5
2E9
330
2E2
100
AcDbEntity
  8
Visible (ISO)
100
AcDbVertex
100
AcDb2dVertex
 10
350.5846526653802
 20
372.8320531202045
 30
0.0
  0
VERTEX
  5
2EA
330
2E2
100
AcDbEntity
  8
Visible (ISO)
100
AcDbVertex
100
AcDb2dVertex
 10
350.8292702056945
 20
372.904582436153
 30
0.0
  0
VERTEX
  5
2EB
330
2E2
100
AcDbEntity
  8
Visible (ISO)
100
AcDbVertex
100
AcDb2dVertex
 10
351.0888526719627
 20
372.9771117521015
 30
0.0
  0
VERTEX
  5
2EC
330
2E2
100
AcDbEntity
  8
Visible (ISO)
100
AcDbVertex
100
AcDb2dVertex
 10
351.3600344029236
 20
373.0496386838642
 30
0.0
  0
VERTEX
  5
2ED
330
2E2
100
AcDbEntity
  8
Visible (ISO)
100
AcDbVertex
100
AcDb2dVertex
 10
351.6392996576798
 20
373.1221679998127
 30
0.0
  0
VERTEX
  5
2EE
330
2E2
100
AcDbEntity
  8
Visible (ISO)
100
AcDbVertex
100
AcDb2dVertex
 10
351.9230274161686
 20
373.1946949315754
 30
0.0
  0
VERTEX
  5
2EF
330
2E2
100
AcDbEntity
  8
Visible (ISO)
100
AcDbVertex
100
AcDb2dVertex
 10
352.2075391380178
 20
373.2672242475239
 30
0.0
  0
VERTEX
  5
2F0
330
2E2
100
AcDbEntity
  8
Visible (ISO)
100
AcDbVertex
100
AcDb2dVertex
 10
352.4891459783366
 20
373.3397535634724
 30
0.0
  0
VERTEX
  5
2F1
330
2E2
100
AcDbEntity
  8
Visible (ISO)
100
AcDbVertex
100
AcDb2dVertex
 10
352.7641968090823
 20
373.4122804952351
 30
0.0
  0
VERTEX
  5
2F2
330
2E2
100
AcDbEntity
  8
Visible (ISO)
100
AcDbVertex
100
AcDb2dVertex
 10
353.0291254670129
 20
373.4848098111835
 30
0.0
  0
VERTEX
  5
2F3
330
2E2
100
AcDbEntity
  8
Visible (ISO)
100
AcDbVertex
100
AcDb2dVertex
 10
353.2804969775493
 20
373.557339127132
 30
0.0
  0
VERTEX
  5
2F4
330
2E2
100
AcDbEntity
  8
Visible (ISO)
100
AcDbVertex
100
AcDb2dVertex
 10
353.5150523228074
 20
373.6298660588947
 30
0.0
  0
VERTEX
  5
2F5
330
2E2
100
AcDbEntity
  8
Visible (ISO)
100
AcDbVertex
100
AcDb2dVertex
 10
353.7297503258874
 20
373.7023953748432
 30
0.0
  0
VERTEX
  5
2F6
330
2E2
100
AcDbEntity
  8
Visible (ISO)
100
AcDbVertex
100
AcDb2dVertex
 10
353.9218071884775
 20
373.7749246907917
 30
0.0
  0
VERTEX
  5
2F7
330
2E2
100
AcDbEntity
  8
Visible (ISO)
100
AcDbVertex
100
AcDb2dVertex
 10
354.0887331422742
 20
373.8474516225544
 30
0.0
  0
VERTEX
  5
2F8
330
2E2
100
AcDbEntity
  8
Visible (ISO)
100
AcDbVertex
100
AcDb2dVertex
 10
354.228363618047
 20
373.9199809385029
 30
0.0
  0
VERTEX
  5
2F9
330
2E2
100
AcDbEntity
  8
Visible (ISO)
100
AcDbVertex
100
AcDb2dVertex
 10
354.3388883576342
 20
373.9925102544514
 30
0.0
  0
VERTEX
  5
2FA
330
2E2
100
AcDbEntity
  8
Visible (ISO)
100
AcDbVertex
100
AcDb2dVertex
 10
354.4188743896583
 20
374.0650371862141
 30
0.0
  0
VERTEX
  5
2FB
330
2E2
100
AcDbEntity
  8
Visible (ISO)
100
AcDbVertex
100
AcDb2dVertex
 10
354.4672845898992
 20
374.1375665021625
 30
0.0
  0
VERTEX
  5
2FC
330
2E2
100
AcDbEntity
  8
Visible (ISO)
100
AcDbVertex
100
AcDb2dVertex
 10
354.4834914335708
 20
374.2100934339252
 30
0.0
  0
SEQEND
  5
2E5
330
2E2
100
AcDbEntity
  8
Visible (ISO)
  0
POLYLINE
  5
2FD
330
75
100
AcDbEntity
  8
Visible (ISO)
100
AcDb2dPolyline
 66
     1
 10
0.0
 20
0.0
 30
0.0
 70
   128
  0
VERTEX
  5
2FE
330
2FD
100
AcDbEntity
  8
Visible (ISO)
100
AcDbVertex
100
AcDb2dVertex
 10
349.6012651858205
 20
376.4062814069477
 30
0.0
  0
VERTEX
  5
2FF
330
2FD
100
AcDbEntity
  8
Visible (ISO)
100
AcDbVertex
100
AcDb2dVertex
 10
349.7071625963614
 20
376.4814404798237
 30
0.0
  0
VERTEX
  5
301
330
2FD
100
AcDbEntity
  8
Visible (ISO)
100
AcDbVertex
100
AcDb2dVertex
 10
349.8447505914259
 20
376.5565995526996
 30
0.0
  0
VERTEX
  5
302
330
2FD
100
AcDbEntity
  8
Visible (ISO)
100
AcDbVertex
100
AcDb2dVertex
 10
350.012113809615
 20
376.6317586255756
 30
0.0
  0
VERTEX
  5
303
330
2FD
100
AcDbEntity
  8
Visible (ISO)
100
AcDbVertex
100
AcDb2dVertex
 10
350.2069221665915
 20
376.7069176984516
 30
0.0
  0
VERTEX
  5
304
330
2FD
100
AcDbEntity
  8
Visible (ISO)
100
AcDbVertex
100
AcDb2dVertex
 10
350.4264635932601
 20
376.7820743871418
 30
0.0
  0
VERTEX
  5
305
330
2FD
100
AcDbEntity
  8
Visible (ISO)
100
AcDbVertex
100
AcDb2dVertex
 10
350.6676817260412
 20
376.8572334600178
 30
0.0
  0
VERTEX
  5
306
330
2FD
100
AcDbEntity
  8
Visible (ISO)
100
AcDbVertex
100
AcDb2dVertex
 10
350.9272181974673
 20
376.9323925328937
 30
0.0
  0
VERTEX
  5
307
330
2FD
100
AcDbEntity
  8
Visible (ISO)
100
AcDbVertex
100
AcDb2dVertex
 10
351.2014600716879
 20
377.0075516057697
 30
0.0
  0
VERTEX
  5
308
330
2FD
100
AcDbEntity
  8
Visible (ISO)
100
AcDbVertex
100
AcDb2dVertex
 10
351.4865891872847
 20
377.0827106786457
 30
0.0
  0
VERTEX
  5
309
330
2FD
100
AcDbEntity
  8
Visible (ISO)
100
AcDbVertex
100
AcDb2dVertex
 10
351.7786360856476
 20
377.1578697515217
 30
0.0
  0
VERTEX
  5
30A
330
2FD
100
AcDbEntity
  8
Visible (ISO)
100
AcDbVertex
100
AcDb2dVertex
 10
352.073534985674
 20
377.2330288243976
 30
0.0
  0
VERTEX
  5
30B
330
2FD
100
AcDbEntity
  8
Visible (ISO)
100
AcDbVertex
100
AcDb2dVertex
 10
352.3671802775809
 20
377.3081878972736
 30
0.0
  0
VERTEX
  5
30C
330
2FD
100
AcDbEntity
  8
Visible (ISO)
100
AcDbVertex
100
AcDb2dVertex
 10
352.6554839414461
 20
377.3833469701496
 30
0.0
  0
VERTEX
  5
30D
330
2FD
100
AcDbEntity
  8
Visible (ISO)
100
AcDbVertex
100
AcDb2dVertex
 10
352.9344322054511
 20
377.4585060430256
 30
0.0
  0
VERTEX
  5
30E
330
2FD
100
AcDbEntity
  8
Visible (ISO)
100
AcDbVertex
100
AcDb2dVertex
 10
353.2001416781211
 20
377.5336651159016
 30
0.0
  0
VERTEX
  5
30F
330
2FD
100
AcDbEntity
  8
Visible (ISO)
100
AcDbVertex
100
AcDb2dVertex
 10
353.4489131398617
 20
377.6088241887775
 30
0.0
  0
VERTEX
  5
310
330
2FD
100
AcDbEntity
  8
Visible (ISO)
100
AcDbVertex
100
AcDb2dVertex
 10
353.677283276989
 20
377.6839832616535
 30
0.0
  0
VERTEX
  5
311
330
2FD
100
AcDbEntity
  8
Visible (ISO)
100
AcDbVertex
100
AcDb2dVertex
 10
353.8820727097897
 20
377.7591423345295
 30
0.0
  0
VERTEX
  5
312
330
2FD
100
AcDbEntity
  8
Visible (ISO)
100
AcDbVertex
100
AcDb2dVertex
 10
354.0604305251129
 20
377.8342990232197
 30
0.0
  0
VERTEX
  5
313
330
2FD
100
AcDbEntity
  8
Visible (ISO)
100
AcDbVertex
100
AcDb2dVertex
 10
354.2098734558424
 20
377.9094580960956
 30
0.0
  0
VERTEX
  5
314
330
2FD
100
AcDbEntity
  8
Visible (ISO)
100
AcDbVertex
100
AcDb2dVertex
 10
354.3283211911659
 20
377.9846171689716
 30
0.0
  0
VERTEX
  5
315
330
2FD
100
AcDbEntity
  8
Visible (ISO)
100
AcDbVertex
100
AcDb2dVertex
 10
354.4141246521371
 20
378.0597762418476
 30
0.0
  0
VERTEX
  5
316
330
2FD
100
AcDbEntity
  8
Visible (ISO)
100
AcDbVertex
100
AcDb2dVertex
 10
354.4660890778488
 20
378.1349353147236
 30
0.0
  0
VERTEX
  5
317
330
2FD
100
AcDbEntity
  8
Visible (ISO)
100
AcDbVertex
100
AcDb2dVertex
 10
354.4834914335708
 20
378.2100943875996
 30
0.0
  0
SEQEND
  5
300
330
2FD
100
AcDbEntity
  8
Visible (ISO)
  0
POLYLINE
  5
318
330
75
100
AcDbEntity
  8
Visible (ISO)
100
AcDb2dPolyline
 66
     1
 10
0.0
 20
0.0
 30
0.0
 70
   128
  0
VERTEX
  5
319
330
318
100
AcDbEntity
  8
Visible (ISO)
100
AcDbVertex
100
AcDb2dVertex
 10
349.6012651858205
 20
380.4062799764362
 30
0.0
  0
VERTEX
  5
31A
330
318
100
AcDbEntity
  8
Visible (ISO)
100
AcDbVertex
100
AcDb2dVertex
 10
349.7071625963614
 20
380.4814390493122
 30
0.0
  0
VERTEX
  5
31C
330
318
100
AcDbEntity
  8
Visible (ISO)
100
AcDbVertex
100
AcDb2dVertex
 10
349.8447505914259
 20
380.5565981221882
 30
0.0
  0
VERTEX
  5
31D
330
318
100
AcDbEntity
  8
Visible (ISO)
100
AcDbVertex
100
AcDb2dVertex
 10
350.012113809615
 20
380.6317571950641
 30
0.0
  0
VERTEX
  5
31E
330
318
100
AcDbEntity
  8
Visible (ISO)
100
AcDbVertex
100
AcDb2dVertex
 10
350.2069221665915
 20
380.7069162679401
 30
0.0
  0
VERTEX
  5
31F
330
318
100
AcDbEntity
  8
Visible (ISO)
100
AcDbVertex
100
AcDb2dVertex
 10
350.4264635932601
 20
380.7820753408161
 30
0.0
  0
VERTEX
  5
320
330
318
100
AcDbEntity
  8
Visible (ISO)
100
AcDbVertex
100
AcDb2dVertex
 10
350.6676817260412
 20
380.8572344136921
 30
0.0
  0
VERTEX
  5
321
330
318
100
AcDbEntity
  8
Visible (ISO)
100
AcDbVertex
100
AcDb2dVertex
 10
350.9272181974673
 20
380.9323934865681
 30
0.0
  0
VERTEX
  5
322
330
318
100
AcDbEntity
  8
Visible (ISO)
100
AcDbVertex
100
AcDb2dVertex
 10
351.2014600716879
 20
381.007552559444
 30
0.0
  0
VERTEX
  5
323
330
318
100
AcDbEntity
  8
Visible (ISO)
100
AcDbVertex
100
AcDb2dVertex
 10
351.4865891872847
 20
381.08271163232
 30
0.0
  0
VERTEX
  5
324
330
318
100
AcDbEntity
  8
Visible (ISO)
100
AcDbVertex
100
AcDb2dVertex
 10
351.7786360856476
 20
381.157870705196
 30
0.0
  0
VERTEX
  5
325
330
318
100
AcDbEntity
  8
Visible (ISO)
100
AcDbVertex
100
AcDb2dVertex
 10
352.073534985674
 20
381.233029778072
 30
0.0
  0
VERTEX
  5
326
330
318
100
AcDbEntity
  8
Visible (ISO)
100
AcDbVertex
100
AcDb2dVertex
 10
352.3671802775809
 20
381.308188850948
 30
0.0
  0
VERTEX
  5
327
330
318
100
AcDbEntity
  8
Visible (ISO)
100
AcDbVertex
100
AcDb2dVertex
 10
352.6554839414461
 20
381.3833455396381
 30
0.0
  0
VERTEX
  5
328
330
318
100
AcDbEntity
  8
Visible (ISO)
100
AcDbVertex
100
AcDb2dVertex
 10
352.9344322054511
 20
381.4585046125141
 30
0.0
  0
VERTEX
  5
329
330
318
100
AcDbEntity
  8
Visible (ISO)
100
AcDbVertex
100
AcDb2dVertex
 10
353.2001416781211
 20
381.5336636853901
 30
0.0
  0
VERTEX
  5
32A
330
318
100
AcDbEntity
  8
Visible (ISO)
100
AcDbVertex
100
AcDb2dVertex
 10
353.4489131398617
 20
381.6088227582661
 30
0.0
  0
VERTEX
  5
32B
330
318
100
AcDbEntity
  8
Visible (ISO)
100
AcDbVertex
100
AcDb2dVertex
 10
353.677283276989
 20
381.683981831142
 30
0.0
  0
VERTEX
  5
32C
330
318
100
AcDbEntity
  8
Visible (ISO)
100
AcDbVertex
100
AcDb2dVertex
 10
353.8820727097897
 20
381.759140904018
 30
0.0
  0
VERTEX
  5
32D
330
318
100
AcDbEntity
  8
Visible (ISO)
100
AcDbVertex
100
AcDb2dVertex
 10
354.0604305251129
 20
381.834299976894
 30
0.0
  0
VERTEX
  5
32E
330
318
100
AcDbEntity
  8
Visible (ISO)
100
AcDbVertex
100
AcDb2dVertex
 10
354.2098734558424
 20
381.90945904977
 30
0.0
  0
VERTEX
  5
32F
330
318
100
AcDbEntity
  8
Visible (ISO)
100
AcDbVertex
100
AcDb2dVertex
 10
354.3283211911659
 20
381.984618122646
 30
0.0
  0
VERTEX
  5
330
330
318
100
AcDbEntity
  8
Visible (ISO)
100
AcDbVertex
100
AcDb2dVertex
 10
354.4141246521371
 20
382.0597771955219
 30
0.0
  0
VERTEX
  5
331
330
318
100
AcDbEntity
  8
Visible (ISO)
100
AcDbVertex
100
AcDb2dVertex
 10
354.4660890778488
 20
382.1349362683979
 30
0.0
  0
VERTEX
  5
332
330
318
100
AcDbEntity
  8
Visible (ISO)
100
AcDbVertex
100
AcDb2dVertex
 10
354.4834914335708
 20
382.2100953412739
 30
0.0
  0
SEQEND
  5
31B
330
318
100
AcDbEntity
  8
Visible (ISO)
  0
POLYLINE
  5
333
330
75
100
AcDbEntity
  8
Visible (ISO)
100
AcDb2dPolyline
 66
     1
 10
0.0
 20
0.0
 30
0.0
 70
   128
  0
VERTEX
  5
334
330
333
100
AcDbEntity
  8
Visible (ISO)
100
AcDbVertex
100
AcDb2dVertex
 10
349.6012651858205
 20
384.4062809301105
 30
0.0
  0
VERTEX
  5
335
330
333
100
AcDbEntity
  8
Visible (ISO)
100
AcDbVertex
100
AcDb2dVertex
 10
349.7071625963614
 20
384.4814400029865
 30
0.0
  0
VERTEX
  5
337
330
333
100
AcDbEntity
  8
Visible (ISO)
100
AcDbVertex
100
AcDb2dVertex
 10
349.8447505914259
 20
384.5565990758625
 30
0.0
  0
VERTEX
  5
338
330
333
100
AcDbEntity
  8
Visible (ISO)
100
AcDbVertex
100
AcDb2dVertex
 10
350.012113809615
 20
384.6317581487385
 30
0.0
  0
VERTEX
  5
339
330
333
100
AcDbEntity
  8
Visible (ISO)
100
AcDbVertex
100
AcDb2dVertex
 10
350.2069221665915
 20
384.7069172216145
 30
0.0
  0
VERTEX
  5
33A
330
333
100
AcDbEntity
  8
Visible (ISO)
100
AcDbVertex
100
AcDb2dVertex
 10
350.4264635932601
 20
384.7820762944904
 30
0.0
  0
VERTEX
  5
33B
330
333
100
AcDbEntity
  8
Visible (ISO)
100
AcDbVertex
100
AcDb2dVertex
 10
350.6676817260412
 20
384.8572353673664
 30
0.0
  0
VERTEX
  5
33C
330
333
100
AcDbEntity
  8
Visible (ISO)
100
AcDbVertex
100
AcDb2dVertex
 10
350.9272181974673
 20
384.9323944402424
 30
0.0
  0
VERTEX
  5
33D
330
333
100
AcDbEntity
  8
Visible (ISO)
100
AcDbVertex
100
AcDb2dVertex
 10
351.2014600716879
 20
385.0075535131184
 30
0.0
  0
VERTEX
  5
33E
330
333
100
AcDbEntity
  8
Visible (ISO)
100
AcDbVertex
100
AcDb2dVertex
 10
351.4865891872847
 20
385.0827125859943
 30
0.0
  0
VERTEX
  5
33F
330
333
100
AcDbEntity
  8
Visible (ISO)
100
AcDbVertex
100
AcDb2dVertex
 10
351.7786360856476
 20
385.1578716588703
 30
0.0
  0
VERTEX
  5
340
330
333
100
AcDbEntity
  8
Visible (ISO)
100
AcDbVertex
100
AcDb2dVertex
 10
352.073534985674
 20
385.2330307317463
 30
0.0
  0
VERTEX
  5
341
330
333
100
AcDbEntity
  8
Visible (ISO)
100
AcDbVertex
100
AcDb2dVertex
 10
352.3671802775809
 20
385.3081898046223
 30
0.0
  0
VERTEX
  5
342
330
333
100
AcDbEntity
  8
Visible (ISO)
100
AcDbVertex
100
AcDb2dVertex
 10
352.6554839414461
 20
385.3833488774982
 30
0.0
  0
VERTEX
  5
343
330
333
100
AcDbEntity
  8
Visible (ISO)
100
AcDbVertex
100
AcDb2dVertex
 10
352.9344322054511
 20
385.4585079503742
 30
0.0
  0
VERTEX
  5
344
330
333
100
AcDbEntity
  8
Visible (ISO)
100
AcDbVertex
100
AcDb2dVertex
 10
353.2001416781211
 20
385.5336622548786
 30
0.0
  0
VERTEX
  5
345
330
333
100
AcDbEntity
  8
Visible (ISO)
100
AcDbVertex
100
AcDb2dVertex
 10
353.4489131398617
 20
385.6088213277546
 30
0.0
  0
VERTEX
  5
346
330
333
100
AcDbEntity
  8
Visible (ISO)
100
AcDbVertex
100
AcDb2dVertex
 10
353.677283276989
 20
385.6839804006306
 30
0.0
  0
VERTEX
  5
347
330
333
100
AcDbEntity
  8
Visible (ISO)
100
AcDbVertex
100
AcDb2dVertex
 10
353.8820727097897
 20
385.7591394735065
 30
0.0
  0
VERTEX
  5
348
330
333
100
AcDbEntity
  8
Visible (ISO)
100
AcDbVertex
100
AcDb2dVertex
 10
354.0604305251129
 20
385.8342985463825
 30
0.0
  0
VERTEX
  5
349
330
333
100
AcDbEntity
  8
Visible (ISO)
100
AcDbVertex
100
AcDb2dVertex
 10
354.2098734558424
 20
385.9094576192585
 30
0.0
  0
VERTEX
  5
34A
330
333
100
AcDbEntity
  8
Visible (ISO)
100
AcDbVertex
100
AcDb2dVertex
 10
354.3283211911659
 20
385.9846166921345
 30
0.0
  0
VERTEX
  5
34B
330
333
100
AcDbEntity
  8
Visible (ISO)
100
AcDbVertex
100
AcDb2dVertex
 10
354.4141246521371
 20
386.0597757650105
 30
0.0
  0
VERTEX
  5
34C
330
333
100
AcDbEntity
  8
Visible (ISO)
100
AcDbVertex
100
AcDb2dVertex
 10
354.4660890778488
 20
386.1349348378864
 30
0.0
  0
VERTEX
  5
34D
330
333
100
AcDbEntity
  8
Visible (ISO)
100
AcDbVertex
100
AcDb2dVertex
 10
354.4834914335708
 20
386.2100939107624
 30
0.0
  0
SEQEND
  5
336
330
333
100
AcDbEntity
  8
Visible (ISO)
  0
POLYLINE
  5
34E
330
75
100
AcDbEntity
  8
Visible (ISO)
100
AcDb2dPolyline
 66
     1
 10
0.0
 20
0.0
 30
0.0
 70
   128
  0
VERTEX
  5
34F
330
34E
100
AcDbEntity
  8
Visible (ISO)
100
AcDbVertex
100
AcDb2dVertex
 10
349.6012651858205
 20
388.4062818837849
 30
0.0
  0
VERTEX
  5
350
330
34E
100
AcDbEntity
  8
Visible (ISO)
100
AcDbVertex
100
AcDb2dVertex
 10
349.7071625963614
 20
388.4814409566608
 30
0.0
  0
VERTEX
  5
352
330
34E
100
AcDbEntity
  8
Visible (ISO)
100
AcDbVertex
100
AcDb2dVertex
 10
349.8447505914259
 20
388.5566000295368
 30
0.0
  0
VERTEX
  5
353
330
34E
100
AcDbEntity
  8
Visible (ISO)
100
AcDbVertex
100
AcDb2dVertex
 10
350.012113809615
 20
388.6317591024128
 30
0.0
  0
VERTEX
  5
354
330
34E
100
AcDbEntity
  8
Visible (ISO)
100
AcDbVertex
100
AcDb2dVertex
 10
350.2069221665915
 20
388.7069181752888
 30
0.0
  0
VERTEX
  5
355
330
34E
100
AcDbEntity
  8
Visible (ISO)
100
AcDbVertex
100
AcDb2dVertex
 10
350.4264635932601
 20
388.7820772481648
 30
0.0
  0
VERTEX
  5
356
330
34E
100
AcDbEntity
  8
Visible (ISO)
100
AcDbVertex
100
AcDb2dVertex
 10
350.6676817260412
 20
388.8572363210407
 30
0.0
  0
VERTEX
  5
357
330
34E
100
AcDbEntity
  8
Visible (ISO)
100
AcDbVertex
100
AcDb2dVertex
 10
350.9272181974673
 20
388.9323953939167
 30
0.0
  0
VERTEX
  5
358
330
34E
100
AcDbEntity
  8
Visible (ISO)
100
AcDbVertex
100
AcDb2dVertex
 10
351.2014600716879
 20
389.0075544667927
 30
0.0
  0
VERTEX
  5
359
330
34E
100
AcDbEntity
  8
Visible (ISO)
100
AcDbVertex
100
AcDb2dVertex
 10
351.4865891872847
 20
389.0827087712971
 30
0.0
  0
VERTEX
  5
35A
330
34E
100
AcDbEntity
  8
Visible (ISO)
100
AcDbVertex
100
AcDb2dVertex
 10
351.7786360856476
 20
389.157867844173
 30
0.0
  0
VERTEX
  5
35B
330
34E
100
AcDbEntity
  8
Visible (ISO)
100
AcDbVertex
100
AcDb2dVertex
 10
352.073534985674
 20
389.233026917049
 30
0.0
  0
VERTEX
  5
35C
330
34E
100
AcDbEntity
  8
Visible (ISO)
100
AcDbVertex
100
AcDb2dVertex
 10
352.3671802775809
 20
389.308185989925
 30
0.0
  0
VERTEX
  5
35D
330
34E
100
AcDbEntity
  8
Visible (ISO)
100
AcDbVertex
100
AcDb2dVertex
 10
352.6554839414461
 20
389.383345062801
 30
0.0
  0
VERTEX
  5
35E
330
34E
100
AcDbEntity
  8
Visible (ISO)
100
AcDbVertex
100
AcDb2dVertex
 10
352.9344322054511
 20
389.458504135677
 30
0.0
  0
VERTEX
  5
35F
330
34E
100
AcDbEntity
  8
Visible (ISO)
100
AcDbVertex
100
AcDb2dVertex
 10
353.2001416781211
 20
389.5336632085529
 30
0.0
  0
VERTEX
  5
360
330
34E
100
AcDbEntity
  8
Visible (ISO)
100
AcDbVertex
100
AcDb2dVertex
 10
353.4489131398617
 20
389.6088222814289
 30
0.0
  0
VERTEX
  5
361
330
34E
100
AcDbEntity
  8
Visible (ISO)
100
AcDbVertex
100
AcDb2dVertex
 10
353.677283276989
 20
389.6839813543049
 30
0.0
  0
VERTEX
  5
362
330
34E
100
AcDbEntity
  8
Visible (ISO)
100
AcDbVertex
100
AcDb2dVertex
 10
353.8820727097897
 20
389.7591404271809
 30
0.0
  0
VERTEX
  5
363
330
34E
100
AcDbEntity
  8
Visible (ISO)
100
AcDbVertex
100
AcDb2dVertex
 10
354.0604305251129
 20
389.8342995000568
 30
0.0
  0
VERTEX
  5
364
330
34E
100
AcDbEntity
  8
Visible (ISO)
100
AcDbVertex
100
AcDb2dVertex
 10
354.2098734558424
 20
389.9094585729328
 30
0.0
  0
VERTEX
  5
365
330
34E
100
AcDbEntity
  8
Visible (ISO)
100
AcDbVertex
100
AcDb2dVertex
 10
354.3283211911659
 20
389.9846176458088
 30
0.0
  0
VERTEX
  5
366
330
34E
100
AcDbEntity
  8
Visible (ISO)
100
AcDbVertex
100
AcDb2dVertex
 10
354.4141246521371
 20
390.0597767186848
 30
0.0
  0
VERTEX
  5
367
330
34E
100
AcDbEntity
  8
Visible (ISO)
100
AcDbVertex
100
AcDb2dVertex
 10
354.4660890778488
 20
390.1349357915607
 30
0.0
  0
VERTEX
  5
368
330
34E
100
AcDbEntity
  8
Visible (ISO)
100
AcDbVertex
100
AcDb2dVertex
 10
354.4834914335708
 20
390.2100948644367
 30
0.0
  0
SEQEND
  5
351
330
34E
100
AcDbEntity
  8
Visible (ISO)
  0
POLYLINE
  5
369
330
75
100
AcDbEntity
  8
Visible (ISO)
100
AcDb2dPolyline
 66
     1
 10
0.0
 20
0.0
 30
0.0
 70
   128
  0
VERTEX
  5
36A
330
369
100
AcDbEntity
  8
Visible (ISO)
100
AcDbVertex
100
AcDb2dVertex
 10
349.6012651858205
 20
392.4062828374592
 30
0.0
  0
VERTEX
  5
36B
330
369
100
AcDbEntity
  8
Visible (ISO)
100
AcDbVertex
100
AcDb2dVertex
 10
349.7071625963614
 20
392.4814419103352
 30
0.0
  0
VERTEX
  5
36D
330
369
100
AcDbEntity
  8
Visible (ISO)
100
AcDbVertex
100
AcDb2dVertex
 10
349.8447505914259
 20
392.5566009832111
 30
0.0
  0
VERTEX
  5
36E
330
369
100
AcDbEntity
  8
Visible (ISO)
100
AcDbVertex
100
AcDb2dVertex
 10
350.012113809615
 20
392.6317600560871
 30
0.0
  0
VERTEX
  5
36F
330
369
100
AcDbEntity
  8
Visible (ISO)
100
AcDbVertex
100
AcDb2dVertex
 10
350.2069221665915
 20
392.7069143605915
 30
0.0
  0
VERTEX
  5
370
330
369
100
AcDbEntity
  8
Visible (ISO)
100
AcDbVertex
100
AcDb2dVertex
 10
350.4264635932601
 20
392.7820734334675
 30
0.0
  0
VERTEX
  5
371
330
369
100
AcDbEntity
  8
Visible (ISO)
100
AcDbVertex
100
AcDb2dVertex
 10
350.6676817260412
 20
392.8572325063435
 30
0.0
  0
VERTEX
  5
372
330
369
100
AcDbEntity
  8
Visible (ISO)
100
AcDbVertex
100
AcDb2dVertex
 10
350.9272181974673
 20
392.9323915792194
 30
0.0
  0
VERTEX
  5
373
330
369
100
AcDbEntity
  8
Visible (ISO)
100
AcDbVertex
100
AcDb2dVertex
 10
351.2014600716879
 20
393.0075506520954
 30
0.0
  0
VERTEX
  5
374
330
369
100
AcDbEntity
  8
Visible (ISO)
100
AcDbVertex
100
AcDb2dVertex
 10
351.4865891872847
 20
393.0827097249714
 30
0.0
  0
VERTEX
  5
375
330
369
100
AcDbEntity
  8
Visible (ISO)
100
AcDbVertex
100
AcDb2dVertex
 10
351.7786360856476
 20
393.1578687978474
 30
0.0
  0
VERTEX
  5
376
330
369
100
AcDbEntity
  8
Visible (ISO)
100
AcDbVertex
100
AcDb2dVertex
 10
352.073534985674
 20
393.2330278707233
 30
0.0
  0
VERTEX
  5
377
330
369
100
AcDbEntity
  8
Visible (ISO)
100
AcDbVertex
100
AcDb2dVertex
 10
352.3671802775809
 20
393.3081869435993
 30
0.0
  0
VERTEX
  5
378
330
369
100
AcDbEntity
  8
Visible (ISO)
100
AcDbVertex
100
AcDb2dVertex
 10
352.6554839414461
 20
393.3833460164753
 30
0.0
  0
VERTEX
  5
379
330
369
100
AcDbEntity
  8
Visible (ISO)
100
AcDbVertex
100
AcDb2dVertex
 10
352.9344322054511
 20
393.4585050893513
 30
0.0
  0
VERTEX
  5
37A
330
369
100
AcDbEntity
  8
Visible (ISO)
100
AcDbVertex
100
AcDb2dVertex
 10
353.2001416781211
 20
393.5336641622273
 30
0.0
  0
VERTEX
  5
37B
330
369
100
AcDbEntity
  8
Visible (ISO)
100
AcDbVertex
100
AcDb2dVertex
 10
353.4489131398617
 20
393.6088232351032
 30
0.0
  0
VERTEX
  5
37C
330
369
100
AcDbEntity
  8
Visible (ISO)
100
AcDbVertex
100
AcDb2dVertex
 10
353.677283276989
 20
393.6839823079792
 30
0.0
  0
VERTEX
  5
37D
330
369
100
AcDbEntity
  8
Visible (ISO)
100
AcDbVertex
100
AcDb2dVertex
 10
353.8820727097897
 20
393.7591413808552
 30
0.0
  0
VERTEX
  5
37E
330
369
100
AcDbEntity
  8
Visible (ISO)
100
AcDbVertex
100
AcDb2dVertex
 10
354.0604305251129
 20
393.8343004537312
 30
0.0
  0
VERTEX
  5
37F
330
369
100
AcDbEntity
  8
Visible (ISO)
100
AcDbVertex
100
AcDb2dVertex
 10
354.2098734558424
 20
393.9094595266071
 30
0.0
  0
VERTEX
  5
380
330
369
100
AcDbEntity
  8
Visible (ISO)
100
AcDbVertex
100
AcDb2dVertex
 10
354.3283211911659
 20
393.9846185994831
 30
0.0
  0
VERTEX
  5
381
330
369
100
AcDbEntity
  8
Visible (ISO)
100
AcDbVertex
100
AcDb2dVertex
 10
354.4141246521371
 20
394.0597776723591
 30
0.0
  0
VERTEX
  5
382
330
369
100
AcDbEntity
  8
Visible (ISO)
100
AcDbVertex
100
AcDb2dVertex
 10
354.4660890778488
 20
394.134936745235
 30
0.0
  0
VERTEX
  5
383
330
369
100
AcDbEntity
  8
Visible (ISO)
100
AcDbVertex
100
AcDb2dVertex
 10
354.4834914335708
 20
394.210095818111
 30
0.0
  0
SEQEND
  5
36C
330
369
100
AcDbEntity
  8
Visible (ISO)
  0
POLYLINE
  5
384
330
75
100
AcDbEntity
  8
Visible (ISO)
100
AcDb2dPolyline
 66
     1
 10
0.0
 20
0.0
 30
0.0
 70
   128
  0
VERTEX
  5
385
330
384
100
AcDbEntity
  8
Visible (ISO)
100
AcDbVertex
100
AcDb2dVertex
 10
349.6012651858205
 20
396.4062790227619
 30
0.0
  0
VERTEX
  5
386
330
384
100
AcDbEntity
  8
Visible (ISO)
100
AcDbVertex
100
AcDb2dVertex
 10
349.6515843729619
 20
396.4448742223469
 30
0.0
  0
VERTEX
  5
388
330
384
100
AcDbEntity
  8
Visible (ISO)
100
AcDbVertex
100
AcDb2dVertex
 10
349.7104715893112
 20
396.4834694219318
 30
0.0
  0
VERTEX
  5
389
330
384
100
AcDbEntity
  8
Visible (ISO)
100
AcDbVertex
100
AcDb2dVertex
 10
349.77771048259
 20
396.5220646215168
 30
0.0
  0
VERTEX
  5
38A
330
384
100
AcDbEntity
  8
Visible (ISO)
100
AcDbVertex
100
AcDb2dVertex
 10
349.8530538720532
 20
396.5606598211018
 30
0.0
  0
VERTEX
  5
38B
330
384
100
AcDbEntity
  8
Visible (ISO)
100
AcDbVertex
100
AcDb2dVertex
 10
349.93622503915
 20
396.5992550206867
 30
0.0
  0
VERTEX
  5
38C
330
384
100
AcDbEntity
  8
Visible (ISO)
100
AcDbVertex
100
AcDb2dVertex
 10
350.0269183334254
 20
396.6378502202717
 30
0.0
  0
VERTEX
  5
38D
330
384
100
AcDbEntity
  8
Visible (ISO)
100
AcDbVertex
100
AcDb2dVertex
 10
350.1248005201599
 20
396.6764454198566
 30
0.0
  0
VERTEX
  5
38E
330
384
100
AcDbEntity
  8
Visible (ISO)
100
AcDbVertex
100
AcDb2dVertex
 10
350.2295120321191
 20
396.7150406194416
 30
0.0
  0
VERTEX
  5
38F
330
384
100
AcDbEntity
  8
Visible (ISO)
100
AcDbVertex
100
AcDb2dVertex
 10
350.3406681281977
 20
396.7536358190266
 30
0.0
  0
VERTEX
  5
390
330
384
100
AcDbEntity
  8
Visible (ISO)
100
AcDbVertex
100
AcDb2dVertex
 10
350.4578603199202
 20
396.7922310186115
 30
0.0
  0
VERTEX
  5
391
330
384
100
AcDbEntity
  8
Visible (ISO)
100
AcDbVertex
100
AcDb2dVertex
 10
350.5806579831191
 20
396.8308262181965
 30
0.0
  0
VERTEX
  5
392
330
384
100
AcDbEntity
  8
Visible (ISO)
100
AcDbVertex
100
AcDb2dVertex
 10
350.7086101377586
 20
396.8694214177814
 30
0.0
  0
VERTEX
  5
393
330
384
100
AcDbEntity
  8
Visible (ISO)
100
AcDbVertex
100
AcDb2dVertex
 10
350.8412463178728
 20
396.9080166173664
 30
0.0
  0
VERTEX
  5
394
330
384
100
AcDbEntity
  8
Visible (ISO)
100
AcDbVertex
100
AcDb2dVertex
 10
350.9780794853652
 20
396.9466118169514
 30
0.0
  0
VERTEX
  5
395
330
384
100
AcDbEntity
  8
Visible (ISO)
100
AcDbVertex
100
AcDb2dVertex
 10
351.1186067898127
 20
396.9852070165363
 30
0.0
  0
VERTEX
  5
396
330
384
100
AcDbEntity
  8
Visible (ISO)
100
AcDbVertex
100
AcDb2dVertex
 10
351.2623118972127
 20
397.0238022161213
 30
0.0
  0
VERTEX
  5
397
330
384
100
AcDbEntity
  8
Visible (ISO)
100
AcDbVertex
100
AcDb2dVertex
 10
351.4086667859622
 20
397.0623974157062
 30
0.0
  0
VERTEX
  5
398
330
384
100
AcDbEntity
  8
Visible (ISO)
100
AcDbVertex
100
AcDb2dVertex
 10
351.5571337460769
 20
397.1009878469196
 30
0.0
  0
VERTEX
  5
399
330
384
100
AcDbEntity
  8
Visible (ISO)
100
AcDbVertex
100
AcDb2dVertex
 10
351.7071671713495
 20
397.1395830465046
 30
0.0
  0
VERTEX
  5
39A
330
384
100
AcDbEntity
  8
Visible (ISO)
100
AcDbVertex
100
AcDb2dVertex
 10
351.8582159199693
 20
397.1781782460896
 30
0.0
  0
VERTEX
  5
39B
330
384
100
AcDbEntity
  8
Visible (ISO)
100
AcDbVertex
100
AcDb2dVertex
 10
352.0097249604173
 20
397.2167734456745
 30
0.0
  0
VERTEX
  5
39C
330
384
100
AcDbEntity
  8
Visible (ISO)
100
AcDbVertex
100
AcDb2dVertex
 10
352.1611375998487
 20
397.2553686452595
 30
0.0
  0
VERTEX
  5
39D
330
384
100
AcDbEntity
  8
Visible (ISO)
100
AcDbVertex
100
AcDb2dVertex
 10
352.3118975300834
 20
397.2939638448444
 30
0.0
  0
VERTEX
  5
39E
330
384
100
AcDbEntity
  8
Visible (ISO)
100
AcDbVertex
100
AcDb2dVertex
 10
352.4614508306441
 20
397.3325590444294
 30
0.0
  0
SEQEND
  5
387
330
384
100
AcDbEntity
  8
Visible (ISO)
  0
POLYLINE
  5
39F
330
75
100
AcDbEntity
  8
Visible (ISO)
100
AcDb2dPolyline
 66
     1
 10
0.0
 20
0.0
 30
0.0
 70
   128
  0
VERTEX
  5
3A0
330
39F
100
AcDbEntity
  8
Visible (ISO)
100
AcDbVertex
100
AcDb2dVertex
 10
352.4614508306441
 20
396.5325598073688
 30
0.0
  0
VERTEX
  5
3A1
330
39F
100
AcDbEntity
  8
Visible (ISO)
100
AcDbVertex
100
AcDb2dVertex
 10
352.2800485805338
 20
396.4857916188923
 30
0.0
  0
VERTEX
  5
3A3
330
39F
100
AcDbEntity
  8
Visible (ISO)
100
AcDbVertex
100
AcDb2dVertex
 10
352.0970464603193
 20
396.4390186620441
 30
0.0
  0
VERTEX
  5
3A4
330
39F
100
AcDbEntity
  8
Visible (ISO)
100
AcDbVertex
100
AcDb2dVertex
 10
351.9134317643917
 20
396.3922504735676
 30
0.0
  0
VERTEX
  5
3A5
330
39F
100
AcDbEntity
  8
Visible (ISO)
100
AcDbVertex
100
AcDb2dVertex
 10
351.7301950162017
 20
396.345482285091
 30
0.0
  0
VERTEX
  5
3A6
330
39F
100
AcDbEntity
  8
Visible (ISO)
100
AcDbVertex
100
AcDb2dVertex
 10
351.5483247146895
 20
396.2987140966145
 30
0.0
  0
VERTEX
  5
3A7
330
39F
100
AcDbEntity
  8
Visible (ISO)
100
AcDbVertex
100
AcDb2dVertex
 10
351.3688020845342
 20
396.2519411397663
 30
0.0
  0
VERTEX
  5
3A8
330
39F
100
AcDbEntity
  8
Visible (ISO)
100
AcDbVertex
100
AcDb2dVertex
 10
351.1925954365148
 20
396.2051729512897
 30
0.0
  0
VERTEX
  5
3A9
330
39F
100
AcDbEntity
  8
Visible (ISO)
100
AcDbVertex
100
AcDb2dVertex
 10
351.0206554292436
 20
396.1584047628132
 30
0.0
  0
VERTEX
  5
3AA
330
39F
100
AcDbEntity
  8
Visible (ISO)
100
AcDbVertex
100
AcDb2dVertex
 10
350.853909722052
 20
396.1116365743366
 30
0.0
  0
VERTEX
  5
3AB
330
39F
100
AcDbEntity
  8
Visible (ISO)
100
AcDbVertex
100
AcDb2dVertex
 10
350.6932577609327
 20
396.0648636174885
 30
0.0
  0
VERTEX
  5
3AC
330
39F
100
AcDbEntity
  8
Visible (ISO)
100
AcDbVertex
100
AcDb2dVertex
 10
350.5395662235378
 20
396.0180954290119
 30
0.0
  0
VERTEX
  5
3AD
330
39F
100
AcDbEntity
  8
Visible (ISO)
100
AcDbVertex
100
AcDb2dVertex
 10
350.3936641869318
 20
395.9713272405354
 30
0.0
  0
VERTEX
  5
3AE
330
39F
100
AcDbEntity
  8
Visible (ISO)
100
AcDbVertex
100
AcDb2dVertex
 10
350.2563387549824
 20
395.9245590520588
 30
0.0
  0
VERTEX
  5
3AF
330
39F
100
AcDbEntity
  8
Visible (ISO)
100
AcDbVertex
100
AcDb2dVertex
 10
350.1283308966307
 20
395.8777860952107
 30
0.0
  0
VERTEX
  5
3B0
330
39F
100
AcDbEntity
  8
Visible (ISO)
100
AcDbVertex
100
AcDb2dVertex
 10
350.0103310381886
 20
395.8310179067341
 30
0.0
  0
VERTEX
  5
3B1
330
39F
100
AcDbEntity
  8
Visible (ISO)
100
AcDbVertex
100
AcDb2dVertex
 10
349.9029758646535
 20
395.7842497182575
 30
0.0
  0
VERTEX
  5
3B2
330
39F
100
AcDbEntity
  8
Visible (ISO)
100
AcDbVertex
100
AcDb2dVertex
 10
349.8068444115915
 20
395.7374815297809
 30
0.0
  0
VERTEX
  5
3B3
330
39F
100
AcDbEntity
  8
Visible (ISO)
100
AcDbVertex
100
AcDb2dVertex
 10
349.7224553841022
 20
395.6907085729328
 30
0.0
  0
VERTEX
  5
3B4
330
39F
100
AcDbEntity
  8
Visible (ISO)
100
AcDbVertex
100
AcDb2dVertex
 10
349.650263876487
 20
395.6439403844563
 30
0.0
  0
VERTEX
  5
3B5
330
39F
100
AcDbEntity
  8
Visible (ISO)
100
AcDbVertex
100
AcDb2dVertex
 10
349.5906595331816
 20
395.5971721959797
 30
0.0
  0
VERTEX
  5
3B6
330
39F
100
AcDbEntity
  8
Visible (ISO)
100
AcDbVertex
100
AcDb2dVertex
 10
349.5439637546555
 20
395.5504040075031
 30
0.0
  0
VERTEX
  5
3B7
330
39F
100
AcDbEntity
  8
Visible (ISO)
100
AcDbVertex
100
AcDb2dVertex
 10
349.5104285691831
 20
395.503631050655
 30
0.0
  0
VERTEX
  5
3B8
330
39F
100
AcDbEntity
  8
Visible (ISO)
100
AcDbVertex
100
AcDb2dVertex
 10
349.490234868817
 20
395.4568628621784
 30
0.0
  0
VERTEX
  5
3B9
330
39F
100
AcDbEntity
  8
Visible (ISO)
100
AcDbVertex
100
AcDb2dVertex
 10
349.4834913962622
 20
395.4100946737018
 30
0.0
  0
SEQEND
  5
3A2
330
39F
100
AcDbEntity
  8
Visible (ISO)
  0
POLYLINE
  5
3BA
330
75
100
AcDbEntity
  8
Visible (ISO)
100
AcDb2dPolyline
 66
     1
 10
0.0
 20
0.0
 30
0.0
 70
   128
  0
VERTEX
  5
3BB
330
3BA
100
AcDbEntity
  8
Visible (ISO)
100
AcDbVertex
100
AcDb2dVertex
 10
354.3657176956526
 20
393.2139067006794
 30
0.0
  0
VERTEX
  5
3BC
330
3BA
100
AcDbEntity
  8
Visible (ISO)
100
AcDbVertex
100
AcDb2dVertex
 10
354.2598203462639
 20
393.1387476278034
 30
0.0
  0
VERTEX
  5
3BE
330
3BA
100
AcDbEntity
  8
Visible (ISO)
100
AcDbVertex
100
AcDb2dVertex
 10
354.1222322820879
 20
393.0635885549274
 30
0.0
  0
VERTEX
  5
3BF
330
3BA
100
AcDbEntity
  8
Visible (ISO)
100
AcDbVertex
100
AcDb2dVertex
 10
353.9548690882014
 20
392.9884294820515
 30
0.0
  0
VERTEX
  5
3C0
330
3BA
100
AcDbEntity
  8
Visible (ISO)
100
AcDbVertex
100
AcDb2dVertex
 10
353.7600607234957
 20
392.9132704091755
 30
0.0
  0
VERTEX
  5
3C1
330
3BA
100
AcDbEntity
  8
Visible (ISO)
100
AcDbVertex
100
AcDb2dVertex
 10
353.5405192885341
 20
392.8381113362995
 30
0.0
  0
VERTEX
  5
3C2
330
3BA
100
AcDbEntity
  8
Visible (ISO)
100
AcDbVertex
100
AcDb2dVertex
 10
353.2993011509872
 20
392.7629522634235
 30
0.0
  0
VERTEX
  5
3C3
330
3BA
100
AcDbEntity
  8
Visible (ISO)
100
AcDbVertex
100
AcDb2dVertex
 10
353.0397645632167
 20
392.6877979589191
 30
0.0
  0
VERTEX
  5
3C4
330
3BA
100
AcDbEntity
  8
Visible (ISO)
100
AcDbVertex
100
AcDb2dVertex
 10
352.7655227235482
 20
392.6126388860432
 30
0.0
  0
VERTEX
  5
3C5
330
3BA
100
AcDbEntity
  8
Visible (ISO)
100
AcDbVertex
100
AcDb2dVertex
 10
352.4803936047662
 20
392.5374798131672
 30
0.0
  0
VERTEX
  5
3C6
330
3BA
100
AcDbEntity
  8
Visible (ISO)
100
AcDbVertex
100
AcDb2dVertex
 10
352.1883466951898
 20
392.4623207402912
 30
0.0
  0
VERTEX
  5
3C7
330
3BA
100
AcDbEntity
  8
Visible (ISO)
100
AcDbVertex
100
AcDb2dVertex
 10
351.8934478612816
 20
392.3871616674152
 30
0.0
  0
VERTEX
  5
3C8
330
3BA
100
AcDbEntity
  8
Visible (ISO)
100
AcDbVertex
100
AcDb2dVertex
 10
351.5998025636767
 20
392.3120025945392
 30
0.0
  0
VERTEX
  5
3C9
330
3BA
100
AcDbEntity
  8
Visible (ISO)
100
AcDbVertex
100
AcDb2dVertex
 10
351.3114988848475
 20
392.2368435216633
 30
0.0
  0
VERTEX
  5
3CA
330
3BA
100
AcDbEntity
  8
Visible (ISO)
100
AcDbVertex
100
AcDb2dVertex
 10
351.0325506629019
 20
392.1616844487873
 30
0.0
  0
VERTEX
  5
3CB
330
3BA
100
AcDbEntity
  8
Visible (ISO)
100
AcDbVertex
100
AcDb2dVertex
 10
350.7668410976426
 20
392.0865253759113
 30
0.0
  0
VERTEX
  5
3CC
330
3BA
100
AcDbEntity
  8
Visible (ISO)
100
AcDbVertex
100
AcDb2dVertex
 10
350.5180696683346
 20
392.0113663030353
 30
0.0
  0
VERTEX
  5
3CD
330
3BA
100
AcDbEntity
  8
Visible (ISO)
100
AcDbVertex
100
AcDb2dVertex
 10
350.2896995123077
 20
391.9362072301593
 30
0.0
  0
VERTEX
  5
3CE
330
3BA
100
AcDbEntity
  8
Visible (ISO)
100
AcDbVertex
100
AcDb2dVertex
 10
350.0849100292388
 20
391.8610481572834
 30
0.0
  0
VERTEX
  5
3CF
330
3BA
100
AcDbEntity
  8
Visible (ISO)
100
AcDbVertex
100
AcDb2dVertex
 10
349.9065522503471
 20
391.7858890844074
 30
0.0
  0
VERTEX
  5
3D0
330
3BA
100
AcDbEntity
  8
Visible (ISO)
100
AcDbVertex
100
AcDb2dVertex
 10
349.7571092993423
 20
391.7107300115315
 30
0.0
  0
VERTEX
  5
3D1
330
3BA
100
AcDbEntity
  8
Visible (ISO)
100
AcDbVertex
100
AcDb2dVertex
 10
349.6386617062713
 20
391.6355709386555
 30
0.0
  0
VERTEX
  5
3D2
330
3BA
100
AcDbEntity
  8
Visible (ISO)
100
AcDbVertex
100
AcDb2dVertex
 10
349.5528582160373
 20
391.5604118657795
 30
0.0
  0
VERTEX
  5
3D3
330
3BA
100
AcDbEntity
  8
Visible (ISO)
100
AcDbVertex
100
AcDb2dVertex
 10
349.50089372515
 20
391.4852527929035
 30
0.0
  0
VERTEX
  5
3D4
330
3BA
100
AcDbEntity
  8
Visible (ISO)
100
AcDbVertex
100
AcDb2dVertex
 10
349.4834913962622
 20
391.4100937200275
 30
0.0
  0
SEQEND
  5
3BD
330
3BA
100
AcDbEntity
  8
Visible (ISO)
  0
POLYLINE
  5
3D5
330
75
100
AcDbEntity
  8
Visible (ISO)
100
AcDb2dPolyline
 66
     1
 10
0.0
 20
0.0
 30
0.0
 70
   128
  0
VERTEX
  5
3D6
330
3D5
100
AcDbEntity
  8
Visible (ISO)
100
AcDbVertex
100
AcDb2dVertex
 10
354.3657176956526
 20
389.2139057470051
 30
0.0
  0
VERTEX
  5
3D7
330
3D5
100
AcDbEntity
  8
Visible (ISO)
100
AcDbVertex
100
AcDb2dVertex
 10
354.2598203462639
 20
389.1387514425007
 30
0.0
  0
VERTEX
  5
3D9
330
3D5
100
AcDbEntity
  8
Visible (ISO)
100
AcDbVertex
100
AcDb2dVertex
 10
354.1222322820879
 20
389.0635923696247
 30
0.0
  0
VERTEX
  5
3DA
330
3D5
100
AcDbEntity
  8
Visible (ISO)
100
AcDbVertex
100
AcDb2dVertex
 10
353.9548690882014
 20
388.9884332967487
 30
0.0
  0
VERTEX
  5
3DB
330
3D5
100
AcDbEntity
  8
Visible (ISO)
100
AcDbVertex
100
AcDb2dVertex
 10
353.7600607234957
 20
388.9132742238727
 30
0.0
  0
VERTEX
  5
3DC
330
3D5
100
AcDbEntity
  8
Visible (ISO)
100
AcDbVertex
100
AcDb2dVertex
 10
353.5405192885341
 20
388.8381151509968
 30
0.0
  0
VERTEX
  5
3DD
330
3D5
100
AcDbEntity
  8
Visible (ISO)
100
AcDbVertex
100
AcDb2dVertex
 10
353.2993011509872
 20
388.7629560781208
 30
0.0
  0
VERTEX
  5
3DE
330
3D5
100
AcDbEntity
  8
Visible (ISO)
100
AcDbVertex
100
AcDb2dVertex
 10
353.0397645632167
 20
388.6877970052448
 30
0.0
  0
VERTEX
  5
3DF
330
3D5
100
AcDbEntity
  8
Visible (ISO)
100
AcDbVertex
100
AcDb2dVertex
 10
352.7655227235482
 20
388.6126379323688
 30
0.0
  0
VERTEX
  5
3E0
330
3D5
100
AcDbEntity
  8
Visible (ISO)
100
AcDbVertex
100
AcDb2dVertex
 10
352.4803936047662
 20
388.5374788594928
 30
0.0
  0
VERTEX
  5
3E1
330
3D5
100
AcDbEntity
  8
Visible (ISO)
100
AcDbVertex
100
AcDb2dVertex
 10
352.1883466951898
 20
388.4623197866169
 30
0.0
  0
VERTEX
  5
3E2
330
3D5
100
AcDbEntity
  8
Visible (ISO)
100
AcDbVertex
100
AcDb2dVertex
 10
351.8934478612816
 20
388.3871607137409
 30
0.0
  0
VERTEX
  5
3E3
330
3D5
100
AcDbEntity
  8
Visible (ISO)
100
AcDbVertex
100
AcDb2dVertex
 10
351.5998025636767
 20
388.3120016408649
 30
0.0
  0
VERTEX
  5
3E4
330
3D5
100
AcDbEntity
  8
Visible (ISO)
100
AcDbVertex
100
AcDb2dVertex
 10
351.3114988848475
 20
388.236842567989
 30
0.0
  0
VERTEX
  5
3E5
330
3D5
100
AcDbEntity
  8
Visible (ISO)
100
AcDbVertex
100
AcDb2dVertex
 10
351.0325506629019
 20
388.161683495113
 30
0.0
  0
VERTEX
  5
3E6
330
3D5
100
AcDbEntity
  8
Visible (ISO)
100
AcDbVertex
100
AcDb2dVertex
 10
350.7668410976426
 20
388.086524422237
 30
0.0
  0
VERTEX
  5
3E7
330
3D5
100
AcDbEntity
  8
Visible (ISO)
100
AcDbVertex
100
AcDb2dVertex
 10
350.5180696683346
 20
388.011365349361
 30
0.0
  0
VERTEX
  5
3E8
330
3D5
100
AcDbEntity
  8
Visible (ISO)
100
AcDbVertex
100
AcDb2dVertex
 10
350.2896995123077
 20
387.9362062764851
 30
0.0
  0
VERTEX
  5
3E9
330
3D5
100
AcDbEntity
  8
Visible (ISO)
100
AcDbVertex
100
AcDb2dVertex
 10
350.0849100292388
 20
387.8610472036091
 30
0.0
  0
VERTEX
  5
3EA
330
3D5
100
AcDbEntity
  8
Visible (ISO)
100
AcDbVertex
100
AcDb2dVertex
 10
349.9065522503471
 20
387.7858881307331
 30
0.0
  0
VERTEX
  5
3EB
330
3D5
100
AcDbEntity
  8
Visible (ISO)
100
AcDbVertex
100
AcDb2dVertex
 10
349.7571092993423
 20
387.7107290578571
 30
0.0
  0
VERTEX
  5
3EC
330
3D5
100
AcDbEntity
  8
Visible (ISO)
100
AcDbVertex
100
AcDb2dVertex
 10
349.6386617062713
 20
387.6355699849812
 30
0.0
  0
VERTEX
  5
3ED
330
3D5
100
AcDbEntity
  8
Visible (ISO)
100
AcDbVertex
100
AcDb2dVertex
 10
349.5528582160373
 20
387.5604109121052
 30
0.0
  0
VERTEX
  5
3EE
330
3D5
100
AcDbEntity
  8
Visible (ISO)
100
AcDbVertex
100
AcDb2dVertex
 10
349.50089372515
 20
387.4852518392292
 30
0.0
  0
VERTEX
  5
3EF
330
3D5
100
AcDbEntity
  8
Visible (ISO)
100
AcDbVertex
100
AcDb2dVertex
 10
349.4834913962622
 20
387.4100927663532
 30
0.0
  0
SEQEND
  5
3D8
330
3D5
100
AcDbEntity
  8
Visible (ISO)
  0
POLYLINE
  5
3F0
330
75
100
AcDbEntity
  8
Visible (ISO)
100
AcDb2dPolyline
 66
     1
 10
0.0
 20
0.0
 30
0.0
 70
   128
  0
VERTEX
  5
3F1
330
3F0
100
AcDbEntity
  8
Visible (ISO)
100
AcDbVertex
100
AcDb2dVertex
 10
354.3657176956526
 20
385.2139095617023
 30
0.0
  0
VERTEX
  5
3F2
330
3F0
100
AcDbEntity
  8
Visible (ISO)
100
AcDbVertex
100
AcDb2dVertex
 10
354.2598203462639
 20
385.1387504888263
 30
0.0
  0
VERTEX
  5
3F4
330
3F0
100
AcDbEntity
  8
Visible (ISO)
100
AcDbVertex
100
AcDb2dVertex
 10
354.1222322820879
 20
385.0635914159504
 30
0.0
  0
VERTEX
  5
3F5
330
3F0
100
AcDbEntity
  8
Visible (ISO)
100
AcDbVertex
100
AcDb2dVertex
 10
353.9548690882014
 20
384.9884323430744
 30
0.0
  0
VERTEX
  5
3F6
330
3F0
100
AcDbEntity
  8
Visible (ISO)
100
AcDbVertex
100
AcDb2dVertex
 10
353.7600607234957
 20
384.9132732701984
 30
0.0
  0
VERTEX
  5
3F7
330
3F0
100
AcDbEntity
  8
Visible (ISO)
100
AcDbVertex
100
AcDb2dVertex
 10
353.5405192885341
 20
384.8381141973225
 30
0.0
  0
VERTEX
  5
3F8
330
3F0
100
AcDbEntity
  8
Visible (ISO)
100
AcDbVertex
100
AcDb2dVertex
 10
353.2993011509872
 20
384.7629551244465
 30
0.0
  0
VERTEX
  5
3F9
330
3F0
100
AcDbEntity
  8
Visible (ISO)
100
AcDbVertex
100
AcDb2dVertex
 10
353.0397645632167
 20
384.6877960515705
 30
0.0
  0
VERTEX
  5
3FA
330
3F0
100
AcDbEntity
  8
Visible (ISO)
100
AcDbVertex
100
AcDb2dVertex
 10
352.7655227235482
 20
384.6126369786945
 30
0.0
  0
VERTEX
  5
3FB
330
3F0
100
AcDbEntity
  8
Visible (ISO)
100
AcDbVertex
100
AcDb2dVertex
 10
352.4803936047662
 20
384.5374779058186
 30
0.0
  0
VERTEX
  5
3FC
330
3F0
100
AcDbEntity
  8
Visible (ISO)
100
AcDbVertex
100
AcDb2dVertex
 10
352.1883466951898
 20
384.4623188329426
 30
0.0
  0
VERTEX
  5
3FD
330
3F0
100
AcDbEntity
  8
Visible (ISO)
100
AcDbVertex
100
AcDb2dVertex
 10
351.8934478612816
 20
384.3871597600666
 30
0.0
  0
VERTEX
  5
3FE
330
3F0
100
AcDbEntity
  8
Visible (ISO)
100
AcDbVertex
100
AcDb2dVertex
 10
351.5998025636767
 20
384.3120006871906
 30
0.0
  0
VERTEX
  5
3FF
330
3F0
100
AcDbEntity
  8
Visible (ISO)
100
AcDbVertex
100
AcDb2dVertex
 10
351.3114988848475
 20
384.2368416143147
 30
0.0
  0
VERTEX
  5
400
330
3F0
100
AcDbEntity
  8
Visible (ISO)
100
AcDbVertex
100
AcDb2dVertex
 10
351.0325506629019
 20
384.1616825414387
 30
0.0
  0
VERTEX
  5
401
330
3F0
100
AcDbEntity
  8
Visible (ISO)
100
AcDbVertex
100
AcDb2dVertex
 10
350.7668410976426
 20
384.0865234685627
 30
0.0
  0
VERTEX
  5
402
330
3F0
100
AcDbEntity
  8
Visible (ISO)
100
AcDbVertex
100
AcDb2dVertex
 10
350.5180696683346
 20
384.0113667798725
 30
0.0
  0
VERTEX
  5
403
330
3F0
100
AcDbEntity
  8
Visible (ISO)
100
AcDbVertex
100
AcDb2dVertex
 10
350.2896995123077
 20
383.9362077069965
 30
0.0
  0
VERTEX
  5
404
330
3F0
100
AcDbEntity
  8
Visible (ISO)
100
AcDbVertex
100
AcDb2dVertex
 10
350.0849100292388
 20
383.8610486341206
 30
0.0
  0
VERTEX
  5
405
330
3F0
100
AcDbEntity
  8
Visible (ISO)
100
AcDbVertex
100
AcDb2dVertex
 10
349.9065522503471
 20
383.7858895612446
 30
0.0
  0
VERTEX
  5
406
330
3F0
100
AcDbEntity
  8
Visible (ISO)
100
AcDbVertex
100
AcDb2dVertex
 10
349.7571092993423
 20
383.7107304883686
 30
0.0
  0
VERTEX
  5
407
330
3F0
100
AcDbEntity
  8
Visible (ISO)
100
AcDbVertex
100
AcDb2dVertex
 10
349.6386617062713
 20
383.6355714154926
 30
0.0
  0
VERTEX
  5
408
330
3F0
100
AcDbEntity
  8
Visible (ISO)
100
AcDbVertex
100
AcDb2dVertex
 10
349.5528582160373
 20
383.5604123426167
 30
0.0
  0
VERTEX
  5
409
330
3F0
100
AcDbEntity
  8
Visible (ISO)
100
AcDbVertex
100
AcDb2dVertex
 10
349.50089372515
 20
383.4852532697407
 30
0.0
  0
VERTEX
  5
40A
330
3F0
100
AcDbEntity
  8
Visible (ISO)
100
AcDbVertex
100
AcDb2dVertex
 10
349.4834913962622
 20
383.4100941968647
 30
0.0
  0
SEQEND
  5
3F3
330
3F0
100
AcDbEntity
  8
Visible (ISO)
  0
POLYLINE
  5
40B
330
75
100
AcDbEntity
  8
Visible (ISO)
100
AcDb2dPolyline
 66
     1
 10
0.0
 20
0.0
 30
0.0
 70
   128
  0
VERTEX
  5
40C
330
40B
100
AcDbEntity
  8
Visible (ISO)
100
AcDbVertex
100
AcDb2dVertex
 10
354.3657176956526
 20
381.213908608028
 30
0.0
  0
VERTEX
  5
40D
330
40B
100
AcDbEntity
  8
Visible (ISO)
100
AcDbVertex
100
AcDb2dVertex
 10
354.2598203462639
 20
381.1387495351521
 30
0.0
  0
VERTEX
  5
40F
330
40B
100
AcDbEntity
  8
Visible (ISO)
100
AcDbVertex
100
AcDb2dVertex
 10
354.1222322820879
 20
381.0635904622761
 30
0.0
  0
VERTEX
  5
410
330
40B
100
AcDbEntity
  8
Visible (ISO)
100
AcDbVertex
100
AcDb2dVertex
 10
353.9548690882014
 20
380.9884313894001
 30
0.0
  0
VERTEX
  5
411
330
40B
100
AcDbEntity
  8
Visible (ISO)
100
AcDbVertex
100
AcDb2dVertex
 10
353.7600607234957
 20
380.9132723165241
 30
0.0
  0
VERTEX
  5
412
330
40B
100
AcDbEntity
  8
Visible (ISO)
100
AcDbVertex
100
AcDb2dVertex
 10
353.5405192885341
 20
380.8381132436482
 30
0.0
  0
VERTEX
  5
413
330
40B
100
AcDbEntity
  8
Visible (ISO)
100
AcDbVertex
100
AcDb2dVertex
 10
353.2993011509872
 20
380.7629541707722
 30
0.0
  0
VERTEX
  5
414
330
40B
100
AcDbEntity
  8
Visible (ISO)
100
AcDbVertex
100
AcDb2dVertex
 10
353.0397645632167
 20
380.6877950978962
 30
0.0
  0
VERTEX
  5
415
330
40B
100
AcDbEntity
  8
Visible (ISO)
100
AcDbVertex
100
AcDb2dVertex
 10
352.7655227235482
 20
380.6126360250202
 30
0.0
  0
VERTEX
  5
416
330
40B
100
AcDbEntity
  8
Visible (ISO)
100
AcDbVertex
100
AcDb2dVertex
 10
352.4803936047662
 20
380.5374769521442
 30
0.0
  0
VERTEX
  5
417
330
40B
100
AcDbEntity
  8
Visible (ISO)
100
AcDbVertex
100
AcDb2dVertex
 10
352.1883466951898
 20
380.4623178792683
 30
0.0
  0
VERTEX
  5
418
330
40B
100
AcDbEntity
  8
Visible (ISO)
100
AcDbVertex
100
AcDb2dVertex
 10
351.8934478612816
 20
380.3871611905781
 30
0.0
  0
VERTEX
  5
419
330
40B
100
AcDbEntity
  8
Visible (ISO)
100
AcDbVertex
100
AcDb2dVertex
 10
351.5998025636767
 20
380.3120021177021
 30
0.0
  0
VERTEX
  5
41A
330
40B
100
AcDbEntity
  8
Visible (ISO)
100
AcDbVertex
100
AcDb2dVertex
 10
351.3114988848475
 20
380.2368430448261
 30
0.0
  0
VERTEX
  5
41B
330
40B
100
AcDbEntity
  8
Visible (ISO)
100
AcDbVertex
100
AcDb2dVertex
 10
351.0325506629019
 20
380.1616839719502
 30
0.0
  0
VERTEX
  5
41C
330
40B
100
AcDbEntity
  8
Visible (ISO)
100
AcDbVertex
100
AcDb2dVertex
 10
350.7668410976426
 20
380.0865248990742
 30
0.0
  0
VERTEX
  5
41D
330
40B
100
AcDbEntity
  8
Visible (ISO)
100
AcDbVertex
100
AcDb2dVertex
 10
350.5180696683346
 20
380.0113658261982
 30
0.0
  0
VERTEX
  5
41E
330
40B
100
AcDbEntity
  8
Visible (ISO)
100
AcDbVertex
100
AcDb2dVertex
 10
350.2896995123077
 20
379.9362067533222
 30
0.0
  0
VERTEX
  5
41F
330
40B
100
AcDbEntity
  8
Visible (ISO)
100
AcDbVertex
100
AcDb2dVertex
 10
350.0849100292388
 20
379.8610476804463
 30
0.0
  0
VERTEX
  5
420
330
40B
100
AcDbEntity
  8
Visible (ISO)
100
AcDbVertex
100
AcDb2dVertex
 10
349.9065522503471
 20
379.7858886075703
 30
0.0
  0
VERTEX
  5
421
330
40B
100
AcDbEntity
  8
Visible (ISO)
100
AcDbVertex
100
AcDb2dVertex
 10
349.7571092993423
 20
379.7107295346943
 30
0.0
  0
VERTEX
  5
422
330
40B
100
AcDbEntity
  8
Visible (ISO)
100
AcDbVertex
100
AcDb2dVertex
 10
349.6386617062713
 20
379.6355704618183
 30
0.0
  0
VERTEX
  5
423
330
40B
100
AcDbEntity
  8
Visible (ISO)
100
AcDbVertex
100
AcDb2dVertex
 10
349.5528582160373
 20
379.5604113889423
 30
0.0
  0
VERTEX
  5
424
330
40B
100
AcDbEntity
  8
Visible (ISO)
100
AcDbVertex
100
AcDb2dVertex
 10
349.50089372515
 20
379.4852523160664
 30
0.0
  0
VERTEX
  5
425
330
40B
100
AcDbEntity
  8
Visible (ISO)
100
AcDbVertex
100
AcDb2dVertex
 10
349.4834913962622
 20
379.4100956273762
 30
0.0
  0
SEQEND
  5
40E
330
40B
100
AcDbEntity
  8
Visible (ISO)
  0
POLYLINE
  5
426
330
75
100
AcDbEntity
  8
Visible (ISO)
100
AcDb2dPolyline
 66
     1
 10
0.0
 20
0.0
 30
0.0
 70
   128
  0
VERTEX
  5
427
330
426
100
AcDbEntity
  8
Visible (ISO)
100
AcDbVertex
100
AcDb2dVertex
 10
354.3657176956526
 20
377.2139076543537
 30
0.0
  0
VERTEX
  5
428
330
426
100
AcDbEntity
  8
Visible (ISO)
100
AcDbVertex
100
AcDb2dVertex
 10
354.2598203462639
 20
377.1387485814778
 30
0.0
  0
VERTEX
  5
42A
330
426
100
AcDbEntity
  8
Visible (ISO)
100
AcDbVertex
100
AcDb2dVertex
 10
354.1222322820879
 20
377.0635895086018
 30
0.0
  0
VERTEX
  5
42B
330
426
100
AcDbEntity
  8
Visible (ISO)
100
AcDbVertex
100
AcDb2dVertex
 10
353.9548690882014
 20
376.9884304357258
 30
0.0
  0
VERTEX
  5
42C
330
426
100
AcDbEntity
  8
Visible (ISO)
100
AcDbVertex
100
AcDb2dVertex
 10
353.7600607234957
 20
376.9132713628498
 30
0.0
  0
VERTEX
  5
42D
330
426
100
AcDbEntity
  8
Visible (ISO)
100
AcDbVertex
100
AcDb2dVertex
 10
353.5405192885341
 20
376.8381146741596
 30
0.0
  0
VERTEX
  5
42E
330
426
100
AcDbEntity
  8
Visible (ISO)
100
AcDbVertex
100
AcDb2dVertex
 10
353.2993011509872
 20
376.7629556012836
 30
0.0
  0
VERTEX
  5
42F
330
426
100
AcDbEntity
  8
Visible (ISO)
100
AcDbVertex
100
AcDb2dVertex
 10
353.0397645632167
 20
376.6877965284077
 30
0.0
  0
VERTEX
  5
430
330
426
100
AcDbEntity
  8
Visible (ISO)
100
AcDbVertex
100
AcDb2dVertex
 10
352.7655227235482
 20
376.6126374555317
 30
0.0
  0
VERTEX
  5
431
330
426
100
AcDbEntity
  8
Visible (ISO)
100
AcDbVertex
100
AcDb2dVertex
 10
352.4803936047662
 20
376.5374783826557
 30
0.0
  0
VERTEX
  5
432
330
426
100
AcDbEntity
  8
Visible (ISO)
100
AcDbVertex
100
AcDb2dVertex
 10
352.1883466951898
 20
376.4623193097798
 30
0.0
  0
VERTEX
  5
433
330
426
100
AcDbEntity
  8
Visible (ISO)
100
AcDbVertex
100
AcDb2dVertex
 10
351.8934478612816
 20
376.3871602369038
 30
0.0
  0
VERTEX
  5
434
330
426
100
AcDbEntity
  8
Visible (ISO)
100
AcDbVertex
100
AcDb2dVertex
 10
351.5998025636767
 20
376.3120011640278
 30
0.0
  0
VERTEX
  5
435
330
426
100
AcDbEntity
  8
Visible (ISO)
100
AcDbVertex
100
AcDb2dVertex
 10
351.3114988848475
 20
376.2368420911518
 30
0.0
  0
VERTEX
  5
436
330
426
100
AcDbEntity
  8
Visible (ISO)
100
AcDbVertex
100
AcDb2dVertex
 10
351.0325506629019
 20
376.1616830182758
 30
0.0
  0
VERTEX
  5
437
330
426
100
AcDbEntity
  8
Visible (ISO)
100
AcDbVertex
100
AcDb2dVertex
 10
350.7668410976426
 20
376.0865239453999
 30
0.0
  0
VERTEX
  5
438
330
426
100
AcDbEntity
  8
Visible (ISO)
100
AcDbVertex
100
AcDb2dVertex
 10
350.5180696683346
 20
376.0113648725239
 30
0.0
  0
VERTEX
  5
439
330
426
100
AcDbEntity
  8
Visible (ISO)
100
AcDbVertex
100
AcDb2dVertex
 10
350.2896995123077
 20
375.9362057996479
 30
0.0
  0
VERTEX
  5
43A
330
426
100
AcDbEntity
  8
Visible (ISO)
100
AcDbVertex
100
AcDb2dVertex
 10
350.0849100292388
 20
375.8610467267719
 30
0.0
  0
VERTEX
  5
43B
330
426
100
AcDbEntity
  8
Visible (ISO)
100
AcDbVertex
100
AcDb2dVertex
 10
349.9065522503471
 20
375.7858900380818
 30
0.0
  0
VERTEX
  5
43C
330
426
100
AcDbEntity
  8
Visible (ISO)
100
AcDbVertex
100
AcDb2dVertex
 10
349.7571092993423
 20
375.7107309652058
 30
0.0
  0
VERTEX
  5
43D
330
426
100
AcDbEntity
  8
Visible (ISO)
100
AcDbVertex
100
AcDb2dVertex
 10
349.6386617062713
 20
375.6355718923298
 30
0.0
  0
VERTEX
  5
43E
330
426
100
AcDbEntity
  8
Visible (ISO)
100
AcDbVertex
100
AcDb2dVertex
 10
349.5528582160373
 20
375.5604128194538
 30
0.0
  0
VERTEX
  5
43F
330
426
100
AcDbEntity
  8
Visible (ISO)
100
AcDbVertex
100
AcDb2dVertex
 10
349.50089372515
 20
375.4852537465778
 30
0.0
  0
VERTEX
  5
440
330
426
100
AcDbEntity
  8
Visible (ISO)
100
AcDbVertex
100
AcDb2dVertex
 10
349.4834913962622
 20
375.4100946737019
 30
0.0
  0
SEQEND
  5
429
330
426
100
AcDbEntity
  8
Visible (ISO)
  0
POLYLINE
  5
441
330
75
100
AcDbEntity
  8
Visible (ISO)
100
AcDb2dPolyline
 66
     1
 10
0.0
 20
0.0
 30
0.0
 70
   128
  0
VERTEX
  5
442
330
441
100
AcDbEntity
  8
Visible (ISO)
100
AcDbVertex
100
AcDb2dVertex
 10
354.3657176956526
 20
373.2139090848652
 30
0.0
  0
VERTEX
  5
443
330
441
100
AcDbEntity
  8
Visible (ISO)
100
AcDbVertex
100
AcDb2dVertex
 10
354.3259556289943
 20
373.1828884435383
 30
0.0
  0
VERTEX
  5
445
330
441
100
AcDbEntity
  8
Visible (ISO)
100
AcDbVertex
100
AcDb2dVertex
 10
354.2806328343266
 20
373.1518654180256
 30
0.0
  0
VERTEX
  5
446
330
441
100
AcDbEntity
  8
Visible (ISO)
100
AcDbVertex
100
AcDb2dVertex
 10
354.229856875906
 20
373.1208447766987
 30
0.0
  0
VERTEX
  5
447
330
441
100
AcDbEntity
  8
Visible (ISO)
100
AcDbVertex
100
AcDb2dVertex
 10
354.1737483969047
 20
373.0898241353718
 30
0.0
  0
VERTEX
  5
448
330
441
100
AcDbEntity
  8
Visible (ISO)
100
AcDbVertex
100
AcDb2dVertex
 10
354.1124405162947
 20
373.0588034940449
 30
0.0
  0
VERTEX
  5
449
330
441
100
AcDbEntity
  8
Visible (ISO)
100
AcDbVertex
100
AcDb2dVertex
 10
354.0460788858244
 20
373.027782852718
 30
0.0
  0
VERTEX
  5
44A
330
441
100
AcDbEntity
  8
Visible (ISO)
100
AcDbVertex
100
AcDb2dVertex
 10
353.9748207516445
 20
372.9967622113911
 30
0.0
  0
VERTEX
  5
44B
330
441
100
AcDbEntity
  8
Visible (ISO)
100
AcDbVertex
100
AcDb2dVertex
 10
353.8988355925161
 20
372.9657415700641
 30
0.0
  0
VERTEX
  5
44C
330
441
100
AcDbEntity
  8
Visible (ISO)
100
AcDbVertex
100
AcDb2dVertex
 10
353.8183037179785
 20
372.9347209287372
 30
0.0
  0
VERTEX
  5
44D
330
441
100
AcDbEntity
  8
Visible (ISO)
100
AcDbVertex
100
AcDb2dVertex
 10
353.7334160859582
 20
372.9037002874104
 30
0.0
  0
VERTEX
  5
44E
330
441
100
AcDbEntity
  8
Visible (ISO)
100
AcDbVertex
100
AcDb2dVertex
 10
353.6443744490306
 20
372.8726796460835
 30
0.0
  0
VERTEX
  5
44F
330
441
100
AcDbEntity
  8
Visible (ISO)
100
AcDbVertex
100
AcDb2dVertex
 10
353.5513900665433
 20
372.8416590047566
 30
0.0
  0
VERTEX
  5
450
330
441
100
AcDbEntity
  8
Visible (ISO)
100
AcDbVertex
100
AcDb2dVertex
 10
353.4546837131291
 20
372.8106383634296
 30
0.0
  0
VERTEX
  5
451
330
441
100
AcDbEntity
  8
Visible (ISO)
100
AcDbVertex
100
AcDb2dVertex
 10
353.354484906569
 20
372.7796177221027
 30
0.0
  0
VERTEX
  5
452
330
441
100
AcDbEntity
  8
Visible (ISO)
100
AcDbVertex
100
AcDb2dVertex
 10
353.2510315829572
 20
372.7485970807758
 30
0.0
  0
VERTEX
  5
453
330
441
100
AcDbEntity
  8
Visible (ISO)
100
AcDbVertex
100
AcDb2dVertex
 10
353.1445692599466
 20
372.7175764394489
 30
0.0
  0
VERTEX
  5
454
330
441
100
AcDbEntity
  8
Visible (ISO)
100
AcDbVertex
100
AcDb2dVertex
 10
353.0353506630137
 20
372.686555798122
 30
0.0
  0
VERTEX
  5
455
330
441
100
AcDbEntity
  8
Visible (ISO)
100
AcDbVertex
100
AcDb2dVertex
 10
352.9236351199954
 20
372.6555351567951
 30
0.0
  0
VERTEX
  5
456
330
441
100
AcDbEntity
  8
Visible (ISO)
100
AcDbVertex
100
AcDb2dVertex
 10
352.8096877813113
 20
372.6245145154682
 30
0.0
  0
VERTEX
  5
457
330
441
100
AcDbEntity
  8
Visible (ISO)
100
AcDbVertex
100
AcDb2dVertex
 10
352.693779197329
 20
372.5934938741413
 30
0.0
  0
VERTEX
  5
458
330
441
100
AcDbEntity
  8
Visible (ISO)
100
AcDbVertex
100
AcDb2dVertex
 10
352.5761844418503
 20
372.5624732328144
 30
0.0
  0
VERTEX
  5
459
330
441
100
AcDbEntity
  8
Visible (ISO)
100
AcDbVertex
100
AcDb2dVertex
 10
352.4571827476476
 20
372.5314525914875
 30
0.0
  0
VERTEX
  5
45A
330
441
100
AcDbEntity
  8
Visible (ISO)
100
AcDbVertex
100
AcDb2dVertex
 10
352.3370565421473
 20
372.5004319501606
 30
0.0
  0
VERTEX
  5
45B
330
441
100
AcDbEntity
  8
Visible (ISO)
100
AcDbVertex
100
AcDb2dVertex
 10
352.2160910143786
 20
372.4694113088337
 30
0.0
  0
SEQEND
  5
444
330
441
100
AcDbEntity
  8
Visible (ISO)
  0
LINE
  5
45C
330
75
100
AcDbEntity
  8
Visible (ISO)
100
AcDbLine
 10
352.4614508306441
 20
396.5325598073688
 30
0.0
 11
352.5570427137897
 21
396.9325598073688
 31
0.0
  0
POLYLINE
  5
45D
330
75
100
AcDbEntity
  8
Visible (ISO)
100
AcDb2dPolyline
 66
     1
 10
0.0
 20
0.0
 30
0.0
 70
   128
  0
VERTEX
  5
45E
330
45D
100
AcDbEntity
  8
Visible (ISO)
100
AcDbVertex
100
AcDb2dVertex
 10
350.453596848964
 20
372.4694113088337
 30
0.0
  0
VERTEX
  5
45F
330
45D
100
AcDbEntity
  8
Visible (ISO)
100
AcDbVertex
100
AcDb2dVertex
 10
350.7149284545293
 20
372.5321511579243
 30
0.0
  0
VERTEX
  5
461
330
45D
100
AcDbEntity
  8
Visible (ISO)
100
AcDbVertex
100
AcDb2dVertex
 10
350.9885707594815
 20
372.5948910070148
 30
0.0
  0
VERTEX
  5
462
330
45D
100
AcDbEntity
  8
Visible (ISO)
100
AcDbVertex
100
AcDb2dVertex
 10
351.2718683104402
 20
372.6576308561054
 30
0.0
  0
VERTEX
  5
463
330
45D
100
AcDbEntity
  8
Visible (ISO)
100
AcDbVertex
100
AcDb2dVertex
 10
351.562071645673
 20
372.720370705196
 30
0.0
  0
VERTEX
  5
464
330
45D
100
AcDbEntity
  8
Visible (ISO)
100
AcDbVertex
100
AcDb2dVertex
 10
351.8563647807537
 20
372.7831081701008
 30
0.0
  0
VERTEX
  5
465
330
45D
100
AcDbEntity
  8
Visible (ISO)
100
AcDbVertex
100
AcDb2dVertex
 10
352.1518915062142
 20
372.8458480191914
 30
0.0
  0
VERTEX
  5
466
330
45D
100
AcDbEntity
  8
Visible (ISO)
100
AcDbVertex
100
AcDb2dVertex
 10
352.4457840360462
 20
372.9085878682819
 30
0.0
  0
VERTEX
  5
467
330
45D
100
AcDbEntity
  8
Visible (ISO)
100
AcDbVertex
100
AcDb2dVertex
 10
352.7351902725961
 20
372.9713277173725
 30
0.0
  0
VERTEX
  5
468
330
45D
100
AcDbEntity
  8
Visible (ISO)
100
AcDbVertex
100
AcDb2dVertex
 10
353.0173017113609
 20
373.0340675664631
 30
0.0
  0
VERTEX
  5
469
330
45D
100
AcDbEntity
  8
Visible (ISO)
100
AcDbVertex
100
AcDb2dVertex
 10
353.2893805115368
 20
373.0968074155537
 30
0.0
  0
VERTEX
  5
46A
330
45D
100
AcDbEntity
  8
Visible (ISO)
100
AcDbVertex
100
AcDb2dVertex
 10
353.5487863203762
 20
373.1595472646442
 30
0.0
  0
VERTEX
  5
46B
330
45D
100
AcDbEntity
  8
Visible (ISO)
100
AcDbVertex
100
AcDb2dVertex
 10
353.7930018772302
 20
373.2222871137348
 30
0.0
  0
VERTEX
  5
46C
330
45D
100
AcDbEntity
  8
Visible (ISO)
100
AcDbVertex
100
AcDb2dVertex
 10
354.0196569937966
 20
373.2850269628254
 30
0.0
  0
VERTEX
  5
46D
330
45D
100
AcDbEntity
  8
Visible (ISO)
100
AcDbVertex
100
AcDb2dVertex
 10
354.2265523430261
 20
373.347766811916
 30
0.0
  0
VERTEX
  5
46E
330
45D
100
AcDbEntity
  8
Visible (ISO)
100
AcDbVertex
100
AcDb2dVertex
 10
354.4116797929451
 20
373.4105042768208
 30
0.0
  0
VERTEX
  5
46F
330
45D
100
AcDbEntity
  8
Visible (ISO)
100
AcDbVertex
100
AcDb2dVertex
 10
354.5732430168495
 20
373.4732441259113
 30
0.0
  0
VERTEX
  5
470
330
45D
100
AcDbEntity
  8
Visible (ISO)
100
AcDbVertex
100
AcDb2dVertex
 10
354.7096742627845
 20
373.5359839750019
 30
0.0
  0
VERTEX
  5
471
330
45D
100
AcDbEntity
  8
Visible (ISO)
100
AcDbVertex
100
AcDb2dVertex
 10
354.8196491399596
 20
373.5987238240925
 30
0.0
  0
VERTEX
  5
472
330
45D
100
AcDbEntity
  8
Visible (ISO)
100
AcDbVertex
100
AcDb2dVertex
 10
354.9021006245105
 20
373.6614636731831
 30
0.0
  0
VERTEX
  5
473
330
45D
100
AcDbEntity
  8
Visible (ISO)
100
AcDbVertex
100
AcDb2dVertex
 10
354.9562286137919
 20
373.7242035222736
 30
0.0
  0
VERTEX
  5
474
330
45D
100
AcDbEntity
  8
Visible (ISO)
100
AcDbVertex
100
AcDb2dVertex
 10
354.9815077473965
 20
373.7869433713642
 30
0.0
  0
VERTEX
  5
475
330
45D
100
AcDbEntity
  8
Visible (ISO)
100
AcDbVertex
100
AcDb2dVertex
 10
354.9776930166848
 20
373.8496832204548
 30
0.0
  0
VERTEX
  5
476
330
45D
100
AcDbEntity
  8
Visible (ISO)
100
AcDbVertex
100
AcDb2dVertex
 10
354.9448207870035
 20
373.9124230695454
 30
0.0
  0
VERTEX
  5
477
330
45D
100
AcDbEntity
  8
Visible (ISO)
100
AcDbVertex
100
AcDb2dVertex
 10
354.8832105799679
 20
373.9751629186359
 30
0.0
  0
SEQEND
  5
460
330
45D
100
AcDbEntity
  8
Visible (ISO)
  0
POLYLINE
  5
478
330
75
100
AcDbEntity
  8
Visible (ISO)
100
AcDb2dPolyline
 66
     1
 10
0.0
 20
0.0
 30
0.0
 70
   128
  0
VERTEX
  5
479
330
478
100
AcDbEntity
  8
Visible (ISO)
100
AcDbVertex
100
AcDb2dVertex
 10
349.0837724311194
 20
375.6450275731769
 30
0.0
  0
VERTEX
  5
47A
330
478
100
AcDbEntity
  8
Visible (ISO)
100
AcDbVertex
100
AcDb2dVertex
 10
349.000578081941
 20
375.7421163869587
 30
0.0
  0
VERTEX
  5
47C
330
478
100
AcDbEntity
  8
Visible (ISO)
100
AcDbVertex
100
AcDb2dVertex
 10
348.9866273243874
 20
375.8392052007404
 30
0.0
  0
VERTEX
  5
47D
330
478
100
AcDbEntity
  8
Visible (ISO)
100
AcDbVertex
100
AcDb2dVertex
 10
349.0422437364971
 20
375.9362940145221
 30
0.0
  0
VERTEX
  5
47E
330
478
100
AcDbEntity
  8
Visible (ISO)
100
AcDbVertex
100
AcDb2dVertex
 10
349.1661360039227
 20
376.0333828283039
 30
0.0
  0
VERTEX
  5
47F
330
478
100
AcDbEntity
  8
Visible (ISO)
100
AcDbVertex
100
AcDb2dVertex
 10
349.3554285682612
 20
376.1304716420856
 30
0.0
  0
VERTEX
  5
480
330
478
100
AcDbEntity
  8
Visible (ISO)
100
AcDbVertex
100
AcDb2dVertex
 10
349.6057275454973
 20
376.2275604558674
 30
0.0
  0
VERTEX
  5
481
330
478
100
AcDbEntity
  8
Visible (ISO)
100
AcDbVertex
100
AcDb2dVertex
 10
349.9112219953855
 20
376.3246492696491
 30
0.0
  0
VERTEX
  5
482
330
478
100
AcDbEntity
  8
Visible (ISO)
100
AcDbVertex
100
AcDb2dVertex
 10
350.2648207355431
 20
376.4217380834308
 30
0.0
  0
VERTEX
  5
483
330
478
100
AcDbEntity
  8
Visible (ISO)
100
AcDbVertex
100
AcDb2dVertex
 10
350.6583155953722
 20
376.5188268972126
 30
0.0
  0
VERTEX
  5
484
330
478
100
AcDbEntity
  8
Visible (ISO)
100
AcDbVertex
100
AcDb2dVertex
 10
351.0825721823118
 20
376.6159157109943
 30
0.0
  0
VERTEX
  5
485
330
478
100
AcDbEntity
  8
Visible (ISO)
100
AcDbVertex
100
AcDb2dVertex
 10
351.5277420164995
 20
376.7130045247761
 30
0.0
  0
VERTEX
  5
486
330
478
100
AcDbEntity
  8
Visible (ISO)
100
AcDbVertex
100
AcDb2dVertex
 10
351.9834914475703
 20
376.8100933385578
 30
0.0
  0
VERTEX
  5
487
330
478
100
AcDbEntity
  8
Visible (ISO)
100
AcDbVertex
100
AcDb2dVertex
 10
352.4392407559821
 20
376.9071845365254
 30
0.0
  0
VERTEX
  5
488
330
478
100
AcDbEntity
  8
Visible (ISO)
100
AcDbVertex
100
AcDb2dVertex
 10
352.8844106871073
 20
377.0042733503071
 30
0.0
  0
VERTEX
  5
489
330
478
100
AcDbEntity
  8
Visible (ISO)
100
AcDbVertex
100
AcDb2dVertex
 10
353.3086672225632
 20
377.1013621640888
 30
0.0
  0
VERTEX
  5
48A
330
478
100
AcDbEntity
  8
Visible (ISO)
100
AcDbVertex
100
AcDb2dVertex
 10
353.7021621198358
 20
377.1984509778706
 30
0.0
  0
VERTEX
  5
48B
330
478
100
AcDbEntity
  8
Visible (ISO)
100
AcDbVertex
100
AcDb2dVertex
 10
354.0557609388133
 20
377.2955397916523
 30
0.0
  0
VERTEX
  5
48C
330
478
100
AcDbEntity
  8
Visible (ISO)
100
AcDbVertex
100
AcDb2dVertex
 10
354.3612553383773
 20
377.392628605434
 30
0.0
  0
VERTEX
  5
48D
330
478
100
AcDbEntity
  8
Visible (ISO)
100
AcDbVertex
100
AcDb2dVertex
 10
354.6115540901307
 20
377.4897174192158
 30
0.0
  0
VERTEX
  5
48E
330
478
100
AcDbEntity
  8
Visible (ISO)
100
AcDbVertex
100
AcDb2dVertex
 10
354.8008467024041
 20
377.5868062329975
 30
0.0
  0
VERTEX
  5
48F
330
478
100
AcDbEntity
  8
Visible (ISO)
100
AcDbVertex
100
AcDb2dVertex
 10
354.9247390784414
 20
377.6838950467793
 30
0.0
  0
VERTEX
  5
490
330
478
100
AcDbEntity
  8
Visible (ISO)
100
AcDbVertex
100
AcDb2dVertex
 10
354.9803555508954
 20
377.780983860561
 30
0.0
  0
VERTEX
  5
491
330
478
100
AcDbEntity
  8
Visible (ISO)
100
AcDbVertex
100
AcDb2dVertex
 10
354.9664047821163
 20
377.8780726743427
 30
0.0
  0
VERTEX
  5
492
330
478
100
AcDbEntity
  8
Visible (ISO)
100
AcDbVertex
100
AcDb2dVertex
 10
354.8832105799679
 20
377.9751614881245
 30
0.0
  0
SEQEND
  5
47B
330
478
100
AcDbEntity
  8
Visible (ISO)
  0
POLYLINE
  5
493
330
75
100
AcDbEntity
  8
Visible (ISO)
100
AcDb2dPolyline
 66
     1
 10
0.0
 20
0.0
 30
0.0
 70
   128
  0
VERTEX
  5
494
330
493
100
AcDbEntity
  8
Visible (ISO)
100
AcDbVertex
100
AcDb2dVertex
 10
349.0837724311194
 20
379.6450261426655
 30
0.0
  0
VERTEX
  5
495
330
493
100
AcDbEntity
  8
Visible (ISO)
100
AcDbVertex
100
AcDb2dVertex
 10
349.000578081941
 20
379.742117340633
 30
0.0
  0
VERTEX
  5
497
330
493
100
AcDbEntity
  8
Visible (ISO)
100
AcDbVertex
100
AcDb2dVertex
 10
348.9866273243874
 20
379.8392061544147
 30
0.0
  0
VERTEX
  5
498
330
493
100
AcDbEntity
  8
Visible (ISO)
100
AcDbVertex
100
AcDb2dVertex
 10
349.0422437364971
 20
379.9362949681965
 30
0.0
  0
VERTEX
  5
499
330
493
100
AcDbEntity
  8
Visible (ISO)
100
AcDbVertex
100
AcDb2dVertex
 10
349.1661360039227
 20
380.0333837819782
 30
0.0
  0
VERTEX
  5
49A
330
493
100
AcDbEntity
  8
Visible (ISO)
100
AcDbVertex
100
AcDb2dVertex
 10
349.3554285682612
 20
380.13047259576
 30
0.0
  0
VERTEX
  5
49B
330
493
100
AcDbEntity
  8
Visible (ISO)
100
AcDbVertex
100
AcDb2dVertex
 10
349.6057275454973
 20
380.2275614095417
 30
0.0
  0
VERTEX
  5
49C
330
493
100
AcDbEntity
  8
Visible (ISO)
100
AcDbVertex
100
AcDb2dVertex
 10
349.9112219953855
 20
380.3246502233234
 30
0.0
  0
VERTEX
  5
49D
330
493
100
AcDbEntity
  8
Visible (ISO)
100
AcDbVertex
100
AcDb2dVertex
 10
350.2648207355431
 20
380.4217390371052
 30
0.0
  0
VERTEX
  5
49E
330
493
100
AcDbEntity
  8
Visible (ISO)
100
AcDbVertex
100
AcDb2dVertex
 10
350.6583155953722
 20
380.5188278508869
 30
0.0
  0
VERTEX
  5
49F
330
493
100
AcDbEntity
  8
Visible (ISO)
100
AcDbVertex
100
AcDb2dVertex
 10
351.0825721823118
 20
380.6159166646687
 30
0.0
  0
VERTEX
  5
4A0
330
493
100
AcDbEntity
  8
Visible (ISO)
100
AcDbVertex
100
AcDb2dVertex
 10
351.5277420164995
 20
380.7130054784504
 30
0.0
  0
VERTEX
  5
4A1
330
493
100
AcDbEntity
  8
Visible (ISO)
100
AcDbVertex
100
AcDb2dVertex
 10
351.9834914475703
 20
380.8100942922321
 30
0.0
  0
VERTEX
  5
4A2
330
493
100
AcDbEntity
  8
Visible (ISO)
100
AcDbVertex
100
AcDb2dVertex
 10
352.4392407559821
 20
380.9071831060139
 30
0.0
  0
VERTEX
  5
4A3
330
493
100
AcDbEntity
  8
Visible (ISO)
100
AcDbVertex
100
AcDb2dVertex
 10
352.8844106871073
 20
381.0042719197956
 30
0.0
  0
VERTEX
  5
4A4
330
493
100
AcDbEntity
  8
Visible (ISO)
100
AcDbVertex
100
AcDb2dVertex
 10
353.3086672225632
 20
381.1013607335774
 30
0.0
  0
VERTEX
  5
4A5
330
493
100
AcDbEntity
  8
Visible (ISO)
100
AcDbVertex
100
AcDb2dVertex
 10
353.7021621198358
 20
381.1984495473591
 30
0.0
  0
VERTEX
  5
4A6
330
493
100
AcDbEntity
  8
Visible (ISO)
100
AcDbVertex
100
AcDb2dVertex
 10
354.0557609388133
 20
381.2955383611408
 30
0.0
  0
VERTEX
  5
4A7
330
493
100
AcDbEntity
  8
Visible (ISO)
100
AcDbVertex
100
AcDb2dVertex
 10
354.3612553383773
 20
381.3926271749226
 30
0.0
  0
VERTEX
  5
4A8
330
493
100
AcDbEntity
  8
Visible (ISO)
100
AcDbVertex
100
AcDb2dVertex
 10
354.6115540901307
 20
381.4897159887043
 30
0.0
  0
VERTEX
  5
4A9
330
493
100
AcDbEntity
  8
Visible (ISO)
100
AcDbVertex
100
AcDb2dVertex
 10
354.8008467024041
 20
381.5868071866718
 30
0.0
  0
VERTEX
  5
4AA
330
493
100
AcDbEntity
  8
Visible (ISO)
100
AcDbVertex
100
AcDb2dVertex
 10
354.9247390784414
 20
381.6838960004536
 30
0.0
  0
VERTEX
  5
4AB
330
493
100
AcDbEntity
  8
Visible (ISO)
100
AcDbVertex
100
AcDb2dVertex
 10
354.9803555508954
 20
381.7809848142353
 30
0.0
  0
VERTEX
  5
4AC
330
493
100
AcDbEntity
  8
Visible (ISO)
100
AcDbVertex
100
AcDb2dVertex
 10
354.9664047821163
 20
381.878073628017
 30
0.0
  0
VERTEX
  5
4AD
330
493
100
AcDbEntity
  8
Visible (ISO)
100
AcDbVertex
100
AcDb2dVertex
 10
354.8832105799679
 20
381.9751624417988
 30
0.0
  0
SEQEND
  5
496
330
493
100
AcDbEntity
  8
Visible (ISO)
  0
POLYLINE
  5
4AE
330
75
100
AcDbEntity
  8
Visible (ISO)
100
AcDb2dPolyline
 66
     1
 10
0.0
 20
0.0
 30
0.0
 70
   128
  0
VERTEX
  5
4AF
330
4AE
100
AcDbEntity
  8
Visible (ISO)
100
AcDbVertex
100
AcDb2dVertex
 10
349.0837724311194
 20
383.6450270963398
 30
0.0
  0
VERTEX
  5
4B0
330
4AE
100
AcDbEntity
  8
Visible (ISO)
100
AcDbVertex
100
AcDb2dVertex
 10
349.000578081941
 20
383.7421159101215
 30
0.0
  0
VERTEX
  5
4B2
330
4AE
100
AcDbEntity
  8
Visible (ISO)
100
AcDbVertex
100
AcDb2dVertex
 10
348.9866273243874
 20
383.8392047239033
 30
0.0
  0
VERTEX
  5
4B3
330
4AE
100
AcDbEntity
  8
Visible (ISO)
100
AcDbVertex
100
AcDb2dVertex
 10
349.0422437364971
 20
383.936293537685
 30
0.0
  0
VERTEX
  5
4B4
330
4AE
100
AcDbEntity
  8
Visible (ISO)
100
AcDbVertex
100
AcDb2dVertex
 10
349.1661360039227
 20
384.0333847356525
 30
0.0
  0
VERTEX
  5
4B5
330
4AE
100
AcDbEntity
  8
Visible (ISO)
100
AcDbVertex
100
AcDb2dVertex
 10
349.3554285682612
 20
384.1304735494343
 30
0.0
  0
VERTEX
  5
4B6
330
4AE
100
AcDbEntity
  8
Visible (ISO)
100
AcDbVertex
100
AcDb2dVertex
 10
349.6057275454973
 20
384.227562363216
 30
0.0
  0
VERTEX
  5
4B7
330
4AE
100
AcDbEntity
  8
Visible (ISO)
100
AcDbVertex
100
AcDb2dVertex
 10
349.9112219953855
 20
384.3246511769978
 30
0.0
  0
VERTEX
  5
4B8
330
4AE
100
AcDbEntity
  8
Visible (ISO)
100
AcDbVertex
100
AcDb2dVertex
 10
350.2648207355431
 20
384.4217399907795
 30
0.0
  0
VERTEX
  5
4B9
330
4AE
100
AcDbEntity
  8
Visible (ISO)
100
AcDbVertex
100
AcDb2dVertex
 10
350.6583155953722
 20
384.5188288045612
 30
0.0
  0
VERTEX
  5
4BA
330
4AE
100
AcDbEntity
  8
Visible (ISO)
100
AcDbVertex
100
AcDb2dVertex
 10
351.0825721823118
 20
384.615917618343
 30
0.0
  0
VERTEX
  5
4BB
330
4AE
100
AcDbEntity
  8
Visible (ISO)
100
AcDbVertex
100
AcDb2dVertex
 10
351.5277420164995
 20
384.7130064321247
 30
0.0
  0
VERTEX
  5
4BC
330
4AE
100
AcDbEntity
  8
Visible (ISO)
100
AcDbVertex
100
AcDb2dVertex
 10
351.9834914475703
 20
384.8100952459065
 30
0.0
  0
VERTEX
  5
4BD
330
4AE
100
AcDbEntity
  8
Visible (ISO)
100
AcDbVertex
100
AcDb2dVertex
 10
352.4392407559821
 20
384.9071840596882
 30
0.0
  0
VERTEX
  5
4BE
330
4AE
100
AcDbEntity
  8
Visible (ISO)
100
AcDbVertex
100
AcDb2dVertex
 10
352.8844106871073
 20
385.0042728734699
 30
0.0
  0
VERTEX
  5
4BF
330
4AE
100
AcDbEntity
  8
Visible (ISO)
100
AcDbVertex
100
AcDb2dVertex
 10
353.3086672225632
 20
385.1013616872517
 30
0.0
  0
VERTEX
  5
4C0
330
4AE
100
AcDbEntity
  8
Visible (ISO)
100
AcDbVertex
100
AcDb2dVertex
 10
353.7021621198358
 20
385.1984505010334
 30
0.0
  0
VERTEX
  5
4C1
330
4AE
100
AcDbEntity
  8
Visible (ISO)
100
AcDbVertex
100
AcDb2dVertex
 10
354.0557609388133
 20
385.2955393148151
 30
0.0
  0
VERTEX
  5
4C2
330
4AE
100
AcDbEntity
  8
Visible (ISO)
100
AcDbVertex
100
AcDb2dVertex
 10
354.3612553383773
 20
385.3926281285969
 30
0.0
  0
VERTEX
  5
4C3
330
4AE
100
AcDbEntity
  8
Visible (ISO)
100
AcDbVertex
100
AcDb2dVertex
 10
354.6115540901307
 20
385.4897169423786
 30
0.0
  0
VERTEX
  5
4C4
330
4AE
100
AcDbEntity
  8
Visible (ISO)
100
AcDbVertex
100
AcDb2dVertex
 10
354.8008467024041
 20
385.5868057561604
 30
0.0
  0
VERTEX
  5
4C5
330
4AE
100
AcDbEntity
  8
Visible (ISO)
100
AcDbVertex
100
AcDb2dVertex
 10
354.9247390784414
 20
385.6838945699421
 30
0.0
  0
VERTEX
  5
4C6
330
4AE
100
AcDbEntity
  8
Visible (ISO)
100
AcDbVertex
100
AcDb2dVertex
 10
354.9803555508954
 20
385.7809833837238
 30
0.0
  0
VERTEX
  5
4C7
330
4AE
100
AcDbEntity
  8
Visible (ISO)
100
AcDbVertex
100
AcDb2dVertex
 10
354.9664047821163
 20
385.8780721975056
 30
0.0
  0
VERTEX
  5
4C8
330
4AE
100
AcDbEntity
  8
Visible (ISO)
100
AcDbVertex
100
AcDb2dVertex
 10
354.8832105799679
 20
385.9751610112873
 30
0.0
  0
SEQEND
  5
4B1
330
4AE
100
AcDbEntity
  8
Visible (ISO)
  0
POLYLINE
  5
4C9
330
75
100
AcDbEntity
  8
Visible (ISO)
100
AcDb2dPolyline
 66
     1
 10
0.0
 20
0.0
 30
0.0
 70
   128
  0
VERTEX
  5
4CA
330
4C9
100
AcDbEntity
  8
Visible (ISO)
100
AcDbVertex
100
AcDb2dVertex
 10
349.0837724311194
 20
387.6450256658283
 30
0.0
  0
VERTEX
  5
4CB
330
4C9
100
AcDbEntity
  8
Visible (ISO)
100
AcDbVertex
100
AcDb2dVertex
 10
349.000578081941
 20
387.74211447961
 30
0.0
  0
VERTEX
  5
4CD
330
4C9
100
AcDbEntity
  8
Visible (ISO)
100
AcDbVertex
100
AcDb2dVertex
 10
348.9866273243874
 20
387.8392032933918
 30
0.0
  0
VERTEX
  5
4CE
330
4C9
100
AcDbEntity
  8
Visible (ISO)
100
AcDbVertex
100
AcDb2dVertex
 10
349.0422437364971
 20
387.9362921071735
 30
0.0
  0
VERTEX
  5
4CF
330
4C9
100
AcDbEntity
  8
Visible (ISO)
100
AcDbVertex
100
AcDb2dVertex
 10
349.1661360039227
 20
388.0333809209553
 30
0.0
  0
VERTEX
  5
4D0
330
4C9
100
AcDbEntity
  8
Visible (ISO)
100
AcDbVertex
100
AcDb2dVertex
 10
349.3554285682612
 20
388.130469734737
 30
0.0
  0
VERTEX
  5
4D1
330
4C9
100
AcDbEntity
  8
Visible (ISO)
100
AcDbVertex
100
AcDb2dVertex
 10
349.6057275454973
 20
388.2275585485187
 30
0.0
  0
VERTEX
  5
4D2
330
4C9
100
AcDbEntity
  8
Visible (ISO)
100
AcDbVertex
100
AcDb2dVertex
 10
349.9112219953855
 20
388.3246521306721
 30
0.0
  0
VERTEX
  5
4D3
330
4C9
100
AcDbEntity
  8
Visible (ISO)
100
AcDbVertex
100
AcDb2dVertex
 10
350.2648207355431
 20
388.4217409444538
 30
0.0
  0
VERTEX
  5
4D4
330
4C9
100
AcDbEntity
  8
Visible (ISO)
100
AcDbVertex
100
AcDb2dVertex
 10
350.6583155953722
 20
388.5188297582356
 30
0.0
  0
VERTEX
  5
4D5
330
4C9
100
AcDbEntity
  8
Visible (ISO)
100
AcDbVertex
100
AcDb2dVertex
 10
351.0825721823118
 20
388.6159185720173
 30
0.0
  0
VERTEX
  5
4D6
330
4C9
100
AcDbEntity
  8
Visible (ISO)
100
AcDbVertex
100
AcDb2dVertex
 10
351.5277420164995
 20
388.713007385799
 30
0.0
  0
VERTEX
  5
4D7
330
4C9
100
AcDbEntity
  8
Visible (ISO)
100
AcDbVertex
100
AcDb2dVertex
 10
351.9834914475703
 20
388.8100961995808
 30
0.0
  0
VERTEX
  5
4D8
330
4C9
100
AcDbEntity
  8
Visible (ISO)
100
AcDbVertex
100
AcDb2dVertex
 10
352.4392407559821
 20
388.9071850133625
 30
0.0
  0
VERTEX
  5
4D9
330
4C9
100
AcDbEntity
  8
Visible (ISO)
100
AcDbVertex
100
AcDb2dVertex
 10
352.8844106871073
 20
389.0042738271442
 30
0.0
  0
VERTEX
  5
4DA
330
4C9
100
AcDbEntity
  8
Visible (ISO)
100
AcDbVertex
100
AcDb2dVertex
 10
353.3086672225632
 20
389.1013626409259
 30
0.0
  0
VERTEX
  5
4DB
330
4C9
100
AcDbEntity
  8
Visible (ISO)
100
AcDbVertex
100
AcDb2dVertex
 10
353.7021621198358
 20
389.1984514547077
 30
0.0
  0
VERTEX
  5
4DC
330
4C9
100
AcDbEntity
  8
Visible (ISO)
100
AcDbVertex
100
AcDb2dVertex
 10
354.0557609388133
 20
389.2955402684894
 30
0.0
  0
VERTEX
  5
4DD
330
4C9
100
AcDbEntity
  8
Visible (ISO)
100
AcDbVertex
100
AcDb2dVertex
 10
354.3612553383773
 20
389.3926290822712
 30
0.0
  0
VERTEX
  5
4DE
330
4C9
100
AcDbEntity
  8
Visible (ISO)
100
AcDbVertex
100
AcDb2dVertex
 10
354.6115540901307
 20
389.4897178960529
 30
0.0
  0
VERTEX
  5
4DF
330
4C9
100
AcDbEntity
  8
Visible (ISO)
100
AcDbVertex
100
AcDb2dVertex
 10
354.8008467024041
 20
389.5868067098346
 30
0.0
  0
VERTEX
  5
4E0
330
4C9
100
AcDbEntity
  8
Visible (ISO)
100
AcDbVertex
100
AcDb2dVertex
 10
354.9247390784414
 20
389.6838955236164
 30
0.0
  0
VERTEX
  5
4E1
330
4C9
100
AcDbEntity
  8
Visible (ISO)
100
AcDbVertex
100
AcDb2dVertex
 10
354.9803555508954
 20
389.7809843373981
 30
0.0
  0
VERTEX
  5
4E2
330
4C9
100
AcDbEntity
  8
Visible (ISO)
100
AcDbVertex
100
AcDb2dVertex
 10
354.9664047821163
 20
389.8780731511799
 30
0.0
  0
VERTEX
  5
4E3
330
4C9
100
AcDbEntity
  8
Visible (ISO)
100
AcDbVertex
100
AcDb2dVertex
 10
354.8832105799679
 20
389.9751619649616
 30
0.0
  0
SEQEND
  5
4CC
330
4C9
100
AcDbEntity
  8
Visible (ISO)
  0
POLYLINE
  5
4E4
330
75
100
AcDbEntity
  8
Visible (ISO)
100
AcDb2dPolyline
 66
     1
 10
0.0
 20
0.0
 30
0.0
 70
   128
  0
VERTEX
  5
4E5
330
4E4
100
AcDbEntity
  8
Visible (ISO)
100
AcDbVertex
100
AcDb2dVertex
 10
349.0837724311194
 20
391.6450266195026
 30
0.0
  0
VERTEX
  5
4E6
330
4E4
100
AcDbEntity
  8
Visible (ISO)
100
AcDbVertex
100
AcDb2dVertex
 10
349.000578081941
 20
391.7421154332844
 30
0.0
  0
VERTEX
  5
4E8
330
4E4
100
AcDbEntity
  8
Visible (ISO)
100
AcDbVertex
100
AcDb2dVertex
 10
348.9866273243874
 20
391.8392042470661
 30
0.0
  0
VERTEX
  5
4E9
330
4E4
100
AcDbEntity
  8
Visible (ISO)
100
AcDbVertex
100
AcDb2dVertex
 10
349.0422437364971
 20
391.9362930608479
 30
0.0
  0
VERTEX
  5
4EA
330
4E4
100
AcDbEntity
  8
Visible (ISO)
100
AcDbVertex
100
AcDb2dVertex
 10
349.1661360039227
 20
392.0333818746296
 30
0.0
  0
VERTEX
  5
4EB
330
4E4
100
AcDbEntity
  8
Visible (ISO)
100
AcDbVertex
100
AcDb2dVertex
 10
349.3554285682612
 20
392.1304706884113
 30
0.0
  0
VERTEX
  5
4EC
330
4E4
100
AcDbEntity
  8
Visible (ISO)
100
AcDbVertex
100
AcDb2dVertex
 10
349.6057275454973
 20
392.2275595021931
 30
0.0
  0
VERTEX
  5
4ED
330
4E4
100
AcDbEntity
  8
Visible (ISO)
100
AcDbVertex
100
AcDb2dVertex
 10
349.9112219953855
 20
392.3246483159748
 30
0.0
  0
VERTEX
  5
4EE
330
4E4
100
AcDbEntity
  8
Visible (ISO)
100
AcDbVertex
100
AcDb2dVertex
 10
350.2648207355431
 20
392.4217371297566
 30
0.0
  0
VERTEX
  5
4EF
330
4E4
100
AcDbEntity
  8
Visible (ISO)
100
AcDbVertex
100
AcDb2dVertex
 10
350.6583155953722
 20
392.5188259435383
 30
0.0
  0
VERTEX
  5
4F0
330
4E4
100
AcDbEntity
  8
Visible (ISO)
100
AcDbVertex
100
AcDb2dVertex
 10
351.0825721823118
 20
392.61591475732
 30
0.0
  0
VERTEX
  5
4F1
330
4E4
100
AcDbEntity
  8
Visible (ISO)
100
AcDbVertex
100
AcDb2dVertex
 10
351.5277420164995
 20
392.7130035711018
 30
0.0
  0
VERTEX
  5
4F2
330
4E4
100
AcDbEntity
  8
Visible (ISO)
100
AcDbVertex
100
AcDb2dVertex
 10
351.9834914475703
 20
392.8100923848835
 30
0.0
  0
VERTEX
  5
4F3
330
4E4
100
AcDbEntity
  8
Visible (ISO)
100
AcDbVertex
100
AcDb2dVertex
 10
352.4392407559821
 20
392.9071811986652
 30
0.0
  0
VERTEX
  5
4F4
330
4E4
100
AcDbEntity
  8
Visible (ISO)
100
AcDbVertex
100
AcDb2dVertex
 10
352.8844106871073
 20
393.0042747808185
 30
0.0
  0
VERTEX
  5
4F5
330
4E4
100
AcDbEntity
  8
Visible (ISO)
100
AcDbVertex
100
AcDb2dVertex
 10
353.3086672225632
 20
393.1013635946003
 30
0.0
  0
VERTEX
  5
4F6
330
4E4
100
AcDbEntity
  8
Visible (ISO)
100
AcDbVertex
100
AcDb2dVertex
 10
353.7021621198358
 20
393.198452408382
 30
0.0
  0
VERTEX
  5
4F7
330
4E4
100
AcDbEntity
  8
Visible (ISO)
100
AcDbVertex
100
AcDb2dVertex
 10
354.0557609388133
 20
393.2955412221638
 30
0.0
  0
VERTEX
  5
4F8
330
4E4
100
AcDbEntity
  8
Visible (ISO)
100
AcDbVertex
100
AcDb2dVertex
 10
354.3612553383773
 20
393.3926300359455
 30
0.0
  0
VERTEX
  5
4F9
330
4E4
100
AcDbEntity
  8
Visible (ISO)
100
AcDbVertex
100
AcDb2dVertex
 10
354.6115540901307
 20
393.4897188497272
 30
0.0
  0
VERTEX
  5
4FA
330
4E4
100
AcDbEntity
  8
Visible (ISO)
100
AcDbVertex
100
AcDb2dVertex
 10
354.8008467024041
 20
393.586807663509
 30
0.0
  0
VERTEX
  5
4FB
330
4E4
100
AcDbEntity
  8
Visible (ISO)
100
AcDbVertex
100
AcDb2dVertex
 10
354.9247390784414
 20
393.6838964772907
 30
0.0
  0
VERTEX
  5
4FC
330
4E4
100
AcDbEntity
  8
Visible (ISO)
100
AcDbVertex
100
AcDb2dVertex
 10
354.9803555508954
 20
393.7809852910725
 30
0.0
  0
VERTEX
  5
4FD
330
4E4
100
AcDbEntity
  8
Visible (ISO)
100
AcDbVertex
100
AcDb2dVertex
 10
354.9664047821163
 20
393.8780741048542
 30
0.0
  0
VERTEX
  5
4FE
330
4E4
100
AcDbEntity
  8
Visible (ISO)
100
AcDbVertex
100
AcDb2dVertex
 10
354.8832105799679
 20
393.9751629186359
 30
0.0
  0
SEQEND
  5
4E7
330
4E4
100
AcDbEntity
  8
Visible (ISO)
  0
POLYLINE
  5
4FF
330
75
100
AcDbEntity
  8
Visible (ISO)
100
AcDb2dPolyline
 66
     1
 10
0.0
 20
0.0
 30
0.0
 70
   128
  0
VERTEX
  5
500
330
4FF
100
AcDbEntity
  8
Visible (ISO)
100
AcDbVertex
100
AcDb2dVertex
 10
349.0837724311194
 20
395.645027573177
 30
0.0
  0
VERTEX
  5
501
330
4FF
100
AcDbEntity
  8
Visible (ISO)
100
AcDbVertex
100
AcDb2dVertex
 10
349.0293212568196
 20
395.6986765218464
 30
0.0
  0
VERTEX
  5
503
330
4FF
100
AcDbEntity
  8
Visible (ISO)
100
AcDbVertex
100
AcDb2dVertex
 10
348.9958359794997
 20
395.7523207021442
 30
0.0
  0
VERTEX
  5
504
330
4FF
100
AcDbEntity
  8
Visible (ISO)
100
AcDbVertex
100
AcDb2dVertex
 10
348.9835544994978
 20
395.8059696508137
 30
0.0
  0
VERTEX
  5
505
330
4FF
100
AcDbEntity
  8
Visible (ISO)
100
AcDbVertex
100
AcDb2dVertex
 10
348.9925632886669
 20
395.8596138311115
 30
0.0
  0
VERTEX
  5
506
330
4FF
100
AcDbEntity
  8
Visible (ISO)
100
AcDbVertex
100
AcDb2dVertex
 10
349.0227989058387
 20
395.913262779781
 30
0.0
  0
VERTEX
  5
507
330
4FF
100
AcDbEntity
  8
Visible (ISO)
100
AcDbVertex
100
AcDb2dVertex
 10
349.0740468724324
 20
395.9669117284504
 30
0.0
  0
VERTEX
  5
508
330
4FF
100
AcDbEntity
  8
Visible (ISO)
100
AcDbVertex
100
AcDb2dVertex
 10
349.1459429381264
 20
396.0205559087482
 30
0.0
  0
VERTEX
  5
509
330
4FF
100
AcDbEntity
  8
Visible (ISO)
100
AcDbVertex
100
AcDb2dVertex
 10
349.2379772789117
 20
396.0742048574177
 30
0.0
  0
VERTEX
  5
50A
330
4FF
100
AcDbEntity
  8
Visible (ISO)
100
AcDbVertex
100
AcDb2dVertex
 10
349.3494966118527
 20
396.1278538060871
 30
0.0
  0
VERTEX
  5
50B
330
4FF
100
AcDbEntity
  8
Visible (ISO)
100
AcDbVertex
100
AcDb2dVertex
 10
349.4797095347555
 20
396.181497986385
 30
0.0
  0
VERTEX
  5
50C
330
4FF
100
AcDbEntity
  8
Visible (ISO)
100
AcDbVertex
100
AcDb2dVertex
 10
349.6276917518826
 20
396.2351469350544
 30
0.0
  0
VERTEX
  5
50D
330
4FF
100
AcDbEntity
  8
Visible (ISO)
100
AcDbVertex
100
AcDb2dVertex
 10
349.7923933972035
 20
396.2887958837238
 30
0.0
  0
VERTEX
  5
50E
330
4FF
100
AcDbEntity
  8
Visible (ISO)
100
AcDbVertex
100
AcDb2dVertex
 10
349.9726451628736
 20
396.3424400640217
 30
0.0
  0
VERTEX
  5
50F
330
4FF
100
AcDbEntity
  8
Visible (ISO)
100
AcDbVertex
100
AcDb2dVertex
 10
350.167167895291
 20
396.3960890126911
 30
0.0
  0
VERTEX
  5
510
330
4FF
100
AcDbEntity
  8
Visible (ISO)
100
AcDbVertex
100
AcDb2dVertex
 10
350.3745812319302
 20
396.4497331929889
 30
0.0
  0
VERTEX
  5
511
330
4FF
100
AcDbEntity
  8
Visible (ISO)
100
AcDbVertex
100
AcDb2dVertex
 10
350.593413083445
 20
396.5033821416584
 30
0.0
  0
VERTEX
  5
512
330
4FF
100
AcDbEntity
  8
Visible (ISO)
100
AcDbVertex
100
AcDb2dVertex
 10
350.8221102650262
 20
396.5570310903278
 30
0.0
  0
VERTEX
  5
513
330
4FF
100
AcDbEntity
  8
Visible (ISO)
100
AcDbVertex
100
AcDb2dVertex
 10
351.059049923692
 20
396.6106752706257
 30
0.0
  0
VERTEX
  5
514
330
4FF
100
AcDbEntity
  8
Visible (ISO)
100
AcDbVertex
100
AcDb2dVertex
 10
351.3025502589317
 20
396.6643242192951
 30
0.0
  0
VERTEX
  5
515
330
4FF
100
AcDbEntity
  8
Visible (ISO)
100
AcDbVertex
100
AcDb2dVertex
 10
351.5508833224652
 20
396.7179731679646
 30
0.0
  0
VERTEX
  5
516
330
4FF
100
AcDbEntity
  8
Visible (ISO)
100
AcDbVertex
100
AcDb2dVertex
 10
351.802286583282
 20
396.7716173482624
 30
0.0
  0
VERTEX
  5
517
330
4FF
100
AcDbEntity
  8
Visible (ISO)
100
AcDbVertex
100
AcDb2dVertex
 10
352.0549758774841
 20
396.8252662969318
 30
0.0
  0
VERTEX
  5
518
330
4FF
100
AcDbEntity
  8
Visible (ISO)
100
AcDbVertex
100
AcDb2dVertex
 10
352.3071578274878
 20
396.8789104772297
 30
0.0
  0
VERTEX
  5
519
330
4FF
100
AcDbEntity
  8
Visible (ISO)
100
AcDbVertex
100
AcDb2dVertex
 10
352.5570427365805
 20
396.9325594258991
 30
0.0
  0
SEQEND
  5
502
330
4FF
100
AcDbEntity
  8
Visible (ISO)
  0
LINE
  5
51A
330
75
100
AcDbEntity
  8
Visible (ISO)
100
AcDbLine
 10
352.5570427137897
 20
396.9325598073688
 30
0.0
 11
352.4614508306441
 21
397.3325598073689
 31
0.0
  0
LINE
  5
51B
330
75
100
AcDbEntity
  8
Visible (ISO)
100
AcDbLine
 10
349.4834914365121
 20
395.3125910115925
 30
0.0
 11
349.0837724311194
 21
395.645027573177
 31
0.0
  0
LINE
  5
51C
330
75
100
AcDbEntity
  8
Visible (ISO)
100
AcDbLine
 10
349.4834914365121
 20
391.3125900579182
 30
0.0
 11
349.0837724311194
 21
391.6450266195026
 31
0.0
  0
LINE
  5
51D
330
75
100
AcDbEntity
  8
Visible (ISO)
100
AcDbLine
 10
349.4834914365121
 20
387.3125891042438
 30
0.0
 11
349.0837724311194
 21
387.6450256658283
 31
0.0
  0
LINE
  5
51E
330
75
100
AcDbEntity
  8
Visible (ISO)
100
AcDbLine
 10
349.4834914365121
 20
383.3125905347553
 30
0.0
 11
349.0837724311194
 21
383.6450270963398
 31
0.0
  0
LINE
  5
51F
330
75
100
AcDbEntity
  8
Visible (ISO)
100
AcDbLine
 10
349.4834914365121
 20
379.312589581081
 30
0.0
 11
349.0837724311194
 21
379.6450261426655
 31
0.0
  0
LINE
  5
520
330
75
100
AcDbEntity
  8
Visible (ISO)
100
AcDbLine
 10
349.4834914365121
 20
375.3125910115925
 30
0.0
 11
349.0837724311194
 21
375.6450275731769
 31
0.0
  0
LINE
  5
521
330
75
100
AcDbEntity
  8
Visible (ISO)
100
AcDbLine
 10
354.8832103987136
 20
373.6450270963398
 30
0.0
 11
354.3657176956526
 21
373.2139090848652
 31
0.0
  0
LINE
  5
522
330
75
100
AcDbEntity
  8
Visible (ISO)
100
AcDbLine
 10
354.8832103987136
 20
377.6450280500141
 30
0.0
 11
354.3657176956526
 21
377.2139076543537
 31
0.0
  0
LINE
  5
523
330
75
100
AcDbEntity
  8
Visible (ISO)
100
AcDbLine
 10
354.8832103987136
 20
381.6450266195026
 30
0.0
 11
354.3657176956526
 21
381.213908608028
 31
0.0
  0
LINE
  5
524
330
75
100
AcDbEntity
  8
Visible (ISO)
100
AcDbLine
 10
354.8832103987136
 20
385.645027573177
 30
0.0
 11
354.3657176956526
 21
385.2139095617023
 31
0.0
  0
LINE
  5
525
330
75
100
AcDbEntity
  8
Visible (ISO)
100
AcDbLine
 10
354.8832103987136
 20
389.6450285268512
 30
0.0
 11
354.3657176956526
 21
389.2139057470051
 31
0.0
  0
LINE
  5
526
330
75
100
AcDbEntity
  8
Visible (ISO)
100
AcDbLine
 10
354.8832103987136
 20
393.6450294805256
 30
0.0
 11
354.3657176956526
 21
393.2139067006794
 31
0.0
  0
LINE
  5
527
330
75
100
AcDbEntity
  8
Visible (ISO)
100
AcDbLine
 10
349.0837722498651
 20
375.9751610112873
 30
0.0
 11
349.6012651858205
 21
376.4062814069477
 31
0.0
  0
LINE
  5
528
330
75
100
AcDbEntity
  8
Visible (ISO)
100
AcDbLine
 10
349.0837722498651
 20
379.9751619649616
 30
0.0
 11
349.6012651858205
 21
380.4062799764362
 31
0.0
  0
LINE
  5
529
330
75
100
AcDbEntity
  8
Visible (ISO)
100
AcDbLine
 10
349.0837722498651
 20
383.9751629186359
 30
0.0
 11
349.6012651858205
 21
384.4062809301105
 31
0.0
  0
LINE
  5
52A
330
75
100
AcDbEntity
  8
Visible (ISO)
100
AcDbLine
 10
349.0837722498651
 20
387.9751638723103
 30
0.0
 11
349.6012651858205
 21
388.4062818837849
 31
0.0
  0
LINE
  5
52B
330
75
100
AcDbEntity
  8
Visible (ISO)
100
AcDbLine
 10
349.0837722498651
 20
391.975160057613
 30
0.0
 11
349.6012651858205
 21
392.4062828374592
 31
0.0
  0
LINE
  5
52C
330
75
100
AcDbEntity
  8
Visible (ISO)
100
AcDbLine
 10
349.0837722498651
 20
395.9751610112873
 30
0.0
 11
349.6012651858205
 21
396.4062790227619
 31
0.0
  0
LINE
  5
52D
330
75
100
AcDbEntity
  8
Visible (ISO)
100
AcDbLine
 10
354.4834913311188
 20
374.3075994802204
 30
0.0
 11
354.8832105799679
 21
373.9751629186359
 31
0.0
  0
LINE
  5
52E
330
75
100
AcDbEntity
  8
Visible (ISO)
100
AcDbLine
 10
354.4834913311188
 20
378.3075980497089
 30
0.0
 11
354.8832105799679
 21
377.9751614881245
 31
0.0
  0
LINE
  5
52F
330
75
100
AcDbEntity
  8
Visible (ISO)
100
AcDbLine
 10
354.4834913311188
 20
382.3075990033832
 30
0.0
 11
354.8832105799679
 21
381.9751624417988
 31
0.0
  0
LINE
  5
530
330
75
100
AcDbEntity
  8
Visible (ISO)
100
AcDbLine
 10
354.4834913311188
 20
386.3075975728717
 30
0.0
 11
354.8832105799679
 21
385.9751610112873
 31
0.0
  0
LINE
  5
531
330
75
100
AcDbEntity
  8
Visible (ISO)
100
AcDbLine
 10
354.4834913311188
 20
390.3075985265461
 30
0.0
 11
354.8832105799679
 21
389.9751619649616
 31
0.0
  0
LINE
  5
532
330
75
100
AcDbEntity
  8
Visible (ISO)
100
AcDbLine
 10
354.4834913311188
 20
394.3075994802204
 30
0.0
 11
354.8832105799679
 21
393.9751629186359
 31
0.0
  0
LINE
  5
533
330
75
100
AcDbEntity
  8
Visible (ISO)
100
AcDbLine
 10
354.5304054078759
 20
402.0325598073688
 30
0.0
 11
355.0211825384318
 21
402.0325598073688
 31
0.0
  0
LINE
  5
534
330
75
100
AcDbEntity
  8
Visible (ISO)
100
AcDbLine
 10
354.5304054078759
 20
402.0325598073688
 30
0.0
 11
354.5304054078759
 21
404.0139782709566
 31
0.0
  0
LINE
  5
535
330
75
100
AcDbEntity
  8
Visible (ISO)
100
AcDbLine
 10
355.0211825384318
 20
402.0325598073688
 30
0.0
 11
355.0211825384318
 21
404.0139782709566
 31
0.0
  0
LINE
  5
536
330
75
100
AcDbEntity
  8
Visible (ISO)
100
AcDbLine
 10
349.8189449545392
 20
404.0139782709566
 30
0.0
 11
349.8189449545392
 21
402.0325598073688
 31
0.0
  0
LINE
  5
537
330
75
100
AcDbEntity
  8
Visible (ISO)
100
AcDbLine
 10
349.3281678239832
 20
404.0139782709566
 30
0.0
 11
349.3281678239832
 21
402.0325598073688
 31
0.0
  0
LINE
  5
538
330
75
100
AcDbEntity
  8
Visible (ISO)
100
AcDbLine
 10
349.3281678239832
 20
402.0325598073688
 30
0.0
 11
349.8189449545392
 21
402.0325598073688
 31
0.0
  0
LINE
  5
539
330
75
100
AcDbEntity
  8
Visible (ISO)
100
AcDbLine
 10
349.3281678239832
 20
402.0325598073688
 30
0.0
 11
348.9458002914012
 21
402.0325598073688
 31
0.0
  0
LINE
  5
53A
330
75
100
AcDbEntity
  8
Visible (ISO)
100
AcDbLine
 10
348.9458002914012
 20
402.0325598073688
 30
0.0
 11
348.9458002914012
 21
404.0139782709566
 31
0.0
  0
LINE
  5
53B
330
75
100
AcDbEntity
  8
Visible (ISO)
100
AcDbLine
 10
354.5834914149165
 20
397.6325598073689
 30
0.0
 11
349.3834914149165
 21
397.6325598073689
 31
0.0
  0
LINE
  5
53C
330
75
100
AcDbEntity
  8
Visible (ISO)
100
AcDbLine
 10
354.5834914149164
 20
402.0325598073688
 30
0.0
 11
354.5834914149164
 21
397.6325598073689
 31
0.0
  0
LINE
  5
53D
330
75
100
AcDbEntity
  8
Visible (ISO)
100
AcDbLine
 10
349.3834914149165
 20
402.0325598073688
 30
0.0
 11
349.3834914149165
 21
397.6325598073689
 31
0.0
  0
LINE
  5
53E
330
75
100
AcDbEntity
  8
Visible (ISO)
100
AcDbLine
 10
349.4834914149164
 20
372.4694113184103
 30
0.0
 11
349.4834914149164
 21
375.410094523995
 31
0.0
  0
LINE
  5
53F
330
75
100
AcDbEntity
  8
Visible (ISO)
100
AcDbLine
 10
349.4834914149164
 20
376.3075987728946
 30
0.0
 11
349.4834914149164
 21
379.410094523995
 31
0.0
  0
LINE
  5
540
330
75
100
AcDbEntity
  8
Visible (ISO)
100
AcDbLine
 10
349.4834914149164
 20
380.3075987728945
 30
0.0
 11
349.4834914149164
 21
383.410094523995
 31
0.0
  0
LINE
  5
541
330
75
100
AcDbEntity
  8
Visible (ISO)
100
AcDbLine
 10
349.4834914149164
 20
384.3075987728946
 30
0.0
 11
349.4834914149164
 21
387.410094523995
 31
0.0
  0
LINE
  5
542
330
75
100
AcDbEntity
  8
Visible (ISO)
100
AcDbLine
 10
349.4834914149164
 20
388.3075987728946
 30
0.0
 11
349.4834914149164
 21
391.410094523995
 31
0.0
  0
LINE
  5
543
330
75
100
AcDbEntity
  8
Visible (ISO)
100
AcDbLine
 10
349.4834914149164
 20
392.3075987728946
 30
0.0
 11
349.4834914149164
 21
395.410094523995
 31
0.0
  0
LINE
  5
544
330
75
100
AcDbEntity
  8
Visible (ISO)
100
AcDbLine
 10
349.4834914149164
 20
396.3075987728946
 30
0.0
 11
349.4834914149164
 21
397.6325598073689
 31
0.0
  0
LINE
  5
545
330
75
100
AcDbEntity
  8
Visible (ISO)
100
AcDbLine
 10
354.4834914149165
 20
372.4694113184103
 30
0.0
 11
354.4834914149165
 21
373.3125902750954
 31
0.0
  0
LINE
  5
546
330
75
100
AcDbEntity
  8
Visible (ISO)
100
AcDbLine
 10
354.4834914149165
 20
374.210094523995
 30
0.0
 11
354.4834914149165
 21
377.3125902750954
 31
0.0
  0
LINE
  5
547
330
75
100
AcDbEntity
  8
Visible (ISO)
100
AcDbLine
 10
354.4834914149165
 20
378.210094523995
 30
0.0
 11
354.4834914149165
 21
381.3125902750954
 31
0.0
  0
LINE
  5
548
330
75
100
AcDbEntity
  8
Visible (ISO)
100
AcDbLine
 10
354.4834914149165
 20
382.210094523995
 30
0.0
 11
354.4834914149165
 21
385.3125902750954
 31
0.0
  0
LINE
  5
549
330
75
100
AcDbEntity
  8
Visible (ISO)
100
AcDbLine
 10
354.4834914149165
 20
386.210094523995
 30
0.0
 11
354.4834914149165
 21
389.3125902750954
 31
0.0
  0
LINE
  5
54A
330
75
100
AcDbEntity
  8
Visible (ISO)
100
AcDbLine
 10
354.4834914149165
 20
390.2100945239949
 30
0.0
 11
354.4834914149165
 21
393.3125902750954
 31
0.0
  0
LINE
  5
54B
330
75
100
AcDbEntity
  8
Visible (ISO)
100
AcDbLine
 10
354.4834914149165
 20
394.210094523995
 30
0.0
 11
354.4834914149165
 21
397.6325598073689
 31
0.0
  0
LINE
  5
54C
330
75
100
AcDbEntity
  8
Visible Narrow (ISO)
100
AcDbLine
 10
350.0824914149165
 20
397.6325598073689
 30
0.0
 11
350.0824914149165
 21
396.6601003717276
 31
0.0
  0
LINE
  5
54D
330
75
100
AcDbEntity
  8
Visible Narrow (ISO)
100
AcDbLine
 10
350.0824914149165
 20
395.8601003717276
 30
0.0
 11
350.0824914149165
 21
392.6601003717276
 31
0.0
  0
LINE
  5
54E
330
75
100
AcDbEntity
  8
Visible Narrow (ISO)
100
AcDbLine
 10
350.0824914149165
 20
391.8601003717275
 30
0.0
 11
350.0824914149165
 21
388.6601003717276
 31
0.0
  0
LINE
  5
54F
330
75
100
AcDbEntity
  8
Visible Narrow (ISO)
100
AcDbLine
 10
350.0824914149165
 20
387.8601003717276
 30
0.0
 11
350.0824914149165
 21
384.6601003717275
 31
0.0
  0
LINE
  5
550
330
75
100
AcDbEntity
  8
Visible Narrow (ISO)
100
AcDbLine
 10
350.0824914149165
 20
383.8601003717276
 30
0.0
 11
350.0824914149165
 21
380.6601003717275
 31
0.0
  0
LINE
  5
551
330
75
100
AcDbEntity
  8
Visible Narrow (ISO)
100
AcDbLine
 10
350.0824914149165
 20
379.8601003717275
 30
0.0
 11
350.0824914149165
 21
376.6601003717276
 31
0.0
  0
LINE
  5
552
330
75
100
AcDbEntity
  8
Visible Narrow (ISO)
100
AcDbLine
 10
350.0824914149165
 20
375.8601003717275
 30
0.0
 11
350.0824914149165
 21
372.6601003717276
 31
0.0
  0
LINE
  5
553
330
75
100
AcDbEntity
  8
Visible Narrow (ISO)
100
AcDbLine
 10
353.8844914149165
 20
372.4694113184103
 30
0.0
 11
353.8844914149165
 21
372.9600886762624
 31
0.0
  0
LINE
  5
554
330
75
100
AcDbEntity
  8
Visible Narrow (ISO)
100
AcDbLine
 10
353.8844914149165
 20
373.7600886762624
 30
0.0
 11
353.8844914149165
 21
376.9600886762624
 31
0.0
  0
LINE
  5
555
330
75
100
AcDbEntity
  8
Visible Narrow (ISO)
100
AcDbLine
 10
353.8844914149165
 20
377.7600886762624
 30
0.0
 11
353.8844914149165
 21
380.9600886762624
 31
0.0
  0
LINE
  5
556
330
75
100
AcDbEntity
  8
Visible Narrow (ISO)
100
AcDbLine
 10
353.8844914149165
 20
381.7600886762624
 30
0.0
 11
353.8844914149165
 21
384.9600886762624
 31
0.0
  0
LINE
  5
557
330
75
100
AcDbEntity
  8
Visible Narrow (ISO)
100
AcDbLine
 10
353.8844914149165
 20
385.7600886762624
 30
0.0
 11
353.8844914149165
 21
388.9600886762624
 31
0.0
  0
LINE
  5
558
330
75
100
AcDbEntity
  8
Visible Narrow (ISO)
100
AcDbLine
 10
353.8844914149165
 20
389.7600886762624
 30
0.0
 11
353.8844914149165
 21
392.9600886762624
 31
0.0
  0
LINE
  5
559
330
75
100
AcDbEntity
  8
Visible Narrow (ISO)
100
AcDbLine
 10
353.8844914149165
 20
393.7600886762624
 30
0.0
 11
353.8844914149165
 21
397.6325598073689
 31
0.0
  0
LINE
  5
55A
330
75
100
AcDbEntity
  8
Visible (ISO)
100
AcDbLine
 10
374.541300898576
 20
365.4694113184106
 30
0.0
 11
373.6138995235607
 21
365.4694113184105
 31
0.0
  0
LINE
  5
55B
330
75
100
AcDbEntity
  8
Visible (ISO)
100
AcDbLine
 10
373.6138995235606
 20
365.4694113184106
 30
0.0
 11
335.9745663674981
 21
365.4694113184098
 31
0.0
  0
LINE
  5
55C
330
75
100
AcDbEntity
  8
Visible Narrow (ISO)
100
AcDbLine
 10
374.2753210290838
 20
366.4694113184106
 30
0.0
 11
375.5375159857603
 21
366.4694113184106
 31
0.0
  0
ELLIPSE
  5
55D
330
75
100
AcDbEntity
  8
Visible Narrow (ISO)
100
AcDbEllipse
 10
373.6138995235606
 20
366.4694113184105
 30
0.0
 11
0.0000000000000159
 21
-0.9999999999999971
 31
0.0
210
0.0
220
0.0
230
1.0
 40
0.5362993124923456
 41
0.0785398163397027
 42
1.492256510455121
  0
LINE
  5
55E
330
75
100
AcDbEntity
  8
Visible Narrow (ISO)
100
AcDbLine
 10
374.1501988360529
 20
370.2694113184106
 30
0.0
 11
374.150198836053
 21
366.6694113184106
 31
0.0
  0
LINE
  5
55F
330
75
100
AcDbEntity
  8
Visible Narrow (ISO)
100
AcDbLine
 10
335.1199723069025
 20
366.4694113184098
 30
0.0
 11
371.7770577791909
 21
366.4694113184105
 31
0.0
  0
ARC
  5
560
330
75
100
AcDbEntity
  8
Visible (ISO)
100
AcDbCircle
 10
374.541300898576
 20
366.4694113184105
 30
0.0
 40
1.000000000000001
100
AcDbArc
 50
269.9999999999969
 51
0.0
  0
LINE
  5
561
330
75
100
AcDbEntity
  8
Visible (ISO)
100
AcDbLine
 10
375.5413008985759
 20
370.4694113184106
 30
0.0
 11
375.541300898576
 21
366.4694113184106
 31
0.0
  0
ARC
  5
562
330
75
100
AcDbEntity
  8
Visible (ISO)
100
AcDbCircle
 10
335.9745663674981
 20
366.4694113184098
 30
0.0
 40
1.000000000000001
100
AcDbArc
 50
180.0
 51
269.9999999999969
  0
LINE
  5
563
330
75
100
AcDbEntity
  8
Visible (ISO)
100
AcDbLine
 10
374.1501988360529
 20
370.4694113184106
 30
0.0
 11
334.974566367498
 21
370.4694113184098
 31
0.0
  0
LINE
  5
564
330
75
100
AcDbEntity
  8
Visible (ISO)
100
AcDbLine
 10
334.974566367498
 20
370.4694113184098
 30
0.0
 11
334.9745663674981
 21
366.4694113184097
 31
0.0
  0
LINE
  5
565
330
75
100
AcDbEntity
  8
Visible (ISO)
100
AcDbLine
 10
354.5817857635289
 20
343.4707993390751
 30
0.0
 11
354.5817857635289
 21
365.4694113184102
 31
0.0
  0
LINE
  5
566
330
75
100
AcDbEntity
  8
Visible (ISO)
100
AcDbLine
 10
357.1796438315179
 20
343.4707993390751
 30
0.0
 11
354.5817857635289
 21
343.4707993390751
 31
0.0
  0
LINE
  5
567
330
75
100
AcDbEntity
  8
Visible (ISO)
100
AcDbLine
 10
357.1796438315179
 20
343.4707993390751
 30
0.0
 11
357.1796438315179
 21
365.4694113184103
 31
0.0
  0
LINE
  5
568
330
75
100
AcDbEntity
  8
Visible (ISO)
100
AcDbLine
 10
349.3856333469274
 20
343.4707993390751
 30
0.0
 11
349.3856333469274
 21
365.4694113184101
 31
0.0
  0
LINE
  5
569
330
75
100
AcDbEntity
  8
Visible (ISO)
100
AcDbLine
 10
354.5817857635289
 20
343.4707993390751
 30
0.0
 11
349.3856333469274
 21
343.4707993390751
 31
0.0
  0
LINE
  5
56A
330
75
100
AcDbEntity
  8
Visible (ISO)
100
AcDbLine
 10
346.7873389983151
 20
343.4707993390751
 30
0.0
 11
346.7873389983151
 21
365.46941131841
 31
0.0
  0
LINE
  5
56B
330
75
100
AcDbEntity
  8
Visible (ISO)
100
AcDbLine
 10
349.3856333469274
 20
343.4707993390751
 30
0.0
 11
346.7873389983151
 21
343.4707993390751
 31
0.0
  0
LINE
  5
56C
330
75
100
AcDbEntity
  8
Visible (ISO)
100
AcDbLine
 10
374.8795895090545
 20
372.4694113184103
 30
0.0
 11
376.1848809041654
 21
372.4694113184103
 31
0.0
  0
LINE
  5
56D
330
75
100
AcDbEntity
  8
Visible Narrow (ISO)
100
AcDbLine
 10
374.8795895090545
 20
372.3694113184103
 30
0.0
 11
374.8795895090545
 21
370.5694113184103
 31
0.0
  0
LINE
  5
56E
330
75
100
AcDbEntity
  8
Visible (ISO)
100
AcDbLine
 10
376.1848809041654
 20
370.4694113184103
 30
0.0
 11
374.8795895090546
 21
370.4694113184103
 31
0.0
  0
LINE
  5
56F
330
75
100
AcDbEntity
  8
Visible (ISO)
100
AcDbLine
 10
376.1848809041654
 20
370.4694113184103
 30
0.0
 11
376.1848809041654
 21
372.4694113184103
 31
0.0
  0
LINE
  5
570
330
75
100
AcDbEntity
  8
Visible (ISO)
100
AcDbLine
 10
374.8795895090546
 20
370.4694113184103
 30
0.0
 11
334.9745663674973
 21
370.4694113184103
 31
0.0
  0
LINE
  5
571
330
75
100
AcDbEntity
  8
Visible (ISO)
100
AcDbLine
 10
334.9745663674973
 20
372.4694113184103
 30
0.0
 11
374.8795895090545
 21
372.4694113184103
 31
0.0
  0
LINE
  5
572
330
75
100
AcDbEntity
  8
Visible (ISO)
100
AcDbLine
 10
334.9745663674973
 20
370.4694113184103
 30
0.0
 11
334.9745663674973
 21
372.4694113184103
 31
0.0
  0
LINE
  5
573
330
75
100
AcDbEntity
  8
Visible (ISO)
100
AcDbLine
 10
358.8334914148797
 20
169.6286020709139
 30
0.0
 11
340.5334914148797
 21
169.628602070914
 31
0.0
  0
LINE
  5
574
330
75
100
AcDbEntity
  8
Visible (ISO)
100
AcDbLine
 10
340.5334914148797
 20
169.628602070914
 30
0.0
 11
340.5334914148797
 21
161.628602070914
 31
0.0
  0
LINE
  5
575
330
75
100
AcDbEntity
  8
Visible (ISO)
100
AcDbLine
 10
358.8334914148797
 20
161.628602070914
 30
0.0
 11
340.5334914148797
 21
161.628602070914
 31
0.0
  0
LINE
  5
576
330
75
100
AcDbEntity
  8
Visible (ISO)
100
AcDbLine
 10
358.8334914148797
 20
169.6286020709139
 30
0.0
 11
358.8334914148797
 21
161.628602070914
 31
0.0
  0
CIRCLE
  5
577
330
75
100
AcDbEntity
  8
Visible (ISO)
100
AcDbCircle
 10
352.8334914148796
 20
165.6286020709139
 30
0.0
 40
2.067
  0
ARC
  5
578
330
75
100
AcDbEntity
  8
Visible Narrow (ISO)
100
AcDbCircle
 10
352.8334914148796
 20
165.6286020709139
 30
0.0
 40
2.50000000000001
100
AcDbArc
 50
350.0000000000032
 51
259.9999999999511
  0
CIRCLE
  5
579
330
75
100
AcDbEntity
  8
Visible (ISO)
100
AcDbCircle
 10
352.8334914148796
 20
165.6286020709139
 30
0.0
 40
3.0
  0
ARC
  5
57A
330
75
100
AcDbEntity
  8
Visible (ISO)
100
AcDbCircle
 10
352.8334914148796
 20
165.6286020709139
 30
0.0
 40
4.499999999999999
100
AcDbArc
 50
242.7339555492668
 51
297.2660444507334
  0
ARC
  5
57B
330
75
100
AcDbEntity
  8
Visible (ISO)
100
AcDbCircle
 10
352.8334914148796
 20
165.6286020709139
 30
0.0
 40
4.499999999999999
100
AcDbArc
 50
62.73395554926681
 51
117.2660444507332
  0
LINE
  5
57C
330
75
100
AcDbEntity
  8
Visible (ISO)
100
AcDbLine
 10
343.4834914149198
 20
314.2740675254116
 30
0.0
 11
343.4834914149198
 21
365.46941131841
 31
0.0
  0
LINE
  5
57D
330
75
100
AcDbEntity
  8
Visible (ISO)
100
AcDbLine
 10
343.4834914149198
 20
372.4694113184103
 30
0.0
 11
343.4834914149198
 21
404.0139782709567
 31
0.0
  0
LINE
  5
57E
330
75
100
AcDbEntity
  8
Visible (ISO)
100
AcDbLine
 10
348.4834914149198
 20
314.2740675254116
 30
0.0
 11
348.4834914149198
 21
343.4707993390751
 31
0.0
  0
LINE
  5
57F
330
75
100
AcDbEntity
  8
Visible (ISO)
100
AcDbLine
 10
348.4834914149198
 20
372.4694113184103
 30
0.0
 11
348.4834914149198
 21
404.0139782709567
 31
0.0
  0
LINE
  5
580
330
75
100
AcDbEntity
  8
Visible (ISO)
100
AcDbLine
 10
348.4834914148603
 20
100.1740675254109
 30
0.0
 11
343.4834914148602
 21
100.1740675254124
 31
0.0
  0
LINE
  5
581
330
75
100
AcDbEntity
  8
Visible (ISO)
100
AcDbLine
 10
348.4834914149198
 20
300.6740675254109
 30
0.0
 11
348.4834914148808
 21
169.628602070914
 31
0.0
  0
LINE
  5
582
330
75
100
AcDbEntity
  8
Visible (ISO)
100
AcDbLine
 10
348.4834914148785
 20
161.628602070914
 30
0.0
 11
348.4834914148602
 21
100.1740675254108
 31
0.0
  0
LINE
  5
583
330
75
100
AcDbEntity
  8
Visible (ISO)
100
AcDbLine
 10
343.4834914149198
 20
300.6740675254124
 30
0.0
 11
343.4834914148809
 21
169.628602070914
 31
0.0
  0
LINE
  5
584
330
75
100
AcDbEntity
  8
Visible (ISO)
100
AcDbLine
 10
343.4834914148785
 20
161.628602070914
 30
0.0
 11
343.4834914148602
 21
100.1740675254124
 31
0.0
  0
LINE
  5
585
330
75
100
AcDbEntity
  8
Visible (ISO)
100
AcDbLine
 10
342.3334914149239
 20
314.2740675254127
 30
0.0
 11
349.6334914149238
 21
314.2740675254106
 31
0.0
  0
LINE
  5
586
330
75
100
AcDbEntity
  8
Visible (ISO)
100
AcDbLine
 10
342.3334914149198
 20
300.6740675254127
 30
0.0
 11
349.6334914149197
 21
300.6740675254106
 31
0.0
  0
LINE
  5
587
330
75
100
AcDbEntity
  8
Visible (ISO)
100
AcDbLine
 10
342.3334914149198
 20
300.6740675254127
 30
0.0
 11
342.3334914149239
 21
314.2740675254127
 31
0.0
  0
LINE
  5
588
330
75
100
AcDbEntity
  8
Visible (ISO)
100
AcDbLine
 10
349.6334914149197
 20
300.6740675254106
 30
0.0
 11
349.6334914149238
 21
314.2740675254106
 31
0.0
  0
LINE
  5
589
330
75
100
AcDbEntity
  8
Visible Narrow (ISO)
100
AcDbLine
 10
348.0049914148602
 20
100.1740675254111
 30
0.0
 11
348.0049914148632
 21
110.1740675254111
 31
0.0
  0
LINE
  5
58A
330
75
100
AcDbEntity
  8
Visible Narrow (ISO)
100
AcDbLine
 10
343.9619914148632
 20
110.1740675254123
 30
0.0
 11
343.9619914148602
 21
100.1740675254123
 31
0.0
  0
LINE
  5
58B
330
75
100
AcDbEntity
  8
Visible (ISO)
100
AcDbLine
 10
343.4834914148631
 20
110.1740675254123
 30
0.0
 11
348.4834914148632
 21
110.1740675254109
 31
0.0
  0
LINE
  5
58C
330
75
100
AcDbEntity
  8
Visible (ISO)
100
AcDbLine
 10
312.2083938962469
 20
168.128602070914
 30
0.0
 11
312.2083938962469
 21
163.128602070914
 31
0.0
  0
LINE
  5
58D
330
75
100
AcDbEntity
  8
Visible (ISO)
100
AcDbLine
 10
312.2083938962469
 20
168.128602070914
 30
0.0
 11
340.5334914148795
 21
168.128602070914
 31
0.0
  0
LINE
  5
58E
330
75
100
AcDbEntity
  8
Visible (ISO)
100
AcDbLine
 10
358.8334914148795
 20
168.128602070914
 30
0.0
 11
439.0678429861424
 21
168.128602070914
 31
0.0
  0
LINE
  5
58F
330
75
100
AcDbEntity
  8
Visible (ISO)
100
AcDbLine
 10
312.2083938962469
 20
163.128602070914
 30
0.0
 11
340.5334914148795
 21
163.128602070914
 31
0.0
  0
LINE
  5
590
330
75
100
AcDbEntity
  8
Visible (ISO)
100
AcDbLine
 10
358.8334914148794
 20
163.128602070914
 30
0.0
 11
439.0678429861424
 21
163.128602070914
 31
0.0
  0
ELLIPSE
  5
591
330
75
100
AcDbEntity
  8
Visible (ISO)
100
AcDbEllipse
 10
323.383682518835
 20
451.2485517250727
 30
0.0
 11
-0.0000000000000002
 21
3.75
 31
0.0
210
0.0
220
0.0
230
1.0
 40
0.0041123933911661
 41
0.0000000000340133
 42
3.141592653623806
  0
LINE
  5
592
330
75
100
AcDbEntity
  8
Visible (ISO)
100
AcDbLine
 10
338.3501837621358
 20
447.4985517250727
 30
0.0
 11
323.383682518835
 21
447.4985517250727
 31
0.0
  0
LINE
  5
593
330
75
100
AcDbEntity
  8
Visible (ISO)
100
AcDbLine
 10
338.3501837621358
 20
454.9985517250727
 30
0.0
 11
323.383682518835
 21
454.9985517250727
 31
0.0
  0
LINE
  5
594
330
75
100
AcDbEntity
  8
Visible (ISO)
100
AcDbLine
 10
465.2593051715653
 20
144.7271189263813
 30
0.0
 11
464.2679209198868
 21
145.084598580996
 31
0.0
  0
POLYLINE
  5
595
330
75
100
AcDbEntity
  8
Visible (ISO)
100
AcDb2dPolyline
 66
     1
 10
0.0
 20
0.0
 30
0.0
 70
   128
  0
VERTEX
  5
596
330
595
100
AcDbEntity
  8
Visible (ISO)
100
AcDbVertex
100
AcDb2dVertex
 10
507.3800132055644
 20
150.7379460764987
 30
0.0
  0
VERTEX
  5
597
330
595
100
AcDbEntity
  8
Visible (ISO)
100
AcDbVertex
100
AcDb2dVertex
 10
507.2008416433695
 20
150.6922936869723
 30
0.0
  0
VERTEX
  5
599
330
595
100
AcDbEntity
  8
Visible (ISO)
100
AcDbVertex
100
AcDb2dVertex
 10
506.9164464254741
 20
150.6466532183748
 30
0.0
  0
VERTEX
  5
59A
330
595
100
AcDbEntity
  8
Visible (ISO)
100
AcDbVertex
100
AcDb2dVertex
 10
506.5277907629375
 20
150.6009626818758
 30
0.0
  0
VERTEX
  5
59B
330
595
100
AcDbEntity
  8
Visible (ISO)
100
AcDbVertex
100
AcDb2dVertex
 10
506.0358450193767
 20
150.5551696253878
 30
0.0
  0
VERTEX
  5
59C
330
595
100
AcDbEntity
  8
Visible (ISO)
100
AcDbVertex
100
AcDb2dVertex
 10
505.443960167921
 20
150.5093813372713
 30
0.0
  0
VERTEX
  5
59D
330
595
100
AcDbEntity
  8
Visible (ISO)
100
AcDbVertex
100
AcDb2dVertex
 10
504.7566149015789
 20
150.4636884165865
 30
0.0
  0
VERTEX
  5
59E
330
595
100
AcDbEntity
  8
Visible (ISO)
100
AcDbVertex
100
AcDb2dVertex
 10
503.9768419046763
 20
150.4180336428744
 30
0.0
  0
VERTEX
  5
59F
330
595
100
AcDbEntity
  8
Visible (ISO)
100
AcDbVertex
100
AcDb2dVertex
 10
503.1076702852611
 20
150.3723574114901
 30
0.0
  0
VERTEX
  5
5A0
330
595
100
AcDbEntity
  8
Visible (ISO)
100
AcDbVertex
100
AcDb2dVertex
 10
502.1521315355663
 20
150.3266072703463
 30
0.0
  0
VERTEX
  5
5A1
330
595
100
AcDbEntity
  8
Visible (ISO)
100
AcDbVertex
100
AcDb2dVertex
 10
501.1144027490978
 20
150.2807665301425
 30
0.0
  0
VERTEX
  5
5A2
330
595
100
AcDbEntity
  8
Visible (ISO)
100
AcDbVertex
100
AcDb2dVertex
 10
500.0037834425334
 20
150.2350187731844
 30
0.0
  0
VERTEX
  5
5A3
330
595
100
AcDbEntity
  8
Visible (ISO)
100
AcDbVertex
100
AcDb2dVertex
 10
498.8256237287883
 20
150.1893377734286
 30
0.0
  0
VERTEX
  5
5A4
330
595
100
AcDbEntity
  8
Visible (ISO)
100
AcDbVertex
100
AcDb2dVertex
 10
497.5845703859691
 20
150.1436639262301
 30
0.0
  0
VERTEX
  5
5A5
330
595
100
AcDbEntity
  8
Visible (ISO)
100
AcDbVertex
100
AcDb2dVertex
 10
496.2852678079967
 20
150.0979423953158
 30
0.0
  0
VERTEX
  5
5A6
330
595
100
AcDbEntity
  8
Visible (ISO)
100
AcDbVertex
100
AcDb2dVertex
 10
494.9323860187893
 20
150.0521111918551
 30
0.0
  0
VERTEX
  5
5A7
330
595
100
AcDbEntity
  8
Visible (ISO)
100
AcDbVertex
100
AcDb2dVertex
 10
493.5361948986416
 20
150.0062966776949
 30
0.0
  0
VERTEX
  5
5A8
330
595
100
AcDbEntity
  8
Visible (ISO)
100
AcDbVertex
100
AcDb2dVertex
 10
492.1062836428051
 20
149.9605751467806
 30
0.0
  0
VERTEX
  5
5A9
330
595
100
AcDbEntity
  8
Visible (ISO)
100
AcDbVertex
100
AcDb2dVertex
 10
490.6482181330089
 20
149.9148893786531
 30
0.0
  0
VERTEX
  5
5AA
330
595
100
AcDbEntity
  8
Visible (ISO)
100
AcDbVertex
100
AcDb2dVertex
 10
489.1675648470287
 20
149.8691821528536
 30
0.0
  0
VERTEX
  5
5AB
330
595
100
AcDbEntity
  8
Visible (ISO)
100
AcDbVertex
100
AcDb2dVertex
 10
487.6698901136283
 20
149.8233938647372
 30
0.0
  0
VERTEX
  5
5AC
330
595
100
AcDbEntity
  8
Visible (ISO)
100
AcDbVertex
100
AcDb2dVertex
 10
486.1626102593604
 20
149.7775245143038
 30
0.0
  0
VERTEX
  5
5AD
330
595
100
AcDbEntity
  8
Visible (ISO)
100
AcDbVertex
100
AcDb2dVertex
 10
484.659160562313
 20
149.7317505313021
 30
0.0
  0
VERTEX
  5
5AE
330
595
100
AcDbEntity
  8
Visible (ISO)
100
AcDbVertex
100
AcDb2dVertex
 10
483.1660703201656
 20
149.686038537131
 30
0.0
  0
VERTEX
  5
5AF
330
595
100
AcDbEntity
  8
Visible (ISO)
100
AcDbVertex
100
AcDb2dVertex
 10
481.6889927168253
 20
149.6403313113314
 30
0.0
  0
VERTEX
  5
5B0
330
595
100
AcDbEntity
  8
Visible (ISO)
100
AcDbVertex
100
AcDb2dVertex
 10
480.2335802097683
 20
149.5945740176303
 30
0.0
  0
VERTEX
  5
5B1
330
595
100
AcDbEntity
  8
Visible (ISO)
100
AcDbVertex
100
AcDb2dVertex
 10
478.8055512686137
 20
149.5487094355685
 30
0.0
  0
VERTEX
  5
5B2
330
595
100
AcDbEntity
  8
Visible (ISO)
100
AcDbVertex
100
AcDb2dVertex
 10
477.416343428648
 20
149.5028686953646
 30
0.0
  0
VERTEX
  5
5B3
330
595
100
AcDbEntity
  8
Visible (ISO)
100
AcDbVertex
100
AcDb2dVertex
 10
476.0748145361309
 20
149.4571185542208
 30
0.0
  0
VERTEX
  5
5B4
330
595
100
AcDbEntity
  8
Visible (ISO)
100
AcDbVertex
100
AcDb2dVertex
 10
474.7858569403057
 20
149.4114017916781
 30
0.0
  0
VERTEX
  5
5B5
330
595
100
AcDbEntity
  8
Visible (ISO)
100
AcDbVertex
100
AcDb2dVertex
 10
473.5543617983226
 20
149.3656588030916
 30
0.0
  0
VERTEX
  5
5B6
330
595
100
AcDbEntity
  8
Visible (ISO)
100
AcDbVertex
100
AcDb2dVertex
 10
472.385220267332
 20
149.3198347521883
 30
0.0
  0
VERTEX
  5
5B7
330
595
100
AcDbEntity
  8
Visible (ISO)
100
AcDbVertex
100
AcDb2dVertex
 10
471.284854151762
 20
149.2739367915255
 30
0.0
  0
VERTEX
  5
5B8
330
595
100
AcDbEntity
  8
Visible (ISO)
100
AcDbVertex
100
AcDb2dVertex
 10
470.2629289408092
 20
149.2281341982943
 30
0.0
  0
VERTEX
  5
5B9
330
595
100
AcDbEntity
  8
Visible (ISO)
100
AcDbVertex
100
AcDb2dVertex
 10
469.3233606596355
 20
149.1823935938937
 30
0.0
  0
VERTEX
  5
5BA
330
595
100
AcDbEntity
  8
Visible (ISO)
100
AcDbVertex
100
AcDb2dVertex
 10
468.4695420046215
 20
149.1366553736788
 30
0.0
  0
VERTEX
  5
5BB
330
595
100
AcDbEntity
  8
Visible (ISO)
100
AcDbVertex
100
AcDb2dVertex
 10
467.7048704405192
 20
149.0908623171908
 30
0.0
  0
VERTEX
  5
5BC
330
595
100
AcDbEntity
  8
Visible (ISO)
100
AcDbVertex
100
AcDb2dVertex
 10
467.0328030367259
 20
149.0449595881563
 30
0.0
  0
VERTEX
  5
5BD
330
595
100
AcDbEntity
  8
Visible (ISO)
100
AcDbVertex
100
AcDb2dVertex
 10
466.4590737600688
 20
148.9990950060946
 30
0.0
  0
VERTEX
  5
5BE
330
595
100
AcDbEntity
  8
Visible (ISO)
100
AcDbVertex
100
AcDb2dVertex
 10
465.9868213911419
 20
148.9533162547213
 30
0.0
  0
VERTEX
  5
5BF
330
595
100
AcDbEntity
  8
Visible (ISO)
100
AcDbVertex
100
AcDb2dVertex
 10
465.6174371023539
 20
148.9075684977633
 30
0.0
  0
VERTEX
  5
5C0
330
595
100
AcDbEntity
  8
Visible (ISO)
100
AcDbVertex
100
AcDb2dVertex
 10
465.3523084898357
 20
148.8617921305758
 30
0.0
  0
VERTEX
  5
5C1
330
595
100
AcDbEntity
  8
Visible (ISO)
100
AcDbVertex
100
AcDb2dVertex
 10
465.192825533903
 20
148.8159323168856
 30
0.0
  0
VERTEX
  5
5C2
330
595
100
AcDbEntity
  8
Visible (ISO)
100
AcDbVertex
100
AcDb2dVertex
 10
465.1403758306865
 20
148.7700033618075
 30
0.0
  0
SEQEND
  5
598
330
595
100
AcDbEntity
  8
Visible (ISO)
  0
POLYLINE
  5
5C3
330
75
100
AcDbEntity
  8
Visible (ISO)
100
AcDb2dPolyline
 66
     1
 10
0.0
 20
0.0
 30
0.0
 70
   128
  0
VERTEX
  5
5C4
330
5C3
100
AcDbEntity
  8
Visible (ISO)
100
AcDbVertex
100
AcDb2dVertex
 10
507.2606632490519
 20
146.6947603655917
 30
0.0
  0
VERTEX
  5
5C5
330
5C3
100
AcDbEntity
  8
Visible (ISO)
100
AcDbVertex
100
AcDb2dVertex
 10
507.0764443655376
 20
146.6480589343172
 30
0.0
  0
VERTEX
  5
5C7
330
5C3
100
AcDbEntity
  8
Visible (ISO)
100
AcDbVertex
100
AcDb2dVertex
 10
506.7824384947185
 20
146.6013241244417
 30
0.0
  0
VERTEX
  5
5C8
330
5C3
100
AcDbEntity
  8
Visible (ISO)
100
AcDbVertex
100
AcDb2dVertex
 10
506.379372813261
 20
146.5544939471346
 30
0.0
  0
VERTEX
  5
5C9
330
5C3
100
AcDbEntity
  8
Visible (ISO)
100
AcDbVertex
100
AcDb2dVertex
 10
505.8693108339671
 20
146.5076113177401
 30
0.0
  0
VERTEX
  5
5CA
330
5C3
100
AcDbEntity
  8
Visible (ISO)
100
AcDbVertex
100
AcDb2dVertex
 10
505.25682780937
 20
146.4608431292635
 30
0.0
  0
VERTEX
  5
5CB
330
5C3
100
AcDbEntity
  8
Visible (ISO)
100
AcDbVertex
100
AcDb2dVertex
 10
504.5449492712383
 20
146.4141178561312
 30
0.0
  0
VERTEX
  5
5CC
330
5C3
100
AcDbEntity
  8
Visible (ISO)
100
AcDbVertex
100
AcDb2dVertex
 10
503.7366459150677
 20
146.3673878146273
 30
0.0
  0
VERTEX
  5
5CD
330
5C3
100
AcDbEntity
  8
Visible (ISO)
100
AcDbVertex
100
AcDb2dVertex
 10
502.8348884363536
 20
146.3205814791781
 30
0.0
  0
VERTEX
  5
5CE
330
5C3
100
AcDbEntity
  8
Visible (ISO)
100
AcDbVertex
100
AcDb2dVertex
 10
501.8434152384165
 20
146.2736750079256
 30
0.0
  0
VERTEX
  5
5CF
330
5C3
100
AcDbEntity
  8
Visible (ISO)
100
AcDbVertex
100
AcDb2dVertex
 10
500.7713649053934
 20
146.2268543673617
 30
0.0
  0
VERTEX
  5
5D0
330
5C3
100
AcDbEntity
  8
Visible (ISO)
100
AcDbVertex
100
AcDb2dVertex
 10
499.6245107431773
 20
146.1801052523715
 30
0.0
  0
VERTEX
  5
5D1
330
5C3
100
AcDbEntity
  8
Visible (ISO)
100
AcDbVertex
100
AcDb2dVertex
 10
498.4076199312571
 20
146.1333656741244
 30
0.0
  0
VERTEX
  5
5D2
330
5C3
100
AcDbEntity
  8
Visible (ISO)
100
AcDbVertex
100
AcDb2dVertex
 10
497.125462033308
 20
146.0865784121615
 30
0.0
  0
VERTEX
  5
5D3
330
5C3
100
AcDbEntity
  8
Visible (ISO)
100
AcDbVertex
100
AcDb2dVertex
 10
495.7828554888134
 20
146.0396767092806
 30
0.0
  0
VERTEX
  5
5D4
330
5C3
100
AcDbEntity
  8
Visible (ISO)
100
AcDbVertex
100
AcDb2dVertex
 10
494.39057324127
 20
145.9927988482577
 30
0.0
  0
VERTEX
  5
5D5
330
5C3
100
AcDbEntity
  8
Visible (ISO)
100
AcDbVertex
100
AcDb2dVertex
 10
492.9582897205714
 20
145.9460163546664
 30
0.0
  0
VERTEX
  5
5D6
330
5C3
100
AcDbEntity
  8
Visible (ISO)
100
AcDbVertex
100
AcDb2dVertex
 10
491.4918592949276
 20
145.8992672396761
 30
0.0
  0
VERTEX
  5
5D7
330
5C3
100
AcDbEntity
  8
Visible (ISO)
100
AcDbVertex
100
AcDb2dVertex
 10
489.9971363325481
 20
145.8524847460848
 30
0.0
  0
VERTEX
  5
5D8
330
5C3
100
AcDbEntity
  8
Visible (ISO)
100
AcDbVertex
100
AcDb2dVertex
 10
488.4799754996662
 20
145.805616421805
 30
0.0
  0
VERTEX
  5
5D9
330
5C3
100
AcDbEntity
  8
Visible (ISO)
100
AcDbVertex
100
AcDb2dVertex
 10
486.9492947687271
 20
145.7586861086947
 30
0.0
  0
VERTEX
  5
5DA
330
5C3
100
AcDbEntity
  8
Visible (ISO)
100
AcDbVertex
100
AcDb2dVertex
 10
485.4186369110708
 20
145.7118606997591
 30
0.0
  0
VERTEX
  5
5DB
330
5C3
100
AcDbEntity
  8
Visible (ISO)
100
AcDbVertex
100
AcDb2dVertex
 10
483.8944173236256
 20
145.665087742911
 30
0.0
  0
VERTEX
  5
5DC
330
5C3
100
AcDbEntity
  8
Visible (ISO)
100
AcDbVertex
100
AcDb2dVertex
 10
482.3826992888813
 20
145.6183100176913
 30
0.0
  0
VERTEX
  5
5DD
330
5C3
100
AcDbEntity
  8
Visible (ISO)
100
AcDbVertex
100
AcDb2dVertex
 10
480.8895472069148
 20
145.5714607668978
 30
0.0
  0
VERTEX
  5
5DE
330
5C3
100
AcDbEntity
  8
Visible (ISO)
100
AcDbVertex
100
AcDb2dVertex
 10
479.4218311090832
 20
145.5245066119295
 30
0.0
  0
VERTEX
  5
5DF
330
5C3
100
AcDbEntity
  8
Visible (ISO)
100
AcDbVertex
100
AcDb2dVertex
 10
477.9930702228909
 20
145.4776335192782
 30
0.0
  0
VERTEX
  5
5E0
330
5C3
100
AcDbEntity
  8
Visible (ISO)
100
AcDbVertex
100
AcDb2dVertex
 10
476.6105792303448
 20
145.4308319522006
 30
0.0
  0
VERTEX
  5
5E1
330
5C3
100
AcDbEntity
  8
Visible (ISO)
100
AcDbVertex
100
AcDb2dVertex
 10
475.2797219534282
 20
145.3840494586092
 30
0.0
  0
VERTEX
  5
5E2
330
5C3
100
AcDbEntity
  8
Visible (ISO)
100
AcDbVertex
100
AcDb2dVertex
 10
474.0058610220318
 20
145.3372145129305
 30
0.0
  0
VERTEX
  5
5E3
330
5C3
100
AcDbEntity
  8
Visible (ISO)
100
AcDbVertex
100
AcDb2dVertex
 10
472.7943703909282
 20
145.290274663077
 30
0.0
  0
VERTEX
  5
5E4
330
5C3
100
AcDbEntity
  8
Visible (ISO)
100
AcDbVertex
100
AcDb2dVertex
 10
471.65490958885
 20
145.2433443499667
 30
0.0
  0
VERTEX
  5
5E5
330
5C3
100
AcDbEntity
  8
Visible (ISO)
100
AcDbVertex
100
AcDb2dVertex
 10
470.5954227228526
 20
145.1965046359164
 30
0.0
  0
VERTEX
  5
5E6
330
5C3
100
AcDbEntity
  8
Visible (ISO)
100
AcDbVertex
100
AcDb2dVertex
 10
469.6197709818248
 20
145.1497078372103
 30
0.0
  0
VERTEX
  5
5E7
330
5C3
100
AcDbEntity
  8
Visible (ISO)
100
AcDbVertex
100
AcDb2dVertex
 10
468.7318095941905
 20
145.1028824282748
 30
0.0
  0
VERTEX
  5
5E8
330
5C3
100
AcDbEntity
  8
Visible (ISO)
100
AcDbVertex
100
AcDb2dVertex
 10
467.9353997488384
 20
145.0559711886507
 30
0.0
  0
VERTEX
  5
5E9
330
5C3
100
AcDbEntity
  8
Visible (ISO)
100
AcDbVertex
100
AcDb2dVertex
 10
467.2353169699077
 20
145.0089741183383
 30
0.0
  0
VERTEX
  5
5EA
330
5C3
100
AcDbEntity
  8
Visible (ISO)
100
AcDbVertex
100
AcDb2dVertex
 10
466.6373393316631
 20
144.96201996337
 30
0.0
  0
VERTEX
  5
5EB
330
5C3
100
AcDbEntity
  8
Visible (ISO)
100
AcDbVertex
100
AcDb2dVertex
 10
466.143867709196
 20
144.9150658084017
 30
0.0
  0
VERTEX
  5
5EC
330
5C3
100
AcDbEntity
  8
Visible (ISO)
100
AcDbVertex
100
AcDb2dVertex
 10
465.7571956892375
 20
144.8680544329745
 30
0.0
  0
VERTEX
  5
5ED
330
5C3
100
AcDbEntity
  8
Visible (ISO)
100
AcDbVertex
100
AcDb2dVertex
 10
465.4801676054362
 20
144.8210812045199
 30
0.0
  0
VERTEX
  5
5EE
330
5C3
100
AcDbEntity
  8
Visible (ISO)
100
AcDbVertex
100
AcDb2dVertex
 10
465.3139540930156
 20
144.77412228118
 30
0.0
  0
VERTEX
  5
5EF
330
5C3
100
AcDbEntity
  8
Visible (ISO)
100
AcDbVertex
100
AcDb2dVertex
 10
465.2593061704997
 20
144.727120442496
 30
0.0
  0
SEQEND
  5
5C6
330
5C3
100
AcDbEntity
  8
Visible (ISO)
  0
LINE
  5
5F0
330
75
100
AcDbEntity
  8
Visible (ISO)
100
AcDbLine
 10
465.0214438311918
 20
152.8128884851159
 30
0.0
 11
464.2679209198868
 21
153.084598580996
 31
0.0
  0
POLYLINE
  5
5F1
330
75
100
AcDbEntity
  8
Visible (ISO)
100
AcDb2dPolyline
 66
     1
 10
0.0
 20
0.0
 30
0.0
 70
   128
  0
VERTEX
  5
5F2
330
5F1
100
AcDbEntity
  8
Visible (ISO)
100
AcDbVertex
100
AcDb2dVertex
 10
464.267921187437
 20
145.0846004916293
 30
0.0
  0
VERTEX
  5
5F3
330
5F1
100
AcDbEntity
  8
Visible (ISO)
100
AcDbVertex
100
AcDb2dVertex
 10
464.3195841093425
 20
145.1282358599764
 30
0.0
  0
VERTEX
  5
5F5
330
5F1
100
AcDbEntity
  8
Visible (ISO)
100
AcDbVertex
100
AcDb2dVertex
 10
464.4743344564799
 20
145.1718759966952
 30
0.0
  0
VERTEX
  5
5F6
330
5F1
100
AcDbEntity
  8
Visible (ISO)
100
AcDbVertex
100
AcDb2dVertex
 10
464.7314426679973
 20
145.2155113650424
 30
0.0
  0
VERTEX
  5
5F7
330
5F1
100
AcDbEntity
  8
Visible (ISO)
100
AcDbVertex
100
AcDb2dVertex
 10
465.0896999616985
 20
145.2591515017611
 30
0.0
  0
VERTEX
  5
5F8
330
5F1
100
AcDbEntity
  8
Visible (ISO)
100
AcDbVertex
100
AcDb2dVertex
 10
465.5474278707866
 20
145.3027868701083
 30
0.0
  0
VERTEX
  5
5F9
330
5F1
100
AcDbEntity
  8
Visible (ISO)
100
AcDbVertex
100
AcDb2dVertex
 10
466.1024734754924
 20
145.346427006827
 30
0.0
  0
VERTEX
  5
5FA
330
5F1
100
AcDbEntity
  8
Visible (ISO)
100
AcDbVertex
100
AcDb2dVertex
 10
466.7522308607463
 20
145.3900623751742
 30
0.0
  0
VERTEX
  5
5FB
330
5F1
100
AcDbEntity
  8
Visible (ISO)
100
AcDbVertex
100
AcDb2dVertex
 10
467.4936482687358
 20
145.4337025118929
 30
0.0
  0
VERTEX
  5
5FC
330
5F1
100
AcDbEntity
  8
Visible (ISO)
100
AcDbVertex
100
AcDb2dVertex
 10
468.3232424040203
 20
145.4773378802401
 30
0.0
  0
VERTEX
  5
5FD
330
5F1
100
AcDbEntity
  8
Visible (ISO)
100
AcDbVertex
100
AcDb2dVertex
 10
469.2371175070171
 20
145.5209780169589
 30
0.0
  0
VERTEX
  5
5FE
330
5F1
100
AcDbEntity
  8
Visible (ISO)
100
AcDbVertex
100
AcDb2dVertex
 10
470.2309832353954
 20
145.564613385306
 30
0.0
  0
VERTEX
  5
5FF
330
5F1
100
AcDbEntity
  8
Visible (ISO)
100
AcDbVertex
100
AcDb2dVertex
 10
471.3001689691905
 20
145.6082535220248
 30
0.0
  0
VERTEX
  5
600
330
5F1
100
AcDbEntity
  8
Visible (ISO)
100
AcDbVertex
100
AcDb2dVertex
 10
472.4396536131266
 20
145.6518888903719
 30
0.0
  0
VERTEX
  5
601
330
5F1
100
AcDbEntity
  8
Visible (ISO)
100
AcDbVertex
100
AcDb2dVertex
 10
473.6440858621959
 20
145.6955290270907
 30
0.0
  0
VERTEX
  5
602
330
5F1
100
AcDbEntity
  8
Visible (ISO)
100
AcDbVertex
100
AcDb2dVertex
 10
474.907809235609
 20
145.7391643954379
 30
0.0
  0
VERTEX
  5
603
330
5F1
100
AcDbEntity
  8
Visible (ISO)
100
AcDbVertex
100
AcDb2dVertex
 10
476.2248871107463
 20
145.7828045321566
 30
0.0
  0
VERTEX
  5
604
330
5F1
100
AcDbEntity
  8
Visible (ISO)
100
AcDbVertex
100
AcDb2dVertex
 10
477.589134909666
 20
145.8264446688753
 30
0.0
  0
VERTEX
  5
605
330
5F1
100
AcDbEntity
  8
Visible (ISO)
100
AcDbVertex
100
AcDb2dVertex
 10
478.9941439409618
 20
145.8700800372225
 30
0.0
  0
VERTEX
  5
606
330
5F1
100
AcDbEntity
  8
Visible (ISO)
100
AcDbVertex
100
AcDb2dVertex
 10
480.4333153744106
 20
145.9137201739412
 30
0.0
  0
VERTEX
  5
607
330
5F1
100
AcDbEntity
  8
Visible (ISO)
100
AcDbVertex
100
AcDb2dVertex
 10
481.8998906393413
 20
145.9573555422885
 30
0.0
  0
VERTEX
  5
608
330
5F1
100
AcDbEntity
  8
Visible (ISO)
100
AcDbVertex
100
AcDb2dVertex
 10
483.3869806309108
 20
146.0009956790072
 30
0.0
  0
VERTEX
  5
609
330
5F1
100
AcDbEntity
  8
Visible (ISO)
100
AcDbVertex
100
AcDb2dVertex
 10
484.8876016219024
 20
146.0446310473544
 30
0.0
  0
VERTEX
  5
60A
330
5F1
100
AcDbEntity
  8
Visible (ISO)
100
AcDbVertex
100
AcDb2dVertex
 10
486.3947051581804
 20
146.0882711840731
 30
0.0
  0
VERTEX
  5
60B
330
5F1
100
AcDbEntity
  8
Visible (ISO)
100
AcDbVertex
100
AcDb2dVertex
 10
487.9012129087811
 20
146.1319065524203
 30
0.0
  0
VERTEX
  5
60C
330
5F1
100
AcDbEntity
  8
Visible (ISO)
100
AcDbVertex
100
AcDb2dVertex
 10
489.4000488896732
 20
146.175546689139
 30
0.0
  0
VERTEX
  5
60D
330
5F1
100
AcDbEntity
  8
Visible (ISO)
100
AcDbVertex
100
AcDb2dVertex
 10
490.8841738481883
 20
146.2191820574862
 30
0.0
  0
VERTEX
  5
60E
330
5F1
100
AcDbEntity
  8
Visible (ISO)
100
AcDbVertex
100
AcDb2dVertex
 10
492.3466173191433
 20
146.2628221942049
 30
0.0
  0
VERTEX
  5
60F
330
5F1
100
AcDbEntity
  8
Visible (ISO)
100
AcDbVertex
100
AcDb2dVertex
 10
493.7805101652507
 20
146.3064575625521
 30
0.0
  0
VERTEX
  5
610
330
5F1
100
AcDbEntity
  8
Visible (ISO)
100
AcDbVertex
100
AcDb2dVertex
 10
495.1791176576976
 20
146.3500976992708
 30
0.0
  0
VERTEX
  5
611
330
5F1
100
AcDbEntity
  8
Visible (ISO)
100
AcDbVertex
100
AcDb2dVertex
 10
496.5358719606761
 20
146.393733067618
 30
0.0
  0
VERTEX
  5
612
330
5F1
100
AcDbEntity
  8
Visible (ISO)
100
AcDbVertex
100
AcDb2dVertex
 10
497.8443989534739
 20
146.4373732043368
 30
0.0
  0
VERTEX
  5
613
330
5F1
100
AcDbEntity
  8
Visible (ISO)
100
AcDbVertex
100
AcDb2dVertex
 10
499.0985545893077
 20
146.4810085726839
 30
0.0
  0
VERTEX
  5
614
330
5F1
100
AcDbEntity
  8
Visible (ISO)
100
AcDbVertex
100
AcDb2dVertex
 10
500.2924475450877
 20
146.5246487094027
 30
0.0
  0
VERTEX
  5
615
330
5F1
100
AcDbEntity
  8
Visible (ISO)
100
AcDbVertex
100
AcDb2dVertex
 10
501.4204702158336
 20
146.5682840777499
 30
0.0
  0
VERTEX
  5
616
330
5F1
100
AcDbEntity
  8
Visible (ISO)
100
AcDbVertex
100
AcDb2dVertex
 10
502.4773249407176
 20
146.6119242144686
 30
0.0
  0
VERTEX
  5
617
330
5F1
100
AcDbEntity
  8
Visible (ISO)
100
AcDbVertex
100
AcDb2dVertex
 10
503.4580478449229
 20
146.6555643511874
 30
0.0
  0
VERTEX
  5
618
330
5F1
100
AcDbEntity
  8
Visible (ISO)
100
AcDbVertex
100
AcDb2dVertex
 10
504.3580326815012
 20
146.6991997195345
 30
0.0
  0
VERTEX
  5
619
330
5F1
100
AcDbEntity
  8
Visible (ISO)
100
AcDbVertex
100
AcDb2dVertex
 10
505.1730534811381
 20
146.7428398562533
 30
0.0
  0
VERTEX
  5
61A
330
5F1
100
AcDbEntity
  8
Visible (ISO)
100
AcDbVertex
100
AcDb2dVertex
 10
505.8992800493602
 20
146.7864752246004
 30
0.0
  0
VERTEX
  5
61B
330
5F1
100
AcDbEntity
  8
Visible (ISO)
100
AcDbVertex
100
AcDb2dVertex
 10
506.5333030004864
 20
146.8301153613192
 30
0.0
  0
VERTEX
  5
61C
330
5F1
100
AcDbEntity
  8
Visible (ISO)
100
AcDbVertex
100
AcDb2dVertex
 10
507.0721456785563
 20
146.8737507296664
 30
0.0
  0
VERTEX
  5
61D
330
5F1
100
AcDbEntity
  8
Visible (ISO)
100
AcDbVertex
100
AcDb2dVertex
 10
507.5132748861675
 20
146.9173908663851
 30
0.0
  0
VERTEX
  5
61E
330
5F1
100
AcDbEntity
  8
Visible (ISO)
100
AcDbVertex
100
AcDb2dVertex
 10
507.8546187658671
 20
146.9610262347323
 30
0.0
  0
VERTEX
  5
61F
330
5F1
100
AcDbEntity
  8
Visible (ISO)
100
AcDbVertex
100
AcDb2dVertex
 10
508.0945775289897
 20
147.004666371451
 30
0.0
  0
VERTEX
  5
620
330
5F1
100
AcDbEntity
  8
Visible (ISO)
100
AcDbVertex
100
AcDb2dVertex
 10
508.2320186872843
 20
147.0483017397982
 30
0.0
  0
VERTEX
  5
621
330
5F1
100
AcDbEntity
  8
Visible (ISO)
100
AcDbVertex
100
AcDb2dVertex
 10
508.2663008947734
 20
147.091941876517
 30
0.0
  0
VERTEX
  5
622
330
5F1
100
AcDbEntity
  8
Visible (ISO)
100
AcDbVertex
100
AcDb2dVertex
 10
508.1972644110087
 20
147.1355772448641
 30
0.0
  0
SEQEND
  5
5F4
330
5F1
100
AcDbEntity
  8
Visible (ISO)
  0
POLYLINE
  5
623
330
75
100
AcDbEntity
  8
Visible (ISO)
100
AcDb2dPolyline
 66
     1
 10
0.0
 20
0.0
 30
0.0
 70
   128
  0
VERTEX
  5
624
330
623
100
AcDbEntity
  8
Visible (ISO)
100
AcDbVertex
100
AcDb2dVertex
 10
464.3384215612774
 20
149.0336180163485
 30
0.0
  0
VERTEX
  5
625
330
623
100
AcDbEntity
  8
Visible (ISO)
100
AcDbVertex
100
AcDb2dVertex
 10
464.2693230886821
 20
149.0774083567721
 30
0.0
  0
VERTEX
  5
627
330
623
100
AcDbEntity
  8
Visible (ISO)
100
AcDbVertex
100
AcDb2dVertex
 10
464.3042704840068
 20
149.1212010813815
 30
0.0
  0
VERTEX
  5
628
330
623
100
AcDbEntity
  8
Visible (ISO)
100
AcDbVertex
100
AcDb2dVertex
 10
464.4431016226176
 20
149.1649914218051
 30
0.0
  0
VERTEX
  5
629
330
623
100
AcDbEntity
  8
Visible (ISO)
100
AcDbVertex
100
AcDb2dVertex
 10
464.6851560850506
 20
149.2087817622286
 30
0.0
  0
VERTEX
  5
62A
330
623
100
AcDbEntity
  8
Visible (ISO)
100
AcDbVertex
100
AcDb2dVertex
 10
465.0292894621257
 20
149.2525721026522
 30
0.0
  0
VERTEX
  5
62B
330
623
100
AcDbEntity
  8
Visible (ISO)
100
AcDbVertex
100
AcDb2dVertex
 10
465.4738757391339
 20
149.2963624430758
 30
0.0
  0
VERTEX
  5
62C
330
623
100
AcDbEntity
  8
Visible (ISO)
100
AcDbVertex
100
AcDb2dVertex
 10
466.0168120642071
 20
149.3401551676852
 30
0.0
  0
VERTEX
  5
62D
330
623
100
AcDbEntity
  8
Visible (ISO)
100
AcDbVertex
100
AcDb2dVertex
 10
466.6555294771556
 20
149.3839455081088
 30
0.0
  0
VERTEX
  5
62E
330
623
100
AcDbEntity
  8
Visible (ISO)
100
AcDbVertex
100
AcDb2dVertex
 10
467.3870072145824
 20
149.4277358485323
 30
0.0
  0
VERTEX
  5
62F
330
623
100
AcDbEntity
  8
Visible (ISO)
100
AcDbVertex
100
AcDb2dVertex
 10
468.2077858229045
 20
149.4715261889559
 30
0.0
  0
VERTEX
  5
630
330
623
100
AcDbEntity
  8
Visible (ISO)
100
AcDbVertex
100
AcDb2dVertex
 10
469.1139838476543
 20
149.5153189135653
 30
0.0
  0
VERTEX
  5
631
330
623
100
AcDbEntity
  8
Visible (ISO)
100
AcDbVertex
100
AcDb2dVertex
 10
470.1013157148723
 20
149.5591092539889
 30
0.0
  0
VERTEX
  5
632
330
623
100
AcDbEntity
  8
Visible (ISO)
100
AcDbVertex
100
AcDb2dVertex
 10
471.165109612501
 20
149.6028995944125
 30
0.0
  0
VERTEX
  5
633
330
623
100
AcDbEntity
  8
Visible (ISO)
100
AcDbVertex
100
AcDb2dVertex
 10
472.3003349085216
 20
149.646689934836
 30
0.0
  0
VERTEX
  5
634
330
623
100
AcDbEntity
  8
Visible (ISO)
100
AcDbVertex
100
AcDb2dVertex
 10
473.5016224165325
 20
149.6904802752596
 30
0.0
  0
VERTEX
  5
635
330
623
100
AcDbEntity
  8
Visible (ISO)
100
AcDbVertex
100
AcDb2dVertex
 10
474.7632918138866
 20
149.734272999869
 30
0.0
  0
VERTEX
  5
636
330
623
100
AcDbEntity
  8
Visible (ISO)
100
AcDbVertex
100
AcDb2dVertex
 10
476.0793730993633
 20
149.7780633402926
 30
0.0
  0
VERTEX
  5
637
330
623
100
AcDbEntity
  8
Visible (ISO)
100
AcDbVertex
100
AcDb2dVertex
 10
477.4436435480479
 20
149.8218536807162
 30
0.0
  0
VERTEX
  5
638
330
623
100
AcDbEntity
  8
Visible (ISO)
100
AcDbVertex
100
AcDb2dVertex
 10
478.8496497650509
 20
149.8656440211397
 30
0.0
  0
VERTEX
  5
639
330
623
100
AcDbEntity
  8
Visible (ISO)
100
AcDbVertex
100
AcDb2dVertex
 10
480.2907416601543
 20
149.9094343615633
 30
0.0
  0
VERTEX
  5
63A
330
623
100
AcDbEntity
  8
Visible (ISO)
100
AcDbVertex
100
AcDb2dVertex
 10
481.7601040382747
 20
149.9532270861727
 30
0.0
  0
VERTEX
  5
63B
330
623
100
AcDbEntity
  8
Visible (ISO)
100
AcDbVertex
100
AcDb2dVertex
 10
483.2507864017848
 20
149.9970174265963
 30
0.0
  0
VERTEX
  5
63C
330
623
100
AcDbEntity
  8
Visible (ISO)
100
AcDbVertex
100
AcDb2dVertex
 10
484.7557388623122
 20
150.0408077670199
 30
0.0
  0
VERTEX
  5
63D
330
623
100
AcDbEntity
  8
Visible (ISO)
100
AcDbVertex
100
AcDb2dVertex
 10
486.2678429861431
 20
150.0845981074435
 30
0.0
  0
VERTEX
  5
63E
330
623
100
AcDbEntity
  8
Visible (ISO)
100
AcDbVertex
100
AcDb2dVertex
 10
487.7799471099739
 20
150.1283884478671
 30
0.0
  0
VERTEX
  5
63F
330
623
100
AcDbEntity
  8
Visible (ISO)
100
AcDbVertex
100
AcDb2dVertex
 10
489.2848995705012
 20
150.1721811724764
 30
0.0
  0
VERTEX
  5
640
330
623
100
AcDbEntity
  8
Visible (ISO)
100
AcDbVertex
100
AcDb2dVertex
 10
490.7755819340113
 20
150.2159715129
 30
0.0
  0
VERTEX
  5
641
330
623
100
AcDbEntity
  8
Visible (ISO)
100
AcDbVertex
100
AcDb2dVertex
 10
492.2449443121317
 20
150.2597618533236
 30
0.0
  0
VERTEX
  5
642
330
623
100
AcDbEntity
  8
Visible (ISO)
100
AcDbVertex
100
AcDb2dVertex
 10
493.6860362072352
 20
150.3035521937472
 30
0.0
  0
VERTEX
  5
643
330
623
100
AcDbEntity
  8
Visible (ISO)
100
AcDbVertex
100
AcDb2dVertex
 10
495.0920424242381
 20
150.3473425341708
 30
0.0
  0
VERTEX
  5
644
330
623
100
AcDbEntity
  8
Visible (ISO)
100
AcDbVertex
100
AcDb2dVertex
 10
496.4563128729228
 20
150.3911352587801
 30
0.0
  0
VERTEX
  5
645
330
623
100
AcDbEntity
  8
Visible (ISO)
100
AcDbVertex
100
AcDb2dVertex
 10
497.7723941583994
 20
150.4349255992037
 30
0.0
  0
VERTEX
  5
646
330
623
100
AcDbEntity
  8
Visible (ISO)
100
AcDbVertex
100
AcDb2dVertex
 10
499.0340635557537
 20
150.4787159396273
 30
0.0
  0
VERTEX
  5
647
330
623
100
AcDbEntity
  8
Visible (ISO)
100
AcDbVertex
100
AcDb2dVertex
 10
500.2353510637646
 20
150.5225062800509
 30
0.0
  0
VERTEX
  5
648
330
623
100
AcDbEntity
  8
Visible (ISO)
100
AcDbVertex
100
AcDb2dVertex
 10
501.3705763597851
 20
150.5662966204745
 30
0.0
  0
VERTEX
  5
649
330
623
100
AcDbEntity
  8
Visible (ISO)
100
AcDbVertex
100
AcDb2dVertex
 10
502.4343702574137
 20
150.6100893450838
 30
0.0
  0
VERTEX
  5
64A
330
623
100
AcDbEntity
  8
Visible (ISO)
100
AcDbVertex
100
AcDb2dVertex
 10
503.4217021246318
 20
150.6538796855075
 30
0.0
  0
VERTEX
  5
64B
330
623
100
AcDbEntity
  8
Visible (ISO)
100
AcDbVertex
100
AcDb2dVertex
 10
504.3279001493815
 20
150.697670025931
 30
0.0
  0
VERTEX
  5
64C
330
623
100
AcDbEntity
  8
Visible (ISO)
100
AcDbVertex
100
AcDb2dVertex
 10
505.1486787577037
 20
150.7414603663546
 30
0.0
  0
VERTEX
  5
64D
330
623
100
AcDbEntity
  8
Visible (ISO)
100
AcDbVertex
100
AcDb2dVertex
 10
505.8801564951306
 20
150.785253090964
 30
0.0
  0
VERTEX
  5
64E
330
623
100
AcDbEntity
  8
Visible (ISO)
100
AcDbVertex
100
AcDb2dVertex
 10
506.518873908079
 20
150.8290434313875
 30
0.0
  0
VERTEX
  5
64F
330
623
100
AcDbEntity
  8
Visible (ISO)
100
AcDbVertex
100
AcDb2dVertex
 10
507.0618102331523
 20
150.8728337718111
 30
0.0
  0
VERTEX
  5
650
330
623
100
AcDbEntity
  8
Visible (ISO)
100
AcDbVertex
100
AcDb2dVertex
 10
507.5063965101604
 20
150.9166241122347
 30
0.0
  0
VERTEX
  5
651
330
623
100
AcDbEntity
  8
Visible (ISO)
100
AcDbVertex
100
AcDb2dVertex
 10
507.8505298872356
 20
150.9604144526583
 30
0.0
  0
VERTEX
  5
652
330
623
100
AcDbEntity
  8
Visible (ISO)
100
AcDbVertex
100
AcDb2dVertex
 10
508.0925843496684
 20
151.0042071772677
 30
0.0
  0
VERTEX
  5
653
330
623
100
AcDbEntity
  8
Visible (ISO)
100
AcDbVertex
100
AcDb2dVertex
 10
508.2314154882793
 20
151.0479975176912
 30
0.0
  0
VERTEX
  5
654
330
623
100
AcDbEntity
  8
Visible (ISO)
100
AcDbVertex
100
AcDb2dVertex
 10
508.266362883604
 20
151.0917878581149
 30
0.0
  0
VERTEX
  5
655
330
623
100
AcDbEntity
  8
Visible (ISO)
100
AcDbVertex
100
AcDb2dVertex
 10
508.1972644110087
 20
151.1355781985384
 30
0.0
  0
SEQEND
  5
626
330
623
100
AcDbEntity
  8
Visible (ISO)
  0
POLYLINE
  5
656
330
75
100
AcDbEntity
  8
Visible (ISO)
100
AcDb2dPolyline
 66
     1
 10
0.0
 20
0.0
 30
0.0
 70
   128
  0
VERTEX
  5
657
330
656
100
AcDbEntity
  8
Visible (ISO)
100
AcDbVertex
100
AcDb2dVertex
 10
464.3384215612774
 20
153.0336189700228
 30
0.0
  0
VERTEX
  5
658
330
656
100
AcDbEntity
  8
Visible (ISO)
100
AcDbVertex
100
AcDb2dVertex
 10
464.3326732893352
 20
153.0357432795626
 30
0.0
  0
VERTEX
  5
65A
330
656
100
AcDbEntity
  8
Visible (ISO)
100
AcDbVertex
100
AcDb2dVertex
 10
464.3271658201579
 20
153.0378675891024
 30
0.0
  0
VERTEX
  5
65B
330
656
100
AcDbEntity
  8
Visible (ISO)
100
AcDbVertex
100
AcDb2dVertex
 10
464.3219063063029
 20
153.0399918986422
 30
0.0
  0
VERTEX
  5
65C
330
656
100
AcDbEntity
  8
Visible (ISO)
100
AcDbVertex
100
AcDb2dVertex
 10
464.3168875952128
 20
153.042116208182
 30
0.0
  0
VERTEX
  5
65D
330
656
100
AcDbEntity
  8
Visible (ISO)
100
AcDbVertex
100
AcDb2dVertex
 10
464.3121144552592
 20
153.0442405177218
 30
0.0
  0
VERTEX
  5
65E
330
656
100
AcDbEntity
  8
Visible (ISO)
100
AcDbVertex
100
AcDb2dVertex
 10
464.3075868864421
 20
153.0463624430758
 30
0.0
  0
VERTEX
  5
65F
330
656
100
AcDbEntity
  8
Visible (ISO)
100
AcDbVertex
100
AcDb2dVertex
 10
464.3033025045757
 20
153.0484867526156
 30
0.0
  0
VERTEX
  5
660
330
656
100
AcDbEntity
  8
Visible (ISO)
100
AcDbVertex
100
AcDb2dVertex
 10
464.2992636938457
 20
153.0506110621554
 30
0.0
  0
VERTEX
  5
661
330
656
100
AcDbEntity
  8
Visible (ISO)
100
AcDbVertex
100
AcDb2dVertex
 10
464.2954704542522
 20
153.0527353716952
 30
0.0
  0
VERTEX
  5
662
330
656
100
AcDbEntity
  8
Visible (ISO)
100
AcDbVertex
100
AcDb2dVertex
 10
464.2919204016093
 20
153.054859681235
 30
0.0
  0
VERTEX
  5
663
330
656
100
AcDbEntity
  8
Visible (ISO)
100
AcDbVertex
100
AcDb2dVertex
 10
464.2886135359172
 20
153.0569839907748
 30
0.0
  0
VERTEX
  5
664
330
656
100
AcDbEntity
  8
Visible (ISO)
100
AcDbVertex
100
AcDb2dVertex
 10
464.2855522413616
 20
153.0591083003146
 30
0.0
  0
VERTEX
  5
665
330
656
100
AcDbEntity
  8
Visible (ISO)
100
AcDbVertex
100
AcDb2dVertex
 10
464.2827365179424
 20
153.0612326098544
 30
0.0
  0
VERTEX
  5
666
330
656
100
AcDbEntity
  8
Visible (ISO)
100
AcDbVertex
100
AcDb2dVertex
 10
464.2801663656596
 20
153.0633569193942
 30
0.0
  0
VERTEX
  5
667
330
656
100
AcDbEntity
  8
Visible (ISO)
100
AcDbVertex
100
AcDb2dVertex
 10
464.2778394003276
 20
153.0654812289339
 30
0.0
  0
VERTEX
  5
668
330
656
100
AcDbEntity
  8
Visible (ISO)
100
AcDbVertex
100
AcDb2dVertex
 10
464.2757580061321
 20
153.0676055384738
 30
0.0
  0
VERTEX
  5
669
330
656
100
AcDbEntity
  8
Visible (ISO)
100
AcDbVertex
100
AcDb2dVertex
 10
464.273922183073
 20
153.0697298480135
 30
0.0
  0
VERTEX
  5
66A
330
656
100
AcDbEntity
  8
Visible (ISO)
100
AcDbVertex
100
AcDb2dVertex
 10
464.2723295469646
 20
153.0718541575533
 30
0.0
  0
VERTEX
  5
66B
330
656
100
AcDbEntity
  8
Visible (ISO)
100
AcDbVertex
100
AcDb2dVertex
 10
464.2709824819927
 20
153.0739784670931
 30
0.0
  0
VERTEX
  5
66C
330
656
100
AcDbEntity
  8
Visible (ISO)
100
AcDbVertex
100
AcDb2dVertex
 10
464.2698809881572
 20
153.0761027766329
 30
0.0
  0
VERTEX
  5
66D
330
656
100
AcDbEntity
  8
Visible (ISO)
100
AcDbVertex
100
AcDb2dVertex
 10
464.2690226812725
 20
153.0782270861727
 30
0.0
  0
VERTEX
  5
66E
330
656
100
AcDbEntity
  8
Visible (ISO)
100
AcDbVertex
100
AcDb2dVertex
 10
464.2684099455242
 20
153.0803513957125
 30
0.0
  0
VERTEX
  5
66F
330
656
100
AcDbEntity
  8
Visible (ISO)
100
AcDbVertex
100
AcDb2dVertex
 10
464.2680427809123
 20
153.0824733210665
 30
0.0
  0
VERTEX
  5
670
330
656
100
AcDbEntity
  8
Visible (ISO)
100
AcDbVertex
100
AcDb2dVertex
 10
464.267921187437
 20
153.0845976306063
 30
0.0
  0
SEQEND
  5
659
330
656
100
AcDbEntity
  8
Visible (ISO)
  0
POLYLINE
  5
671
330
75
100
AcDbEntity
  8
Visible (ISO)
100
AcDb2dPolyline
 66
     1
 10
0.0
 20
0.0
 30
0.0
 70
   128
  0
VERTEX
  5
672
330
671
100
AcDbEntity
  8
Visible (ISO)
100
AcDbVertex
100
AcDb2dVertex
 10
465.3106615324382
 20
145.487332387076
 30
0.0
  0
VERTEX
  5
673
330
671
100
AcDbEntity
  8
Visible (ISO)
100
AcDbVertex
100
AcDb2dVertex
 10
465.4929420729045
 20
145.5332184268099
 30
0.0
  0
VERTEX
  5
675
330
671
100
AcDbEntity
  8
Visible (ISO)
100
AcDbVertex
100
AcDb2dVertex
 10
465.7851693411235
 20
145.5790663195711
 30
0.0
  0
VERTEX
  5
676
330
671
100
AcDbEntity
  8
Visible (ISO)
100
AcDbVertex
100
AcDb2dVertex
 10
466.1861536283855
 20
145.6249428225619
 30
0.0
  0
VERTEX
  5
677
330
671
100
AcDbEntity
  8
Visible (ISO)
100
AcDbVertex
100
AcDb2dVertex
 10
466.6947111864452
 20
145.6709051562411
 30
0.0
  0
VERTEX
  5
678
330
671
100
AcDbEntity
  8
Visible (ISO)
100
AcDbVertex
100
AcDb2dVertex
 10
467.3081192751292
 20
145.7169151736361
 30
0.0
  0
VERTEX
  5
679
330
671
100
AcDbEntity
  8
Visible (ISO)
100
AcDbVertex
100
AcDb2dVertex
 10
468.0208692331676
 20
145.7628107501131
 30
0.0
  0
VERTEX
  5
67A
330
671
100
AcDbEntity
  8
Visible (ISO)
100
AcDbVertex
100
AcDb2dVertex
 10
468.829506375349
 20
145.8086491061312
 30
0.0
  0
VERTEX
  5
67B
330
671
100
AcDbEntity
  8
Visible (ISO)
100
AcDbVertex
100
AcDb2dVertex
 10
469.7306523104076
 20
145.8544922305209
 30
0.0
  0
VERTEX
  5
67C
330
671
100
AcDbEntity
  8
Visible (ISO)
100
AcDbVertex
100
AcDb2dVertex
 10
470.7209298391703
 20
145.9004021121126
 30
0.0
  0
VERTEX
  5
67D
330
671
100
AcDbEntity
  8
Visible (ISO)
100
AcDbVertex
100
AcDb2dVertex
 10
471.7961284895306
 20
145.9464073611361
 30
0.0
  0
VERTEX
  5
67E
330
671
100
AcDbEntity
  8
Visible (ISO)
100
AcDbVertex
100
AcDb2dVertex
 10
472.9463014383678
 20
145.9923220110995
 30
0.0
  0
VERTEX
  5
67F
330
671
100
AcDbEntity
  8
Visible (ISO)
100
AcDbVertex
100
AcDb2dVertex
 10
474.1652903337841
 20
146.0381603671175
 30
0.0
  0
VERTEX
  5
680
330
671
100
AcDbEntity
  8
Visible (ISO)
100
AcDbVertex
100
AcDb2dVertex
 10
475.4480359335308
 20
146.0839796496492
 30
0.0
  0
VERTEX
  5
681
330
671
100
AcDbEntity
  8
Visible (ISO)
100
AcDbVertex
100
AcDb2dVertex
 10
476.7894783993129
 20
146.1298466158968
 30
0.0
  0
VERTEX
  5
682
330
671
100
AcDbEntity
  8
Visible (ISO)
100
AcDbVertex
100
AcDb2dVertex
 10
478.1844994802837
 20
146.1758137179476
 30
0.0
  0
VERTEX
  5
683
330
671
100
AcDbEntity
  8
Visible (ISO)
100
AcDbVertex
100
AcDb2dVertex
 10
479.6217885990505
 20
146.2217522097689
 30
0.0
  0
VERTEX
  5
684
330
671
100
AcDbEntity
  8
Visible (ISO)
100
AcDbVertex
100
AcDb2dVertex
 10
481.0914454241161
 20
146.2675953341586
 30
0.0
  0
VERTEX
  5
685
330
671
100
AcDbEntity
  8
Visible (ISO)
100
AcDbVertex
100
AcDb2dVertex
 10
482.5874892254238
 20
146.3134003115755
 30
0.0
  0
VERTEX
  5
686
330
671
100
AcDbEntity
  8
Visible (ISO)
100
AcDbVertex
100
AcDb2dVertex
 10
484.1039382298355
 20
146.3592243624789
 30
0.0
  0
VERTEX
  5
687
330
671
100
AcDbEntity
  8
Visible (ISO)
100
AcDbVertex
100
AcDb2dVertex
 10
485.6348110367421
 20
146.4051390124422
 30
0.0
  0
VERTEX
  5
688
330
671
100
AcDbEntity
  8
Visible (ISO)
100
AcDbVertex
100
AcDb2dVertex
 10
487.1709593762521
 20
146.4511013461214
 30
0.0
  0
VERTEX
  5
689
330
671
100
AcDbEntity
  8
Visible (ISO)
100
AcDbVertex
100
AcDb2dVertex
 10
488.6988653619651
 20
146.4969540072542
 30
0.0
  0
VERTEX
  5
68A
330
671
100
AcDbEntity
  8
Visible (ISO)
100
AcDbVertex
100
AcDb2dVertex
 10
490.2122012157802
 20
146.5427494479281
 30
0.0
  0
VERTEX
  5
68B
330
671
100
AcDbEntity
  8
Visible (ISO)
100
AcDbVertex
100
AcDb2dVertex
 10
491.7049608011608
 20
146.5885448886019
 30
0.0
  0
VERTEX
  5
68C
330
671
100
AcDbEntity
  8
Visible (ISO)
100
AcDbVertex
100
AcDb2dVertex
 10
493.171137311018
 20
146.6344070864779
 30
0.0
  0
VERTEX
  5
68D
330
671
100
AcDbEntity
  8
Visible (ISO)
100
AcDbVertex
100
AcDb2dVertex
 10
494.603888728178
 20
146.6803646517855
 30
0.0
  0
VERTEX
  5
68E
330
671
100
AcDbEntity
  8
Visible (ISO)
100
AcDbVertex
100
AcDb2dVertex
 10
495.9899983187083
 20
146.7262363864046
 30
0.0
  0
VERTEX
  5
68F
330
671
100
AcDbEntity
  8
Visible (ISO)
100
AcDbVertex
100
AcDb2dVertex
 10
497.3225042600994
 20
146.7720318270785
 30
0.0
  0
VERTEX
  5
690
330
671
100
AcDbEntity
  8
Visible (ISO)
100
AcDbVertex
100
AcDb2dVertex
 10
498.5962734003429
 20
146.8178034258944
 30
0.0
  0
VERTEX
  5
691
330
671
100
AcDbEntity
  8
Visible (ISO)
100
AcDbVertex
100
AcDb2dVertex
 10
499.8061761637096
 20
146.8636179400546
 30
0.0
  0
VERTEX
  5
692
330
671
100
AcDbEntity
  8
Visible (ISO)
100
AcDbVertex
100
AcDb2dVertex
 10
500.9470674772623
 20
146.9095373583895
 30
0.0
  0
VERTEX
  5
693
330
671
100
AcDbEntity
  8
Visible (ISO)
100
AcDbVertex
100
AcDb2dVertex
 10
502.0097729940776
 20
146.9554377032381
 30
0.0
  0
VERTEX
  5
694
330
671
100
AcDbEntity
  8
Visible (ISO)
100
AcDbVertex
100
AcDb2dVertex
 10
502.9870197553996
 20
147.0012379122835
 30
0.0
  0
VERTEX
  5
695
330
671
100
AcDbEntity
  8
Visible (ISO)
100
AcDbVertex
100
AcDb2dVertex
 10
503.8753149290447
 20
147.0469952059847
 30
0.0
  0
VERTEX
  5
696
330
671
100
AcDbEntity
  8
Visible (ISO)
100
AcDbVertex
100
AcDb2dVertex
 10
504.6711716432932
 20
147.0927715731722
 30
0.0
  0
VERTEX
  5
697
330
671
100
AcDbEntity
  8
Visible (ISO)
100
AcDbVertex
100
AcDb2dVertex
 10
505.3710982580547
 20
147.1386337710482
 30
0.0
  0
VERTEX
  5
698
330
671
100
AcDbEntity
  8
Visible (ISO)
100
AcDbVertex
100
AcDb2dVertex
 10
505.9706494589214
 20
147.1845531893832
 30
0.0
  0
VERTEX
  5
699
330
671
100
AcDbEntity
  8
Visible (ISO)
100
AcDbVertex
100
AcDb2dVertex
 10
506.4645788450603
 20
147.2303677035433
 30
0.0
  0
VERTEX
  5
69A
330
671
100
AcDbEntity
  8
Visible (ISO)
100
AcDbVertex
100
AcDb2dVertex
 10
506.8513462324504
 20
147.2761154605013
 30
0.0
  0
VERTEX
  5
69B
330
671
100
AcDbEntity
  8
Visible (ISO)
100
AcDbVertex
100
AcDb2dVertex
 10
507.1296236296062
 20
147.3218679858309
 30
0.0
  0
VERTEX
  5
69C
330
671
100
AcDbEntity
  8
Visible (ISO)
100
AcDbVertex
100
AcDb2dVertex
 10
507.2980878134135
 20
147.3676729632479
 30
0.0
  0
VERTEX
  5
69D
330
671
100
AcDbEntity
  8
Visible (ISO)
100
AcDbVertex
100
AcDb2dVertex
 10
507.3554084082011
 20
147.4135828448397
 30
0.0
  0
SEQEND
  5
674
330
671
100
AcDbEntity
  8
Visible (ISO)
  0
POLYLINE
  5
69E
330
75
100
AcDbEntity
  8
Visible (ISO)
100
AcDb2dPolyline
 66
     1
 10
0.0
 20
0.0
 30
0.0
 70
   128
  0
VERTEX
  5
69F
330
69E
100
AcDbEntity
  8
Visible (ISO)
100
AcDbVertex
100
AcDb2dVertex
 10
465.1938364286785
 20
149.4450593424898
 30
0.0
  0
VERTEX
  5
6A0
330
69E
100
AcDbEntity
  8
Visible (ISO)
100
AcDbVertex
100
AcDb2dVertex
 10
465.370809771574
 20
149.4898558093172
 30
0.0
  0
VERTEX
  5
6A2
330
69E
100
AcDbEntity
  8
Visible (ISO)
100
AcDbVertex
100
AcDb2dVertex
 10
465.6534693022137
 20
149.5346546603304
 30
0.0
  0
VERTEX
  5
6A3
330
69E
100
AcDbEntity
  8
Visible (ISO)
100
AcDbVertex
100
AcDb2dVertex
 10
466.0409853239421
 20
149.57951788436
 30
0.0
  0
VERTEX
  5
6A4
330
69E
100
AcDbEntity
  8
Visible (ISO)
100
AcDbVertex
100
AcDb2dVertex
 10
466.5322313089732
 20
149.6244717074496
 30
0.0
  0
VERTEX
  5
6A5
330
69E
100
AcDbEntity
  8
Visible (ISO)
100
AcDbVertex
100
AcDb2dVertex
 10
467.1228918810252
 20
149.6693492365938
 30
0.0
  0
VERTEX
  5
6A6
330
69E
100
AcDbEntity
  8
Visible (ISO)
100
AcDbVertex
100
AcDb2dVertex
 10
467.8094789762859
 20
149.7141480876071
 30
0.0
  0
VERTEX
  5
6A7
330
69E
100
AcDbEntity
  8
Visible (ISO)
100
AcDbVertex
100
AcDb2dVertex
 10
468.5890660066966
 20
149.7589230967623
 30
0.0
  0
VERTEX
  5
6A8
330
69E
100
AcDbEntity
  8
Visible (ISO)
100
AcDbVertex
100
AcDb2dVertex
 10
469.4587311525706
 20
149.8037338687045
 30
0.0
  0
VERTEX
  5
6A9
330
69E
100
AcDbEntity
  8
Visible (ISO)
100
AcDbVertex
100
AcDb2dVertex
 10
470.4155490179424
 20
149.8486352397066
 30
0.0
  0
VERTEX
  5
6AA
330
69E
100
AcDbEntity
  8
Visible (ISO)
100
AcDbVertex
100
AcDb2dVertex
 10
471.4533827085856
 20
149.8935533000094
 30
0.0
  0
VERTEX
  5
6AB
330
69E
100
AcDbEntity
  8
Visible (ISO)
100
AcDbVertex
100
AcDb2dVertex
 10
472.5639769811992
 20
149.9383664561373
 30
0.0
  0
VERTEX
  5
6AC
330
69E
100
AcDbEntity
  8
Visible (ISO)
100
AcDbVertex
100
AcDb2dVertex
 10
473.7427375097636
 20
149.9831319285494
 30
0.0
  0
VERTEX
  5
6AD
330
69E
100
AcDbEntity
  8
Visible (ISO)
100
AcDbVertex
100
AcDb2dVertex
 10
474.9850854654674
 20
150.0279045535189
 30
0.0
  0
VERTEX
  5
6AE
330
69E
100
AcDbEntity
  8
Visible (ISO)
100
AcDbVertex
100
AcDb2dVertex
 10
476.2864438076381
 20
150.0727415515048
 30
0.0
  0
VERTEX
  5
6AF
330
69E
100
AcDbEntity
  8
Visible (ISO)
100
AcDbVertex
100
AcDb2dVertex
 10
477.6412675161723
 20
150.1176667643649
 30
0.0
  0
VERTEX
  5
6B0
330
69E
100
AcDbEntity
  8
Visible (ISO)
100
AcDbVertex
100
AcDb2dVertex
 10
479.0374330063229
 20
150.1625085307223
 30
0.0
  0
VERTEX
  5
6B1
330
69E
100
AcDbEntity
  8
Visible (ISO)
100
AcDbVertex
100
AcDb2dVertex
 10
480.4679802437191
 20
150.2072740031344
 30
0.0
  0
VERTEX
  5
6B2
330
69E
100
AcDbEntity
  8
Visible (ISO)
100
AcDbVertex
100
AcDb2dVertex
 10
481.9273674865131
 20
150.2520204020602
 30
0.0
  0
VERTEX
  5
6B3
330
69E
100
AcDbEntity
  8
Visible (ISO)
100
AcDbVertex
100
AcDb2dVertex
 10
483.4100526948336
 20
150.2968049479586
 30
0.0
  0
VERTEX
  5
6B4
330
69E
100
AcDbEntity
  8
Visible (ISO)
100
AcDbVertex
100
AcDb2dVertex
 10
484.9104944248562
 20
150.3416824771029
 30
0.0
  0
VERTEX
  5
6B5
330
69E
100
AcDbEntity
  8
Visible (ISO)
100
AcDbVertex
100
AcDb2dVertex
 10
486.4181516324047
 20
150.3865647746187
 30
0.0
  0
VERTEX
  5
6B6
330
69E
100
AcDbEntity
  8
Visible (ISO)
100
AcDbVertex
100
AcDb2dVertex
 10
487.9218155522708
 20
150.4313445521456
 30
0.0
  0
VERTEX
  5
6B7
330
69E
100
AcDbEntity
  8
Visible (ISO)
100
AcDbVertex
100
AcDb2dVertex
 10
489.415807165659
 20
150.4760790301424
 30
0.0
  0
VERTEX
  5
6B8
330
69E
100
AcDbEntity
  8
Visible (ISO)
100
AcDbVertex
100
AcDb2dVertex
 10
490.8944508810406
 20
150.5208230448824
 30
0.0
  0
VERTEX
  5
6B9
330
69E
100
AcDbEntity
  8
Visible (ISO)
100
AcDbVertex
100
AcDb2dVertex
 10
492.3520717401865
 20
150.5656338168246
 30
0.0
  0
VERTEX
  5
6BA
330
69E
100
AcDbEntity
  8
Visible (ISO)
100
AcDbVertex
100
AcDb2dVertex
 10
493.7817898769741
 20
150.6105304194552
 30
0.0
  0
VERTEX
  5
6BB
330
69E
100
AcDbEntity
  8
Visible (ISO)
100
AcDbVertex
100
AcDb2dVertex
 10
495.170784928358
 20
150.6553388072115
 30
0.0
  0
VERTEX
  5
6BC
330
69E
100
AcDbEntity
  8
Visible (ISO)
100
AcDbVertex
100
AcDb2dVertex
 10
496.5128025789623
 20
150.7000709010226
 30
0.0
  0
VERTEX
  5
6BD
330
69E
100
AcDbEntity
  8
Visible (ISO)
100
AcDbVertex
100
AcDb2dVertex
 10
497.8028831262951
 20
150.7447886897189
 30
0.0
  0
VERTEX
  5
6BE
330
69E
100
AcDbEntity
  8
Visible (ISO)
100
AcDbVertex
100
AcDb2dVertex
 10
499.0360686560038
 20
150.7895470095736
 30
0.0
  0
VERTEX
  5
6BF
330
69E
100
AcDbEntity
  8
Visible (ISO)
100
AcDbVertex
100
AcDb2dVertex
 10
500.2073988695507
 20
150.8343983126742
 30
0.0
  0
VERTEX
  5
6C0
330
69E
100
AcDbEntity
  8
Visible (ISO)
100
AcDbVertex
100
AcDb2dVertex
 10
501.3080808897381
 20
150.879247231589
 30
0.0
  0
VERTEX
  5
6C1
330
69E
100
AcDbEntity
  8
Visible (ISO)
100
AcDbVertex
100
AcDb2dVertex
 10
502.3305103559856
 20
150.9239936305147
 30
0.0
  0
VERTEX
  5
6C2
330
69E
100
AcDbEntity
  8
Visible (ISO)
100
AcDbVertex
100
AcDb2dVertex
 10
503.2711848993663
 20
150.9686971140963
 30
0.0
  0
VERTEX
  5
6C3
330
69E
100
AcDbEntity
  8
Visible (ISO)
100
AcDbVertex
100
AcDb2dVertex
 10
504.126604535139
 20
151.0134125186068
 30
0.0
  0
VERTEX
  5
6C4
330
69E
100
AcDbEntity
  8
Visible (ISO)
100
AcDbVertex
100
AcDb2dVertex
 10
504.8932704706554
 20
151.0581970645052
 30
0.0
  0
VERTEX
  5
6C5
330
69E
100
AcDbEntity
  8
Visible (ISO)
100
AcDbVertex
100
AcDb2dVertex
 10
505.5670616407756
 20
151.1030650569063
 30
0.0
  0
VERTEX
  5
6C6
330
69E
100
AcDbEntity
  8
Visible (ISO)
100
AcDbVertex
100
AcDb2dVertex
 10
506.1419722814922
 20
151.1478376818758
 30
0.0
  0
VERTEX
  5
6C7
330
69E
100
AcDbEntity
  8
Visible (ISO)
100
AcDbVertex
100
AcDb2dVertex
 10
506.6159317274455
 20
151.1925387812716
 30
0.0
  0
VERTEX
  5
6C8
330
69E
100
AcDbEntity
  8
Visible (ISO)
100
AcDbVertex
100
AcDb2dVertex
 10
506.9874188681011
 20
151.2372279597384
 30
0.0
  0
VERTEX
  5
6C9
330
69E
100
AcDbEntity
  8
Visible (ISO)
100
AcDbVertex
100
AcDb2dVertex
 10
507.2549149771098
 20
151.2819576693636
 30
0.0
  0
VERTEX
  5
6CA
330
69E
100
AcDbEntity
  8
Visible (ISO)
100
AcDbVertex
100
AcDb2dVertex
 10
507.4168989439372
 20
151.3267851306063
 30
0.0
  0
VERTEX
  5
6CB
330
69E
100
AcDbEntity
  8
Visible (ISO)
100
AcDbVertex
100
AcDb2dVertex
 10
507.4718425054911
 20
151.3715982867342
 30
0.0
  0
SEQEND
  5
6A1
330
69E
100
AcDbEntity
  8
Visible (ISO)
  0
LINE
  5
6CC
330
75
100
AcDbEntity
  8
Visible (ISO)
100
AcDbLine
 10
464.2679209198868
 20
153.084598580996
 30
0.0
 11
465.0056256782906
 21
153.3506048664452
 31
0.0
  0
LINE
  5
6CD
330
75
100
AcDbEntity
  8
Visible (ISO)
100
AcDbLine
 10
465.0056256782906
 20
153.3506048664452
 30
0.0
 11
465.0214438311918
 21
152.8128884851159
 31
0.0
  0
LINE
  5
6CE
330
75
100
AcDbEntity
  8
Visible (ISO)
100
AcDbLine
 10
465.0222275038127
 20
152.7862286997897
 30
0.0
 11
464.3384215612774
 21
153.0336189700228
 31
0.0
  0
LINE
  5
6CF
330
75
100
AcDbEntity
  8
Visible (ISO)
100
AcDbLine
 10
465.1411626119975
 20
148.7431955767733
 30
0.0
 11
464.3384215612774
 21
149.0336180163485
 31
0.0
  0
LINE
  5
6D0
330
75
100
AcDbEntity
  8
Visible (ISO)
100
AcDbLine
 10
508.1972644110087
 20
147.0336199236971
 30
0.0
 11
507.2606704016093
 21
146.6947603655917
 31
0.0
  0
LINE
  5
6D1
330
75
100
AcDbEntity
  8
Visible (ISO)
100
AcDbLine
 10
508.1972644110087
 20
151.0336184931857
 30
0.0
 11
507.380017973936
 21
150.7379484606844
 31
0.0
  0
LINE
  5
6D2
330
75
100
AcDbEntity
  8
Visible (ISO)
100
AcDbLine
 10
507.3561832685832
 20
147.439875645743
 30
0.0
 11
508.1972644110087
 21
147.1355772448641
 31
0.0
  0
LINE
  5
6D3
330
75
100
AcDbEntity
  8
Visible (ISO)
100
AcDbLine
 10
507.4726125975018
 20
151.3977456523043
 30
0.0
 11
508.1972644110087
 21
151.1355781985384
 31
0.0
  0
LINE
  5
6D4
330
75
100
AcDbEntity
  8
Visible (ISO)
100
AcDbLine
 10
464.3384215612774
 20
145.1355791522127
 30
0.0
 11
465.3106591482524
 21
145.487332387076
 31
0.0
  0
LINE
  5
6D5
330
75
100
AcDbEntity
  8
Visible (ISO)
100
AcDbLine
 10
464.3384215612774
 20
149.1355777217013
 30
0.0
 11
465.1938316603069
 21
149.4450593424898
 31
0.0
  0
LINE
  5
6D6
330
75
100
AcDbEntity
  8
Visible Narrow (ISO)
100
AcDbLine
 10
508.2703784867611
 20
187.8399456291812
 30
0.0
 11
464.2653074855251
 21
187.8399456291812
 31
0.0
  0
LINE
  5
6D7
330
75
100
AcDbEntity
  8
Visible Narrow (ISO)
100
AcDbLine
 10
463.4794894676074
 20
188.7895214900068
 30
0.0
 11
509.0561965046787
 21
188.7895214900068
 31
0.0
  0
ARC
  5
6D8
330
75
100
AcDbEntity
  8
Visible (ISO)
100
AcDbCircle
 10
509.5442104519007
 20
187.8105410702692
 30
0.0
 40
1.0
100
AcDbArc
 50
101.7682889320215
 51
178.3149999999991
  0
ARC
  5
6D9
330
75
100
AcDbEntity
  8
Visible (ISO)
100
AcDbCircle
 10
462.9914755203854
 20
187.8105410702692
 30
0.0
 40
1.0
100
AcDbArc
 50
1.684999999999623
 51
78.23171106797818
  0
LINE
  5
6DA
330
75
100
AcDbEntity
  8
Visible (ISO)
100
AcDbLine
 10
507.273482702881
 20
144.6286020709139
 30
0.0
 11
465.2622032694051
 21
144.6286020709139
 31
0.0
  0
LINE
  5
6DB
330
75
100
AcDbEntity
  8
Visible (ISO)
100
AcDbLine
 10
465.2622032694051
 20
144.6286020709139
 30
0.0
 11
465.2593051715653
 21
144.7271189263813
 31
0.0
  0
LINE
  5
6DC
330
75
100
AcDbEntity
  8
Visible (ISO)
100
AcDbLine
 10
465.237718178757
 20
145.4609390967354
 30
0.0
 11
465.1403745013785
 21
148.7700037057486
 31
0.0
  0
LINE
  5
6DD
330
75
100
AcDbEntity
  8
Visible (ISO)
100
AcDbLine
 10
465.1212883785314
 20
149.4188102367668
 30
0.0
 11
465.0214438311918
 21
152.8128884851159
 31
0.0
  0
LINE
  5
6DE
330
75
100
AcDbEntity
  8
Visible (ISO)
100
AcDbLine
 10
465.0056256782906
 20
153.3506048664452
 30
0.0
 11
464.9194919671322
 21
156.278602070914
 31
0.0
  0
LINE
  5
6DF
330
75
100
AcDbEntity
  8
Visible (ISO)
100
AcDbLine
 10
464.3693888467459
 20
174.978602070914
 30
0.0
 11
463.9910431128548
 21
187.8399456291812
 31
0.0
  0
LINE
  5
6E0
330
75
100
AcDbEntity
  8
Visible (ISO)
100
AcDbLine
 10
507.273482702881
 20
144.6286020709139
 30
0.0
 11
507.3350553003505
 21
146.721677950705
 31
0.0
  0
LINE
  5
6E1
330
75
100
AcDbEntity
  8
Visible (ISO)
100
AcDbLine
 10
507.3554092249955
 20
147.4135816624942
 30
0.0
 11
507.4539903847428
 21
150.7647127849274
 31
0.0
  0
LINE
  5
6E2
330
75
100
AcDbEntity
  8
Visible (ISO)
100
AcDbLine
 10
507.4718432709955
 20
151.3715971317948
 30
0.0
 11
508.5446428594313
 21
187.8399456291812
 31
0.0
  0
POLYLINE
  5
6E3
330
75
100
AcDbEntity
  8
Visible (ISO)
100
AcDb2dPolyline
 66
     1
 10
0.0
 20
0.0
 30
0.0
 70
   128
  0
VERTEX
  5
6E4
330
6E3
100
AcDbEntity
  8
Visible (ISO)
100
AcDbVertex
100
AcDb2dVertex
 10
464.3693897505168
 20
174.9786019755465
 30
0.0
  0
VERTEX
  5
6E5
330
6E3
100
AcDbEntity
  8
Visible (ISO)
100
AcDbVertex
100
AcDb2dVertex
 10
464.4064280767802
 20
174.8982739878756
 30
0.0
  0
VERTEX
  5
6E7
330
6E3
100
AcDbEntity
  8
Visible (ISO)
100
AcDbVertex
100
AcDb2dVertex
 10
464.5143601675395
 20
174.6579790545565
 30
0.0
  0
VERTEX
  5
6E8
330
6E3
100
AcDbEntity
  8
Visible (ISO)
100
AcDbVertex
100
AcDb2dVertex
 10
464.6884033460979
 20
174.2587495280367
 30
0.0
  0
VERTEX
  5
6E9
330
6E3
100
AcDbEntity
  8
Visible (ISO)
100
AcDbVertex
100
AcDb2dVertex
 10
464.9198505659465
 20
173.7062621546847
 30
0.0
  0
VERTEX
  5
6EA
330
6E3
100
AcDbEntity
  8
Visible (ISO)
100
AcDbVertex
100
AcDb2dVertex
 10
465.1887843389872
 20
173.0253088904482
 30
0.0
  0
VERTEX
  5
6EB
330
6E3
100
AcDbEntity
  8
Visible (ISO)
100
AcDbVertex
100
AcDb2dVertex
 10
465.4738638182048
 20
172.2455835772616
 30
0.0
  0
VERTEX
  5
6EC
330
6E3
100
AcDbEntity
  8
Visible (ISO)
100
AcDbVertex
100
AcDb2dVertex
 10
465.7651517172221
 20
171.362496657477
 30
0.0
  0
VERTEX
  5
6ED
330
6E3
100
AcDbEntity
  8
Visible (ISO)
100
AcDbVertex
100
AcDb2dVertex
 10
466.0545012731914
 20
170.3591430617434
 30
0.0
  0
VERTEX
  5
6EE
330
6E3
100
AcDbEntity
  8
Visible (ISO)
100
AcDbVertex
100
AcDb2dVertex
 10
466.3188943643931
 20
169.2591667605502
 30
0.0
  0
VERTEX
  5
6EF
330
6E3
100
AcDbEntity
  8
Visible (ISO)
100
AcDbVertex
100
AcDb2dVertex
 10
466.5349421282177
 20
168.0875540209872
 30
0.0
  0
VERTEX
  5
6F0
330
6E3
100
AcDbEntity
  8
Visible (ISO)
100
AcDbVertex
100
AcDb2dVertex
 10
466.6878530760173
 20
166.8782997561556
 30
0.0
  0
VERTEX
  5
6F1
330
6E3
100
AcDbEntity
  8
Visible (ISO)
100
AcDbVertex
100
AcDb2dVertex
 10
466.7690036077861
 20
165.6691766215426
 30
0.0
  0
VERTEX
  5
6F2
330
6E3
100
AcDbEntity
  8
Visible (ISO)
100
AcDbVertex
100
AcDb2dVertex
 10
466.7721698065165
 20
164.4649005366427
 30
0.0
  0
VERTEX
  5
6F3
330
6E3
100
AcDbEntity
  8
Visible (ISO)
100
AcDbVertex
100
AcDb2dVertex
 10
466.7011496801738
 20
163.2506323290926
 30
0.0
  0
VERTEX
  5
6F4
330
6E3
100
AcDbEntity
  8
Visible (ISO)
100
AcDbVertex
100
AcDb2dVertex
 10
466.5620050211315
 20
162.066180749045
 30
0.0
  0
VERTEX
  5
6F5
330
6E3
100
AcDbEntity
  8
Visible (ISO)
100
AcDbVertex
100
AcDb2dVertex
 10
466.3650700827007
 20
160.9498691989046
 30
0.0
  0
VERTEX
  5
6F6
330
6E3
100
AcDbEntity
  8
Visible (ISO)
100
AcDbVertex
100
AcDb2dVertex
 10
466.1328456182841
 20
159.9297762347323
 30
0.0
  0
VERTEX
  5
6F7
330
6E3
100
AcDbEntity
  8
Visible (ISO)
100
AcDbVertex
100
AcDb2dVertex
 10
465.8884641905193
 20
159.0312123728854
 30
0.0
  0
VERTEX
  5
6F8
330
6E3
100
AcDbEntity
  8
Visible (ISO)
100
AcDbVertex
100
AcDb2dVertex
 10
465.6446192045573
 20
158.2458210421664
 30
0.0
  0
VERTEX
  5
6F9
330
6E3
100
AcDbEntity
  8
Visible (ISO)
100
AcDbVertex
100
AcDb2dVertex
 10
465.4098746557598
 20
157.5596499873262
 30
0.0
  0
VERTEX
  5
6FA
330
6E3
100
AcDbEntity
  8
Visible (ISO)
100
AcDbVertex
100
AcDb2dVertex
 10
465.2049157400493
 20
157.0026278925997
 30
0.0
  0
VERTEX
  5
6FB
330
6E3
100
AcDbEntity
  8
Visible (ISO)
100
AcDbVertex
100
AcDb2dVertex
 10
465.0494715948466
 20
156.6004920436007
 30
0.0
  0
VERTEX
  5
6FC
330
6E3
100
AcDbEntity
  8
Visible (ISO)
100
AcDbVertex
100
AcDb2dVertex
 10
464.952769019163
 20
156.3591003848177
 30
0.0
  0
VERTEX
  5
6FD
330
6E3
100
AcDbEntity
  8
Visible (ISO)
100
AcDbVertex
100
AcDb2dVertex
 10
464.9194929380779
 20
156.2786031199557
 30
0.0
  0
SEQEND
  5
6E6
330
6E3
100
AcDbEntity
  8
Visible (ISO)
  0
LINE
  5
6FE
330
75
100
AcDbEntity
  8
Visible (ISO)
100
AcDbLine
 10
464.9194919671322
 20
156.278602070914
 30
0.0
 11
454.067842986143
 21
156.278602070914
 31
0.0
  0
LINE
  5
6FF
330
75
100
AcDbEntity
  8
Visible (ISO)
100
AcDbLine
 10
464.3693888467459
 20
174.9786020709139
 30
0.0
 11
454.067842986143
 21
174.9786020709139
 31
0.0
  0
LINE
  5
700
330
75
100
AcDbEntity
  8
Visible (ISO)
100
AcDbLine
 10
456.767842986143
 20
190.1286020709139
 30
0.0
 11
515.7678429861431
 21
190.1286020709139
 31
0.0
  0
LINE
  5
701
330
75
100
AcDbEntity
  8
Visible (ISO)
100
AcDbLine
 10
456.767842986143
 20
192.1286020709139
 30
0.0
 11
515.7678429861431
 21
192.1286020709139
 31
0.0
  0
LINE
  5
702
330
75
100
AcDbEntity
  8
Visible (ISO)
100
AcDbLine
 10
463.1954297744973
 20
188.7895214900068
 30
0.0
 11
456.767842986143
 21
190.1286020709139
 31
0.0
  0
LINE
  5
703
330
75
100
AcDbEntity
  8
Visible (ISO)
100
AcDbLine
 10
509.3402561977888
 20
188.7895214900068
 30
0.0
 11
515.7678429861431
 21
190.1286020709139
 31
0.0
  0
LINE
  5
704
330
75
100
AcDbEntity
  8
Visible (ISO)
100
AcDbLine
 10
515.7678429861431
 20
192.1286020709139
 30
0.0
 11
515.7678429861431
 21
190.1286020709139
 31
0.0
  0
LINE
  5
705
330
75
100
AcDbEntity
  8
Visible (ISO)
100
AcDbLine
 10
456.767842986143
 20
192.1286020709139
 30
0.0
 11
456.767842986143
 21
190.1286020709139
 31
0.0
  0
LINE
  5
706
330
75
100
AcDbEntity
  8
Visible Narrow (ISO)
100
AcDbLine
 10
505.7938428954858
 20
144.6286020709139
 30
0.0
 11
505.8490688482152
 21
146.5059324800124
 31
0.0
  0
LINE
  5
707
330
75
100
AcDbEntity
  8
Visible Narrow (ISO)
100
AcDbLine
 10
505.8687850769988
 20
147.1761585968771
 30
0.0
 11
505.9680198297463
 21
150.5495077156275
 31
0.0
  0
LINE
  5
708
330
75
100
AcDbEntity
  8
Visible Narrow (ISO)
100
AcDbLine
 10
505.9852385646395
 20
151.1348349580448
 30
0.0
 11
506.0585984079713
 21
153.6286020709139
 31
0.0
  0
LINE
  5
709
330
75
100
AcDbEntity
  8
Visible Narrow (ISO)
100
AcDbLine
 10
466.4770875643148
 20
153.6286020709139
 30
0.0
 11
466.5947272594539
 21
149.6296022151114
 31
0.0
  0
LINE
  5
70A
330
75
100
AcDbEntity
  8
Visible Narrow (ISO)
100
AcDbLine
 10
466.6128894383104
 20
149.0122038909982
 30
0.0
 11
466.7111418083718
 21
145.6722495223342
 31
0.0
  0
LINE
  5
70B
330
75
100
AcDbEntity
  8
Visible Narrow (ISO)
100
AcDbLine
 10
466.7317997379464
 20
144.970011580525
 30
0.0
 11
466.7418430768002
 21
144.6286020709139
 31
0.0
  0
LINE
  5
70C
330
75
100
AcDbEntity
  8
Visible (ISO)
100
AcDbLine
 10
464.9974477569196
 20
153.6286020709139
 30
0.0
 11
507.5382382153665
 21
153.6286020709139
 31
0.0
  0
LINE
  5
70D
330
75
100
AcDbEntity
  8
Visible Narrow (ISO)
100
AcDbLine
 10
454.067842986143
 20
157.4841460709139
 30
0.0
 11
456.267842986143
 21
157.4841460709139
 31
0.0
  0
LINE
  5
70E
330
75
100
AcDbEntity
  8
Visible Narrow (ISO)
100
AcDbLine
 10
456.267842986143
 20
173.7730580709139
 30
0.0
 11
454.067842986143
 21
173.7730580709139
 31
0.0
  0
LINE
  5
70F
330
75
100
AcDbEntity
  8
Visible (ISO)
100
AcDbLine
 10
456.267842986143
 20
174.9786020709139
 30
0.0
 11
456.267842986143
 21
156.278602070914
 31
0.0
  0
LINE
  5
710
330
75
100
AcDbEntity
  8
Visible (ISO)
100
AcDbLine
 10
449.817842986143
 20
176.8246664690664
 30
0.0
 11
449.817842986143
 21
176.805813687874
 31
0.0
  0
LINE
  5
711
330
75
100
AcDbEntity
  8
Visible (ISO)
100
AcDbLine
 10
449.817842986143
 20
176.805813687874
 30
0.0
 11
449.817842986143
 21
176.6958667018445
 31
0.0
  0
LINE
  5
712
330
75
100
AcDbEntity
  8
Visible (ISO)
100
AcDbLine
 10
449.817842986143
 20
176.6958667018445
 30
0.0
 11
449.817842986143
 21
176.4957635398964
 31
0.0
  0
LINE
  5
713
330
75
100
AcDbEntity
  8
Visible (ISO)
100
AcDbLine
 10
449.817842986143
 20
176.4957635398964
 30
0.0
 11
449.817842986143
 21
176.2072114116531
 31
0.0
  0
LINE
  5
714
330
75
100
AcDbEntity
  8
Visible (ISO)
100
AcDbLine
 10
449.817842986143
 20
176.2072114116531
 30
0.0
 11
449.817842986143
 21
175.8326721421322
 31
0.0
  0
LINE
  5
715
330
75
100
AcDbEntity
  8
Visible (ISO)
100
AcDbLine
 10
449.817842986143
 20
175.8326721421322
 30
0.0
 11
449.817842986143
 21
175.3753411683224
 31
0.0
  0
LINE
  5
716
330
75
100
AcDbEntity
  8
Visible (ISO)
100
AcDbLine
 10
449.8178429861431
 20
175.3753411683224
 30
0.0
 11
449.8178429861431
 21
174.8391202768419
 31
0.0
  0
LINE
  5
717
330
75
100
AcDbEntity
  8
Visible (ISO)
100
AcDbLine
 10
449.8178429861431
 20
174.8391202768419
 30
0.0
 11
449.8178429861431
 21
174.2285843152706
 31
0.0
  0
LINE
  5
718
330
75
100
AcDbEntity
  8
Visible (ISO)
100
AcDbLine
 10
449.8178429861431
 20
174.2285843152706
 30
0.0
 11
449.8178429861431
 21
173.5489421611638
 31
0.0
  0
LINE
  5
719
330
75
100
AcDbEntity
  8
Visible (ISO)
100
AcDbLine
 10
449.8178429861431
 20
173.5489421611638
 30
0.0
 11
449.8178429861431
 21
172.8059922817453
 31
0.0
  0
LINE
  5
71A
330
75
100
AcDbEntity
  8
Visible (ISO)
100
AcDbLine
 10
449.8178429861431
 20
172.8059922817452
 30
0.0
 11
449.8178429861431
 21
172.0177603663442
 31
0.0
  0
LINE
  5
71B
330
75
100
AcDbEntity
  8
Visible (ISO)
100
AcDbLine
 10
449.8178429861431
 20
172.0060732634293
 30
0.0
 11
449.8178429861431
 21
171.1813736106157
 31
0.0
  0
LINE
  5
71C
330
75
100
AcDbEntity
  8
Visible (ISO)
100
AcDbLine
 10
449.8178429861431
 20
171.1560097332368
 30
0.0
 11
449.8178429861431
 21
170.2976125659626
 31
0.0
  0
LINE
  5
71D
330
75
100
AcDbEntity
  8
Visible (ISO)
100
AcDbLine
 10
449.8178429861431
 20
170.2630541334833
 30
0.0
 11
449.8178429861431
 21
169.3740171700125
 31
0.0
  0
LINE
  5
71E
330
75
100
AcDbEntity
  8
Visible (ISO)
100
AcDbLine
 10
449.8178429861431
 20
169.3348248464988
 30
0.0
 11
449.8178429861431
 21
168.418467213033
 31
0.0
  0
LINE
  5
71F
330
75
100
AcDbEntity
  8
Visible (ISO)
100
AcDbLine
 10
449.8178429861431
 20
168.3779971313099
 30
0.0
 11
449.8178429861431
 21
167.4391151103398
 31
0.0
  0
LINE
  5
720
330
75
100
AcDbEntity
  8
Visible (ISO)
100
AcDbLine
 10
449.8178429861431
 20
167.3978318159494
 30
0.0
 11
449.8178429861431
 21
166.444316348763
 31
0.0
  0
LINE
  5
721
330
75
100
AcDbEntity
  8
Visible (ISO)
100
AcDbLine
 10
449.8178429861431
 20
166.4025720562172
 30
0.0
 11
449.8178429861431
 21
165.4425582005804
 31
0.0
  0
LINE
  5
722
330
75
100
AcDbEntity
  8
Visible (ISO)
100
AcDbLine
 10
449.8178429861431
 20
165.4007090574644
 30
0.0
 11
449.8178429861431
 21
164.4423873131023
 31
0.0
  0
LINE
  5
723
330
75
100
AcDbEntity
  8
Visible (ISO)
100
AcDbLine
 10
449.8178429861431
 20
164.4007903615496
 30
0.0
 11
449.8178429861431
 21
163.4523367916902
 31
0.0
  0
LINE
  5
724
330
75
100
AcDbEntity
  8
Visible (ISO)
100
AcDbLine
 10
449.8178429861431
 20
163.4113469222249
 30
0.0
 11
449.8178429861431
 21
162.480853398311
 31
0.0
  0
LINE
  5
725
330
75
100
AcDbEntity
  8
Visible (ISO)
100
AcDbLine
 10
449.8178429861431
 20
162.4408203220466
 30
0.0
 11
449.8178429861431
 21
161.535325883816
 31
0.0
  0
LINE
  5
726
330
75
100
AcDbEntity
  8
Visible (ISO)
100
AcDbLine
 10
449.8178429861431
 20
161.4974907517695
 30
0.0
 11
449.8178429861431
 21
160.6207174170118
 31
0.0
  0
LINE
  5
727
330
75
100
AcDbEntity
  8
Visible (ISO)
100
AcDbLine
 10
449.8178429861431
 20
160.5894063666785
 30
0.0
 11
449.8178429861431
 21
159.7445686326395
 31
0.0
  0
LINE
  5
728
330
75
100
AcDbEntity
  8
Visible (ISO)
100
AcDbLine
 10
449.8178429861431
 20
159.7243146225657
 30
0.0
 11
449.8178429861431
 21
158.9143545232057
 31
0.0
  0
LINE
  5
729
330
75
100
AcDbEntity
  8
Visible (ISO)
100
AcDbLine
 10
449.8178429861431
 20
158.9095961771691
 30
0.0
 11
449.8178429861431
 21
158.1371581827671
 31
0.0
  0
LINE
  5
72A
330
75
100
AcDbEntity
  8
Visible (ISO)
100
AcDbLine
 10
449.8178429861431
 20
158.137158182767
 30
0.0
 11
449.8178429861431
 21
157.4196103764684
 31
0.0
  0
LINE
  5
72B
330
75
100
AcDbEntity
  8
Visible (ISO)
100
AcDbLine
 10
449.8178429861431
 20
157.4196103764684
 30
0.0
 11
449.8178429861431
 21
156.7678329691928
 31
0.0
  0
LINE
  5
72C
330
75
100
AcDbEntity
  8
Visible (ISO)
100
AcDbLine
 10
449.8178429861431
 20
156.7678329691928
 30
0.0
 11
449.8178429861431
 21
156.187386695969
 31
0.0
  0
LINE
  5
72D
330
75
100
AcDbEntity
  8
Visible (ISO)
100
AcDbLine
 10
449.8178429861431
 20
156.1873866959689
 30
0.0
 11
449.8178429861431
 21
155.6832237197404
 31
0.0
  0
LINE
  5
72E
330
75
100
AcDbEntity
  8
Visible (ISO)
100
AcDbLine
 10
449.817842986143
 20
155.6832237197403
 30
0.0
 11
449.817842986143
 21
155.2596453812575
 31
0.0
  0
LINE
  5
72F
330
75
100
AcDbEntity
  8
Visible (ISO)
100
AcDbLine
 10
449.817842986143
 20
155.2596453812574
 30
0.0
 11
449.817842986143
 21
154.9202655015545
 31
0.0
  0
LINE
  5
730
330
75
100
AcDbEntity
  8
Visible (ISO)
100
AcDbLine
 10
449.817842986143
 20
154.9202655015545
 30
0.0
 11
449.817842986143
 21
154.6679795501033
 31
0.0
  0
LINE
  5
731
330
75
100
AcDbEntity
  8
Visible (ISO)
100
AcDbLine
 10
449.817842986143
 20
154.6679795501032
 30
0.0
 11
449.817842986143
 21
154.5049399416879
 31
0.0
  0
LINE
  5
732
330
75
100
AcDbEntity
  8
Visible (ISO)
100
AcDbLine
 10
449.817842986143
 20
154.5049399416879
 30
0.0
 11
449.817842986143
 21
154.4325376727614
 31
0.0
  0
LINE
  5
733
330
75
100
AcDbEntity
  8
Visible (ISO)
100
AcDbLine
 10
443.317842986143
 20
176.805813687874
 30
0.0
 11
443.317842986143
 21
176.8246664690664
 31
0.0
  0
LINE
  5
734
330
75
100
AcDbEntity
  8
Visible (ISO)
100
AcDbLine
 10
443.317842986143
 20
176.6958667018445
 30
0.0
 11
443.317842986143
 21
176.805813687874
 31
0.0
  0
LINE
  5
735
330
75
100
AcDbEntity
  8
Visible (ISO)
100
AcDbLine
 10
443.317842986143
 20
176.4957635398964
 30
0.0
 11
443.317842986143
 21
176.6958667018445
 31
0.0
  0
LINE
  5
736
330
75
100
AcDbEntity
  8
Visible (ISO)
100
AcDbLine
 10
443.317842986143
 20
176.2072114116531
 30
0.0
 11
443.317842986143
 21
176.4957635398964
 31
0.0
  0
LINE
  5
737
330
75
100
AcDbEntity
  8
Visible (ISO)
100
AcDbLine
 10
443.317842986143
 20
175.8326721421323
 30
0.0
 11
443.317842986143
 21
176.2072114116531
 31
0.0
  0
LINE
  5
738
330
75
100
AcDbEntity
  8
Visible (ISO)
100
AcDbLine
 10
443.317842986143
 20
175.3753411683225
 30
0.0
 11
443.317842986143
 21
175.8326721421322
 31
0.0
  0
LINE
  5
739
330
75
100
AcDbEntity
  8
Visible (ISO)
100
AcDbLine
 10
443.317842986143
 20
174.8391202768419
 30
0.0
 11
443.317842986143
 21
175.3753411683224
 31
0.0
  0
LINE
  5
73A
330
75
100
AcDbEntity
  8
Visible (ISO)
100
AcDbLine
 10
443.317842986143
 20
174.2285843152706
 30
0.0
 11
443.317842986143
 21
174.8391202768419
 31
0.0
  0
LINE
  5
73B
330
75
100
AcDbEntity
  8
Visible (ISO)
100
AcDbLine
 10
443.317842986143
 20
173.5489421611638
 30
0.0
 11
443.317842986143
 21
174.2285843152706
 31
0.0
  0
LINE
  5
73C
330
75
100
AcDbEntity
  8
Visible (ISO)
100
AcDbLine
 10
443.317842986143
 20
172.8059922817453
 30
0.0
 11
443.317842986143
 21
173.5489421611638
 31
0.0
  0
LINE
  5
73D
330
75
100
AcDbEntity
  8
Visible (ISO)
100
AcDbLine
 10
443.317842986143
 20
172.0177603663442
 30
0.0
 11
443.317842986143
 21
172.8059922817452
 31
0.0
  0
LINE
  5
73E
330
75
100
AcDbEntity
  8
Visible (ISO)
100
AcDbLine
 10
443.317842986143
 20
171.1813736106157
 30
0.0
 11
443.317842986143
 21
172.0060732634293
 31
0.0
  0
LINE
  5
73F
330
75
100
AcDbEntity
  8
Visible (ISO)
100
AcDbLine
 10
443.317842986143
 20
170.2976125659626
 30
0.0
 11
443.317842986143
 21
171.1560097332368
 31
0.0
  0
LINE
  5
740
330
75
100
AcDbEntity
  8
Visible (ISO)
100
AcDbLine
 10
443.317842986143
 20
169.3740171700125
 30
0.0
 11
443.317842986143
 21
170.2630541334833
 31
0.0
  0
LINE
  5
741
330
75
100
AcDbEntity
  8
Visible (ISO)
100
AcDbLine
 10
443.317842986143
 20
168.418467213033
 30
0.0
 11
443.317842986143
 21
169.3348248464988
 31
0.0
  0
LINE
  5
742
330
75
100
AcDbEntity
  8
Visible (ISO)
100
AcDbLine
 10
443.317842986143
 20
167.4391151103398
 30
0.0
 11
443.317842986143
 21
168.3779971313099
 31
0.0
  0
LINE
  5
743
330
75
100
AcDbEntity
  8
Visible (ISO)
100
AcDbLine
 10
443.317842986143
 20
166.444316348763
 30
0.0
 11
443.317842986143
 21
167.3978318159494
 31
0.0
  0
LINE
  5
744
330
75
100
AcDbEntity
  8
Visible (ISO)
100
AcDbLine
 10
443.317842986143
 20
165.4425582005804
 30
0.0
 11
443.317842986143
 21
166.4025720562172
 31
0.0
  0
LINE
  5
745
330
75
100
AcDbEntity
  8
Visible (ISO)
100
AcDbLine
 10
443.317842986143
 20
164.4423873131023
 30
0.0
 11
443.317842986143
 21
165.4007090574644
 31
0.0
  0
LINE
  5
746
330
75
100
AcDbEntity
  8
Visible (ISO)
100
AcDbLine
 10
443.317842986143
 20
163.4523367916902
 30
0.0
 11
443.317842986143
 21
164.4007903615496
 31
0.0
  0
LINE
  5
747
330
75
100
AcDbEntity
  8
Visible (ISO)
100
AcDbLine
 10
443.317842986143
 20
162.480853398311
 30
0.0
 11
443.317842986143
 21
163.4113469222249
 31
0.0
  0
LINE
  5
748
330
75
100
AcDbEntity
  8
Visible (ISO)
100
AcDbLine
 10
443.317842986143
 20
161.535325883816
 30
0.0
 11
443.317842986143
 21
162.4408203220466
 31
0.0
  0
LINE
  5
749
330
75
100
AcDbEntity
  8
Visible (ISO)
100
AcDbLine
 10
443.317842986143
 20
160.6207174170118
 30
0.0
 11
443.317842986143
 21
161.4974907517695
 31
0.0
  0
LINE
  5
74A
330
75
100
AcDbEntity
  8
Visible (ISO)
100
AcDbLine
 10
443.317842986143
 20
159.7445686326395
 30
0.0
 11
443.317842986143
 21
160.5894063666785
 31
0.0
  0
LINE
  5
74B
330
75
100
AcDbEntity
  8
Visible (ISO)
100
AcDbLine
 10
443.317842986143
 20
158.9143545232057
 30
0.0
 11
443.317842986143
 21
159.7243146225657
 31
0.0
  0
LINE
  5
74C
330
75
100
AcDbEntity
  8
Visible (ISO)
100
AcDbLine
 10
443.317842986143
 20
158.1371581827671
 30
0.0
 11
443.317842986143
 21
158.9095961771691
 31
0.0
  0
LINE
  5
74D
330
75
100
AcDbEntity
  8
Visible (ISO)
100
AcDbLine
 10
443.317842986143
 20
157.4196103764684
 30
0.0
 11
443.317842986143
 21
158.137158182767
 31
0.0
  0
LINE
  5
74E
330
75
100
AcDbEntity
  8
Visible (ISO)
100
AcDbLine
 10
443.317842986143
 20
156.7678329691928
 30
0.0
 11
443.317842986143
 21
157.4196103764684
 31
0.0
  0
LINE
  5
74F
330
75
100
AcDbEntity
  8
Visible (ISO)
100
AcDbLine
 10
443.317842986143
 20
156.187386695969
 30
0.0
 11
443.317842986143
 21
156.7678329691928
 31
0.0
  0
LINE
  5
750
330
75
100
AcDbEntity
  8
Visible (ISO)
100
AcDbLine
 10
443.317842986143
 20
155.6832237197404
 30
0.0
 11
443.317842986143
 21
156.1873866959689
 31
0.0
  0
LINE
  5
751
330
75
100
AcDbEntity
  8
Visible (ISO)
100
AcDbLine
 10
443.317842986143
 20
155.2596453812575
 30
0.0
 11
443.317842986143
 21
155.6832237197404
 31
0.0
  0
LINE
  5
752
330
75
100
AcDbEntity
  8
Visible (ISO)
100
AcDbLine
 10
443.317842986143
 20
154.9202655015545
 30
0.0
 11
443.317842986143
 21
155.2596453812575
 31
0.0
  0
LINE
  5
753
330
75
100
AcDbEntity
  8
Visible (ISO)
100
AcDbLine
 10
443.317842986143
 20
154.6679795501033
 30
0.0
 11
443.317842986143
 21
154.9202655015545
 31
0.0
  0
LINE
  5
754
330
75
100
AcDbEntity
  8
Visible (ISO)
100
AcDbLine
 10
443.317842986143
 20
154.504939941688
 30
0.0
 11
443.317842986143
 21
154.6679795501033
 31
0.0
  0
LINE
  5
755
330
75
100
AcDbEntity
  8
Visible (ISO)
100
AcDbLine
 10
443.317842986143
 20
154.4325376727614
 30
0.0
 11
443.317842986143
 21
154.504939941688
 31
0.0
  0
LINE
  5
756
330
75
100
AcDbEntity
  8
Visible (ISO)
100
AcDbLine
 10
443.317842986143
 20
158.9095961771691
 30
0.0
 11
449.817842986143
 21
158.9095961771691
 31
0.0
  0
LINE
  5
757
330
75
100
AcDbEntity
  8
Visible (ISO)
100
AcDbLine
 10
443.317842986143
 20
159.7243146225657
 30
0.0
 11
449.817842986143
 21
159.7243146225657
 31
0.0
  0
LINE
  5
758
330
75
100
AcDbEntity
  8
Visible (ISO)
100
AcDbLine
 10
443.317842986143
 20
160.5894063666785
 30
0.0
 11
449.817842986143
 21
160.5894063666785
 31
0.0
  0
LINE
  5
759
330
75
100
AcDbEntity
  8
Visible (ISO)
100
AcDbLine
 10
443.317842986143
 20
161.4974907517695
 30
0.0
 11
449.817842986143
 21
161.4974907517695
 31
0.0
  0
LINE
  5
75A
330
75
100
AcDbEntity
  8
Visible (ISO)
100
AcDbLine
 10
443.317842986143
 20
162.4408203220466
 30
0.0
 11
449.817842986143
 21
162.4408203220466
 31
0.0
  0
LINE
  5
75B
330
75
100
AcDbEntity
  8
Visible (ISO)
100
AcDbLine
 10
443.317842986143
 20
163.4113469222248
 30
0.0
 11
449.817842986143
 21
163.4113469222248
 31
0.0
  0
LINE
  5
75C
330
75
100
AcDbEntity
  8
Visible (ISO)
100
AcDbLine
 10
449.817842986143
 20
162.480853398311
 30
0.0
 11
443.317842986143
 21
162.480853398311
 31
0.0
  0
LINE
  5
75D
330
75
100
AcDbEntity
  8
Visible (ISO)
100
AcDbLine
 10
443.317842986143
 20
164.4007903615495
 30
0.0
 11
449.817842986143
 21
164.4007903615495
 31
0.0
  0
LINE
  5
75E
330
75
100
AcDbEntity
  8
Visible (ISO)
100
AcDbLine
 10
449.817842986143
 20
163.4523367916902
 30
0.0
 11
443.317842986143
 21
163.4523367916902
 31
0.0
  0
LINE
  5
75F
330
75
100
AcDbEntity
  8
Visible (ISO)
100
AcDbLine
 10
443.317842986143
 20
165.4007090574644
 30
0.0
 11
449.817842986143
 21
165.4007090574644
 31
0.0
  0
LINE
  5
760
330
75
100
AcDbEntity
  8
Visible (ISO)
100
AcDbLine
 10
449.817842986143
 20
164.4423873131022
 30
0.0
 11
443.317842986143
 21
164.4423873131022
 31
0.0
  0
LINE
  5
761
330
75
100
AcDbEntity
  8
Visible (ISO)
100
AcDbLine
 10
443.317842986143
 20
166.4025720562172
 30
0.0
 11
449.817842986143
 21
166.4025720562172
 31
0.0
  0
LINE
  5
762
330
75
100
AcDbEntity
  8
Visible (ISO)
100
AcDbLine
 10
449.817842986143
 20
165.4425582005804
 30
0.0
 11
443.317842986143
 21
165.4425582005804
 31
0.0
  0
LINE
  5
763
330
75
100
AcDbEntity
  8
Visible (ISO)
100
AcDbLine
 10
443.317842986143
 20
167.3978318159494
 30
0.0
 11
449.817842986143
 21
167.3978318159494
 31
0.0
  0
LINE
  5
764
330
75
100
AcDbEntity
  8
Visible (ISO)
100
AcDbLine
 10
449.817842986143
 20
166.444316348763
 30
0.0
 11
443.317842986143
 21
166.444316348763
 31
0.0
  0
LINE
  5
765
330
75
100
AcDbEntity
  8
Visible (ISO)
100
AcDbLine
 10
443.317842986143
 20
168.3779971313099
 30
0.0
 11
449.817842986143
 21
168.3779971313099
 31
0.0
  0
LINE
  5
766
330
75
100
AcDbEntity
  8
Visible (ISO)
100
AcDbLine
 10
449.817842986143
 20
167.4391151103398
 30
0.0
 11
443.317842986143
 21
167.4391151103398
 31
0.0
  0
LINE
  5
767
330
75
100
AcDbEntity
  8
Visible (ISO)
100
AcDbLine
 10
449.817842986143
 20
168.418467213033
 30
0.0
 11
443.317842986143
 21
168.418467213033
 31
0.0
  0
LINE
  5
768
330
75
100
AcDbEntity
  8
Visible (ISO)
100
AcDbLine
 10
449.817842986143
 20
169.3740171700125
 30
0.0
 11
443.317842986143
 21
169.3740171700125
 31
0.0
  0
LINE
  5
769
330
75
100
AcDbEntity
  8
Visible (ISO)
100
AcDbLine
 10
449.817842986143
 20
170.2976125659626
 30
0.0
 11
443.317842986143
 21
170.2976125659626
 31
0.0
  0
LINE
  5
76A
330
75
100
AcDbEntity
  8
Visible (ISO)
100
AcDbLine
 10
449.817842986143
 20
171.1813736106157
 30
0.0
 11
443.317842986143
 21
171.1813736106157
 31
0.0
  0
LINE
  5
76B
330
75
100
AcDbEntity
  8
Visible (ISO)
100
AcDbLine
 10
449.817842986143
 20
172.0177603663442
 30
0.0
 11
443.317842986143
 21
172.0177603663442
 31
0.0
  0
LINE
  5
76C
330
75
100
AcDbEntity
  8
Visible (ISO)
100
AcDbLine
 10
443.317842986143
 20
154.4325376727614
 30
0.0
 11
449.817842986143
 21
154.4325376727614
 31
0.0
  0
LINE
  5
76D
330
75
100
AcDbEntity
  8
Visible (ISO)
100
AcDbLine
 10
443.317842986143
 20
154.5049399416879
 30
0.0
 11
449.817842986143
 21
154.5049399416879
 31
0.0
  0
LINE
  5
76E
330
75
100
AcDbEntity
  8
Visible (ISO)
100
AcDbLine
 10
443.317842986143
 20
154.6679795501033
 30
0.0
 11
449.817842986143
 21
154.6679795501033
 31
0.0
  0
LINE
  5
76F
330
75
100
AcDbEntity
  8
Visible (ISO)
100
AcDbLine
 10
443.317842986143
 20
154.9202655015545
 30
0.0
 11
449.817842986143
 21
154.9202655015545
 31
0.0
  0
LINE
  5
770
330
75
100
AcDbEntity
  8
Visible (ISO)
100
AcDbLine
 10
443.317842986143
 20
155.2596453812574
 30
0.0
 11
449.817842986143
 21
155.2596453812574
 31
0.0
  0
LINE
  5
771
330
75
100
AcDbEntity
  8
Visible (ISO)
100
AcDbLine
 10
443.317842986143
 20
155.6832237197404
 30
0.0
 11
449.817842986143
 21
155.6832237197404
 31
0.0
  0
LINE
  5
772
330
75
100
AcDbEntity
  8
Visible (ISO)
100
AcDbLine
 10
443.317842986143
 20
156.187386695969
 30
0.0
 11
449.817842986143
 21
156.187386695969
 31
0.0
  0
LINE
  5
773
330
75
100
AcDbEntity
  8
Visible (ISO)
100
AcDbLine
 10
443.317842986143
 20
156.7678329691928
 30
0.0
 11
449.817842986143
 21
156.7678329691928
 31
0.0
  0
LINE
  5
774
330
75
100
AcDbEntity
  8
Visible (ISO)
100
AcDbLine
 10
443.317842986143
 20
157.4196103764684
 30
0.0
 11
449.817842986143
 21
157.4196103764684
 31
0.0
  0
LINE
  5
775
330
75
100
AcDbEntity
  8
Visible (ISO)
100
AcDbLine
 10
443.317842986143
 20
158.137158182767
 30
0.0
 11
449.817842986143
 21
158.137158182767
 31
0.0
  0
LINE
  5
776
330
75
100
AcDbEntity
  8
Visible (ISO)
100
AcDbLine
 10
443.317842986143
 20
158.9143545232057
 30
0.0
 11
449.817842986143
 21
158.9143545232057
 31
0.0
  0
LINE
  5
777
330
75
100
AcDbEntity
  8
Visible (ISO)
100
AcDbLine
 10
443.317842986143
 20
159.7445686326395
 30
0.0
 11
449.817842986143
 21
159.7445686326395
 31
0.0
  0
LINE
  5
778
330
75
100
AcDbEntity
  8
Visible (ISO)
100
AcDbLine
 10
443.317842986143
 20
160.6207174170118
 30
0.0
 11
449.817842986143
 21
160.6207174170118
 31
0.0
  0
LINE
  5
779
330
75
100
AcDbEntity
  8
Visible (ISO)
100
AcDbLine
 10
443.317842986143
 20
161.535325883816
 30
0.0
 11
449.817842986143
 21
161.535325883816
 31
0.0
  0
LINE
  5
77A
330
75
100
AcDbEntity
  8
Visible (ISO)
100
AcDbLine
 10
443.317842986143
 20
169.3348248464988
 30
0.0
 11
449.817842986143
 21
169.3348248464988
 31
0.0
  0
LINE
  5
77B
330
75
100
AcDbEntity
  8
Visible (ISO)
100
AcDbLine
 10
443.317842986143
 20
170.2630541334833
 30
0.0
 11
449.817842986143
 21
170.2630541334833
 31
0.0
  0
LINE
  5
77C
330
75
100
AcDbEntity
  8
Visible (ISO)
100
AcDbLine
 10
443.317842986143
 20
171.1560097332368
 30
0.0
 11
449.817842986143
 21
171.1560097332368
 31
0.0
  0
LINE
  5
77D
330
75
100
AcDbEntity
  8
Visible (ISO)
100
AcDbLine
 10
443.317842986143
 20
172.0060732634292
 30
0.0
 11
449.817842986143
 21
172.0060732634292
 31
0.0
  0
LINE
  5
77E
330
75
100
AcDbEntity
  8
Visible (ISO)
100
AcDbLine
 10
443.317842986143
 20
172.8059922817452
 30
0.0
 11
449.817842986143
 21
172.8059922817452
 31
0.0
  0
LINE
  5
77F
330
75
100
AcDbEntity
  8
Visible (ISO)
100
AcDbLine
 10
443.317842986143
 20
173.5489421611638
 30
0.0
 11
449.817842986143
 21
173.5489421611638
 31
0.0
  0
LINE
  5
780
330
75
100
AcDbEntity
  8
Visible (ISO)
100
AcDbLine
 10
443.317842986143
 20
174.2285843152706
 30
0.0
 11
449.817842986143
 21
174.2285843152706
 31
0.0
  0
LINE
  5
781
330
75
100
AcDbEntity
  8
Visible (ISO)
100
AcDbLine
 10
443.317842986143
 20
174.8391202768419
 30
0.0
 11
449.817842986143
 21
174.8391202768419
 31
0.0
  0
LINE
  5
782
330
75
100
AcDbEntity
  8
Visible (ISO)
100
AcDbLine
 10
443.317842986143
 20
175.3753411683224
 30
0.0
 11
449.817842986143
 21
175.3753411683224
 31
0.0
  0
LINE
  5
783
330
75
100
AcDbEntity
  8
Visible (ISO)
100
AcDbLine
 10
443.317842986143
 20
175.8326721421322
 30
0.0
 11
449.817842986143
 21
175.8326721421322
 31
0.0
  0
LINE
  5
784
330
75
100
AcDbEntity
  8
Visible (ISO)
100
AcDbLine
 10
443.317842986143
 20
176.2072114116531
 30
0.0
 11
449.817842986143
 21
176.2072114116531
 31
0.0
  0
LINE
  5
785
330
75
100
AcDbEntity
  8
Visible (ISO)
100
AcDbLine
 10
443.317842986143
 20
176.4957635398964
 30
0.0
 11
449.817842986143
 21
176.4957635398964
 31
0.0
  0
LINE
  5
786
330
75
100
AcDbEntity
  8
Visible (ISO)
100
AcDbLine
 10
443.317842986143
 20
176.6958667018445
 30
0.0
 11
449.817842986143
 21
176.6958667018445
 31
0.0
  0
LINE
  5
787
330
75
100
AcDbEntity
  8
Visible (ISO)
100
AcDbLine
 10
443.317842986143
 20
176.805813687874
 30
0.0
 11
449.817842986143
 21
176.805813687874
 31
0.0
  0
LINE
  5
788
330
75
100
AcDbEntity
  8
Visible (ISO)
100
AcDbLine
 10
443.317842986143
 20
176.8246664690664
 30
0.0
 11
449.817842986143
 21
176.8246664690664
 31
0.0
  0
LINE
  5
789
330
75
100
AcDbEntity
  8
Visible (ISO)
100
AcDbLine
 10
454.067842986143
 20
176.4786020709139
 30
0.0
 11
454.067842986143
 21
154.7786020709139
 31
0.0
  0
LINE
  5
78A
330
75
100
AcDbEntity
  8
Visible (ISO)
100
AcDbLine
 10
439.067842986143
 20
176.4786020709139
 30
0.0
 11
439.067842986143
 21
154.7786020709139
 31
0.0
  0
LINE
  5
78B
330
75
100
AcDbEntity
  8
Visible (ISO)
100
AcDbLine
 10
439.067842986143
 20
176.4786020709139
 30
0.0
 11
443.317842986143
 21
176.4786020709139
 31
0.0
  0
LINE
  5
78C
330
75
100
AcDbEntity
  8
Visible (ISO)
100
AcDbLine
 10
449.817842986143
 20
176.4786020709139
 30
0.0
 11
454.067842986143
 21
176.4786020709139
 31
0.0
  0
LINE
  5
78D
330
75
100
AcDbEntity
  8
Visible (ISO)
100
AcDbLine
 10
439.067842986143
 20
154.7786020709139
 30
0.0
 11
443.317842986143
 21
154.7786020709139
 31
0.0
  0
LINE
  5
78E
330
75
100
AcDbEntity
  8
Visible (ISO)
100
AcDbLine
 10
449.817842986143
 20
154.7786020709139
 30
0.0
 11
454.067842986143
 21
154.7786020709139
 31
0.0
  0
LINE
  5
78F
330
75
100
AcDbEntity
  8
Visible Narrow (ISO)
100
AcDbLine
 10
505.0339214574507
 20
218.0767158629687
 30
0.0
 11
467.5017645148354
 21
218.0767158629687
 31
0.0
  0
LINE
  5
790
330
75
100
AcDbEntity
  8
Visible (ISO)
100
AcDbLine
 10
517.7678429861431
 20
227.0399456291812
 30
0.0
 11
454.767842986143
 21
227.0399456291812
 31
0.0
  0
LINE
  5
791
330
75
100
AcDbEntity
  8
Visible Narrow (ISO)
100
AcDbLine
 10
508.6056435705165
 20
222.8814239237849
 30
0.0
 11
463.9300424017696
 21
222.8814239237849
 31
0.0
  0
LINE
  5
792
330
75
100
AcDbEntity
  8
Visible (ISO)
100
AcDbLine
 10
517.7678429861431
 20
225.4399456291813
 30
0.0
 11
454.767842986143
 21
225.4399456291813
 31
0.0
  0
LINE
  5
793
330
75
100
AcDbEntity
  8
Visible (ISO)
100
AcDbLine
 10
467.2678429861431
 20
192.1286020709139
 30
0.0
 11
467.2678429861431
 21
198.4399456291812
 31
0.0
  0
LINE
  5
794
330
75
100
AcDbEntity
  8
Visible (ISO)
100
AcDbLine
 10
467.2678429861431
 20
212.2399456291812
 30
0.0
 11
467.2678429861431
 21
218.0767158629688
 31
0.0
  0
LINE
  5
795
330
75
100
AcDbEntity
  8
Visible (ISO)
100
AcDbLine
 10
505.2678429861431
 20
192.1286020709139
 30
0.0
 11
505.2678429861431
 21
198.4399456291812
 31
0.0
  0
LINE
  5
796
330
75
100
AcDbEntity
  8
Visible (ISO)
100
AcDbLine
 10
505.2678429861431
 20
212.2399456291812
 30
0.0
 11
505.2678429861431
 21
218.0767158629687
 31
0.0
  0
ARC
  5
797
330
75
100
AcDbEntity
  8
Visible (ISO)
100
AcDbCircle
 10
510.267842986143
 20
218.0767158629687
 30
0.0
 40
5.000000000000001
100
AcDbArc
 50
106.0664005351961
 51
180.0
  0
ARC
  5
798
330
75
100
AcDbEntity
  8
Visible (ISO)
100
AcDbCircle
 10
462.267842986143
 20
218.0767158629687
 30
0.0
 40
5.0
100
AcDbArc
 50
0.0
 51
73.93359946480335
  0
LINE
  5
799
330
75
100
AcDbEntity
  8
Visible (ISO)
100
AcDbLine
 10
463.6515989076581
 20
222.8814239237849
 30
0.0
 11
454.767842986143
 21
225.4399456291813
 31
0.0
  0
LINE
  5
79A
330
75
100
AcDbEntity
  8
Visible (ISO)
100
AcDbLine
 10
508.8840870646279
 20
222.8814239237849
 30
0.0
 11
517.7678429861431
 21
225.4399456291813
 31
0.0
  0
LINE
  5
79B
330
75
100
AcDbEntity
  8
Visible (ISO)
100
AcDbLine
 10
454.767842986143
 20
225.4399456291813
 30
0.0
 11
454.767842986143
 21
227.0399456291812
 31
0.0
  0
LINE
  5
79C
330
75
100
AcDbEntity
  8
Visible (ISO)
100
AcDbLine
 10
517.7678429861431
 20
225.4399456291813
 30
0.0
 11
517.7678429861431
 21
227.0399456291812
 31
0.0
  0
LINE
  5
79D
330
75
100
AcDbEntity
  8
Visible (ISO)
100
AcDbLine
 10
467.2678429861431
 20
198.4399456291812
 30
0.0
 11
467.9105556048313
 21
198.4399456291812
 31
0.0
  0
LINE
  5
79E
330
75
100
AcDbEntity
  8
Visible (ISO)
100
AcDbLine
 10
467.9105556048313
 20
212.2399456291812
 30
0.0
 11
467.2678429861431
 21
212.2399456291812
 31
0.0
  0
ARC
  5
79F
330
75
100
AcDbEntity
  8
Visible (ISO)
100
AcDbCircle
 10
486.267842986143
 20
217.1399456291812
 30
0.0
 40
19.0
100
AcDbArc
 50
194.9451798665751
 51
201.2942602879579
  0
LINE
  5
7A0
330
75
100
AcDbEntity
  8
Visible (ISO)
100
AcDbLine
 10
468.5650183527662
 20
210.2399456291812
 30
0.0
 11
468.5650183527662
 21
200.4399456291813
 31
0.0
  0
ARC
  5
7A1
330
75
100
AcDbEntity
  8
Visible (ISO)
100
AcDbCircle
 10
486.267842986143
 20
193.5399456291812
 30
0.0
 40
19.00000000000002
100
AcDbArc
 50
158.7057397120419
 51
165.0548201334248
  0
LINE
  5
7A2
330
75
100
AcDbEntity
  8
Visible (ISO)
100
AcDbLine
 10
504.6251303674511
 20
198.4399456291812
 30
0.0
 11
505.2678429861431
 21
198.4399456291812
 31
0.0
  0
ARC
  5
7A3
330
75
100
AcDbEntity
  8
Visible (ISO)
100
AcDbCircle
 10
486.267842986143
 20
193.5399456291812
 30
0.0
 40
19.00000000000002
100
AcDbArc
 50
14.9451798666225
 51
21.29426028800823
  0
LINE
  5
7A4
330
75
100
AcDbEntity
  8
Visible (ISO)
100
AcDbLine
 10
503.9706676195145
 20
200.4399456291813
 30
0.0
 11
503.9706676195145
 21
210.2399456291812
 31
0.0
  0
ARC
  5
7A5
330
75
100
AcDbEntity
  8
Visible (ISO)
100
AcDbCircle
 10
486.267842986143
 20
217.1399456291812
 30
0.0
 40
19.0
100
AcDbArc
 50
338.7057397119918
 51
345.0548201333774
  0
LINE
  5
7A6
330
75
100
AcDbEntity
  8
Visible (ISO)
100
AcDbLine
 10
505.2678429861431
 20
212.2399456291812
 30
0.0
 11
504.6251303674511
 21
212.2399456291812
 31
0.0
  0
LINE
  5
7A7
330
75
100
AcDbEntity
  8
Visible (ISO)
100
AcDbLine
 10
481.3678429861359
 20
198.4399456291812
 30
0.0
 11
491.167842986136
 21
198.4399456291812
 31
0.0
  0
LINE
  5
7A8
330
75
100
AcDbEntity
  8
Visible (ISO)
100
AcDbLine
 10
479.3678429861361
 20
200.4399456291813
 30
0.0
 11
481.3678429861359
 21
198.4399456291813
 31
0.0
  0
LINE
  5
7A9
330
75
100
AcDbEntity
  8
Visible (ISO)
100
AcDbLine
 10
479.3678429861361
 20
200.4399456291813
 30
0.0
 11
479.3678429861361
 21
210.2399456291812
 31
0.0
  0
LINE
  5
7AA
330
75
100
AcDbEntity
  8
Visible (ISO)
100
AcDbLine
 10
481.3678429861359
 20
212.2399456291812
 30
0.0
 11
479.3678429861361
 21
210.2399456291812
 31
0.0
  0
LINE
  5
7AB
330
75
100
AcDbEntity
  8
Visible (ISO)
100
AcDbLine
 10
491.167842986136
 20
212.2399456291812
 30
0.0
 11
481.3678429861359
 21
212.2399456291812
 31
0.0
  0
LINE
  5
7AC
330
75
100
AcDbEntity
  8
Visible (ISO)
100
AcDbLine
 10
493.1678429861362
 20
210.2399456291812
 30
0.0
 11
491.167842986136
 21
212.2399456291813
 31
0.0
  0
LINE
  5
7AD
330
75
100
AcDbEntity
  8
Visible (ISO)
100
AcDbLine
 10
493.1678429861362
 20
210.2399456291812
 30
0.0
 11
493.1678429861362
 21
200.4399456291813
 31
0.0
  0
LINE
  5
7AE
330
75
100
AcDbEntity
  8
Visible (ISO)
100
AcDbLine
 10
491.167842986136
 20
198.4399456291812
 30
0.0
 11
493.1678429861362
 21
200.4399456291813
 31
0.0
  0
LINE
  5
7AF
330
75
100
AcDbEntity
  8
Visible (ISO)
100
AcDbLine
 10
491.8179596104438
 20
199.0900622534889
 30
0.0
 11
491.8179596104438
 21
211.5898290048736
 31
0.0
  0
LINE
  5
7B0
330
75
100
AcDbEntity
  8
Visible (ISO)
100
AcDbLine
 10
480.7794161929472
 20
211.6515188359925
 30
0.0
 11
480.7794161929472
 21
199.02837242237
 31
0.0
  0
LINE
  5
7B1
330
75
100
AcDbEntity
  8
Visible (ISO)
100
AcDbLine
 10
485.2101542527901
 20
198.4399456291812
 30
0.0
 11
485.2101542527901
 21
212.2399456291812
 31
0.0
  0
LINE
  5
7B2
330
75
100
AcDbEntity
  8
Visible Narrow (ISO)
100
AcDbLine
 10
485.4949274704582
 20
211.5499456291813
 30
0.0
 11
485.4949274704582
 21
199.1299456291812
 31
0.0
  0
LINE
  5
7B3
330
75
100
AcDbEntity
  8
Visible (ISO)
100
AcDbLine
 10
504.0623582653537
 20
200.1999175493806
 30
0.0
 11
504.0623582653537
 21
210.4799737089819
 31
0.0
  0
LINE
  5
7B4
330
75
100
AcDbEntity
  8
Visible (ISO)
100
AcDbLine
 10
468.4733277069323
 20
200.1999175493945
 30
0.0
 11
468.4733277069323
 21
210.479973708968
 31
0.0
  0
LINE
  5
7B5
330
75
100
AcDbEntity
  8
Visible (ISO)
100
AcDbLine
 10
487.894530984618
 20
212.2399456291813
 30
0.0
 11
487.894530984618
 21
198.4399456291812
 31
0.0
  0
LINE
  5
7B6
330
75
100
AcDbEntity
  8
Visible (ISO)
100
AcDbLine
 10
358.9834914149177
 20
336.5139782709567
 30
0.0
 11
370.9834914149177
 21
336.5139782709567
 31
0.0
  0
LINE
  5
7B7
330
75
100
AcDbEntity
  8
Visible (ISO)
100
AcDbLine
 10
358.9834914149177
 20
246.5139782709567
 30
0.0
 11
358.9834914149177
 21
336.5139782709567
 31
0.0
  0
LINE
  5
7B8
330
75
100
AcDbEntity
  8
Visible (ISO)
100
AcDbLine
 10
370.9834914149177
 20
246.5139782709567
 30
0.0
 11
370.9834914149177
 21
336.5139782709567
 31
0.0
  0
LINE
  5
7B9
330
75
100
AcDbEntity
  8
Visible (ISO)
100
AcDbLine
 10
352.3866592353061
 20
224.6139782709567
 30
0.0
 11
361.4332318488612
 21
224.6139782709567
 31
0.0
  0
LINE
  5
7BA
330
75
100
AcDbEntity
  8
Visible (ISO)
100
AcDbLine
 10
361.4332318488612
 20
224.6139782709567
 30
0.0
 11
374.0300640284727
 21
224.6139782709567
 31
0.0
  0
LINE
  5
7BB
330
75
100
AcDbEntity
  8
Visible (ISO)
100
AcDbLine
 10
374.0300640284727
 20
224.6139782709567
 30
0.0
 11
377.5803235945293
 21
224.6139782709567
 31
0.0
  0
LINE
  5
7BC
330
75
100
AcDbEntity
  8
Visible (ISO)
100
AcDbLine
 10
352.3866592353061
 20
213.1139782709567
 30
0.0
 11
361.4332318488612
 21
213.1139782709567
 31
0.0
  0
LINE
  5
7BD
330
75
100
AcDbEntity
  8
Visible (ISO)
100
AcDbLine
 10
361.4332318488612
 20
224.6139782709567
 30
0.0
 11
361.4332318488612
 21
213.1139782709567
 31
0.0
  0
LINE
  5
7BE
330
75
100
AcDbEntity
  8
Visible (ISO)
100
AcDbLine
 10
352.3866592353061
 20
224.6139782709567
 30
0.0
 11
352.3866592353061
 21
213.1139782709567
 31
0.0
  0
LINE
  5
7BF
330
75
100
AcDbEntity
  8
Visible (ISO)
100
AcDbLine
 10
361.4332318488612
 20
213.1139782709567
 30
0.0
 11
374.0300640284727
 21
213.1139782709567
 31
0.0
  0
LINE
  5
7C0
330
75
100
AcDbEntity
  8
Visible (ISO)
100
AcDbLine
 10
374.0300640284727
 20
224.6139782709567
 30
0.0
 11
374.0300640284727
 21
213.1139782709567
 31
0.0
  0
LINE
  5
7C1
330
75
100
AcDbEntity
  8
Visible (ISO)
100
AcDbLine
 10
374.0300640284727
 20
213.1139782709567
 30
0.0
 11
377.5803235945293
 21
213.1139782709567
 31
0.0
  0
LINE
  5
7C2
330
75
100
AcDbEntity
  8
Visible (ISO)
100
AcDbLine
 10
377.5803235945293
 20
224.6139782709567
 30
0.0
 11
377.5803235945293
 21
213.1139782709567
 31
0.0
  0
LINE
  5
7C3
330
75
100
AcDbEntity
  8
Visible (ISO)
100
AcDbLine
 10
370.8334914149176
 20
227.9139782709567
 30
0.0
 11
359.1334914149177
 21
227.9139782709567
 31
0.0
  0
ARC
  5
7C4
330
75
100
AcDbEntity
  8
Visible (ISO)
100
AcDbCircle
 10
369.6570208266824
 20
226.2639782709567
 30
0.0
 40
2.02647058823529
100
AcDbArc
 50
305.4893432501123
 51
54.51065674988612
  0
ARC
  5
7C5
330
75
100
AcDbEntity
  8
Visible (ISO)
100
AcDbCircle
 10
360.309962003153
 20
226.2639782709567
 30
0.0
 40
2.02647058823529
100
AcDbArc
 50
125.4893432501139
 51
234.5106567498878
  0
LINE
  5
7C6
330
75
100
AcDbEntity
  8
Visible (ISO)
100
AcDbLine
 10
358.3834914149177
 20
246.5139782709567
 30
0.0
 11
371.5834914149177
 21
246.5139782709567
 31
0.0
  0
LINE
  5
7C7
330
75
100
AcDbEntity
  8
Visible (ISO)
100
AcDbLine
 10
358.3834914149177
 20
236.5139782709567
 30
0.0
 11
371.5834914149177
 21
236.5139782709567
 31
0.0
  0
LINE
  5
7C8
330
75
100
AcDbEntity
  8
Visible (ISO)
100
AcDbLine
 10
358.3834914149177
 20
236.5139782709567
 30
0.0
 11
358.3834914149177
 21
246.5139782709567
 31
0.0
  0
LINE
  5
7C9
330
75
100
AcDbEntity
  8
Visible (ISO)
100
AcDbLine
 10
371.5834914149177
 20
236.5139782709567
 30
0.0
 11
371.5834914149177
 21
246.5139782709567
 31
0.0
  0
LINE
  5
7CA
330
75
100
AcDbEntity
  8
Visible (ISO)
100
AcDbLine
 10
370.8334914149177
 20
236.5139782709567
 30
0.0
 11
370.8334914149177
 21
227.9139782709567
 31
0.0
  0
LINE
  5
7CB
330
75
100
AcDbEntity
  8
Visible (ISO)
100
AcDbLine
 10
359.1334914149177
 20
236.5139782709567
 30
0.0
 11
359.1334914149177
 21
227.9139782709567
 31
0.0
  0
LINE
  5
7CC
330
75
100
AcDbEntity
  8
Visible (ISO)
100
AcDbLine
 10
370.9834914149177
 20
336.5139782709567
 30
0.0
 11
358.9834914149177
 21
336.5139782709567
 31
0.0
  0
LINE
  5
7CD
330
75
100
AcDbEntity
  8
Visible (ISO)
100
AcDbLine
 10
370.9834914149177
 20
346.5139782709567
 30
0.0
 11
370.9834914149177
 21
336.5139782709567
 31
0.0
  0
LINE
  5
7CE
330
75
100
AcDbEntity
  8
Visible (ISO)
100
AcDbLine
 10
358.9834914149177
 20
346.5139782709567
 30
0.0
 11
358.9834914149177
 21
336.5139782709567
 31
0.0
  0
LINE
  5
7CF
330
75
100
AcDbEntity
  8
Visible (ISO)
100
AcDbLine
 10
359.4334914149176
 20
402.5139782709567
 30
0.0
 11
370.5334914149177
 21
402.5139782709567
 31
0.0
  0
LINE
  5
7D0
330
75
100
AcDbEntity
  8
Visible (ISO)
100
AcDbLine
 10
359.4334914149176
 20
402.5139782709567
 30
0.0
 11
359.4334914149176
 21
404.0139782709566
 31
0.0
  0
LINE
  5
7D1
330
75
100
AcDbEntity
  8
Visible (ISO)
100
AcDbLine
 10
370.5334914149177
 20
402.5139782709567
 30
0.0
 11
370.5334914149177
 21
404.0139782709566
 31
0.0
  0
LINE
  5
7D2
330
75
100
AcDbEntity
  8
Visible (ISO)
100
AcDbLine
 10
359.787338992211
 20
363.9139782709567
 30
0.0
 11
358.0552881846422
 21
363.9139782709567
 31
0.0
  0
LINE
  5
7D3
330
75
100
AcDbEntity
  8
Visible (ISO)
100
AcDbLine
 10
364.9834914149177
 20
363.9139782709567
 30
0.0
 11
361.51938979978
 21
363.9139782709567
 31
0.0
  0
LINE
  5
7D4
330
75
100
AcDbEntity
  8
Visible (ISO)
100
AcDbLine
 10
361.51938979978
 20
363.9139782709567
 30
0.0
 11
359.787338992211
 21
363.9139782709567
 31
0.0
  0
LINE
  5
7D5
330
75
100
AcDbEntity
  8
Visible (ISO)
100
AcDbLine
 10
370.1796438376243
 20
363.9139782709567
 30
0.0
 11
368.4475930300554
 21
363.9139782709567
 31
0.0
  0
LINE
  5
7D6
330
75
100
AcDbEntity
  8
Visible (ISO)
100
AcDbLine
 10
368.4475930300554
 20
363.9139782709567
 30
0.0
 11
364.9834914149177
 21
363.9139782709567
 31
0.0
  0
LINE
  5
7D7
330
75
100
AcDbEntity
  8
Visible (ISO)
100
AcDbLine
 10
371.9116946451932
 20
363.9139782709567
 30
0.0
 11
370.1796438376243
 21
363.9139782709567
 31
0.0
  0
LINE
  5
7D8
330
75
100
AcDbEntity
  8
Visible (ISO)
100
AcDbLine
 10
371.9116946451932
 20
363.9139782709567
 30
0.0
 11
371.9116946451932
 21
365.4694113184105
 31
0.0
  0
LINE
  5
7D9
330
75
100
AcDbEntity
  8
Visible (ISO)
100
AcDbLine
 10
368.4475930300554
 20
363.9139782709567
 30
0.0
 11
368.4475930300554
 21
365.4694113184105
 31
0.0
  0
LINE
  5
7DA
330
75
100
AcDbEntity
  8
Visible (ISO)
100
AcDbLine
 10
361.51938979978
 20
363.9139782709567
 30
0.0
 11
361.51938979978
 21
365.4694113184103
 31
0.0
  0
LINE
  5
7DB
330
75
100
AcDbEntity
  8
Visible (ISO)
100
AcDbLine
 10
358.0552881846422
 20
363.9139782709567
 30
0.0
 11
358.0552881846422
 21
365.4694113184103
 31
0.0
  0
LINE
  5
7DC
330
75
100
AcDbEntity
  8
Visible (ISO)
100
AcDbLine
 10
358.9834914149177
 20
360.6139782709567
 30
0.0
 11
370.9834914149177
 21
360.6139782709567
 31
0.0
  0
ARC
  5
7DD
330
75
100
AcDbEntity
  8
Visible (ISO)
100
AcDbCircle
 10
369.3888485577748
 20
362.2639782709567
 30
0.0
 40
2.294642857142858
100
AcDbArc
 50
314.0225663958373
 51
45.97743360416082
  0
ARC
  5
7DE
330
75
100
AcDbEntity
  8
Visible (ISO)
100
AcDbCircle
 10
360.5781342720606
 20
362.2639782709567
 30
0.0
 40
2.294642857142858
100
AcDbArc
 50
134.0225663958383
 51
225.9774336041608
  0
LINE
  5
7DF
330
75
100
AcDbEntity
  8
Visible (ISO)
100
AcDbLine
 10
358.3334914149177
 20
351.8139782709567
 30
0.0
 11
371.6334914149177
 21
351.8139782709567
 31
0.0
  0
LINE
  5
7E0
330
75
100
AcDbEntity
  8
Visible (ISO)
100
AcDbLine
 10
358.3334914149177
 20
346.5139782709567
 30
0.0
 11
371.6334914149177
 21
346.5139782709567
 31
0.0
  0
LINE
  5
7E1
330
75
100
AcDbEntity
  8
Visible (ISO)
100
AcDbLine
 10
358.3334914149177
 20
346.5139782709567
 30
0.0
 11
358.3334914149177
 21
351.8139782709567
 31
0.0
  0
LINE
  5
7E2
330
75
100
AcDbEntity
  8
Visible (ISO)
100
AcDbLine
 10
371.6334914149177
 20
346.5139782709567
 30
0.0
 11
371.6334914149177
 21
351.8139782709567
 31
0.0
  0
LINE
  5
7E3
330
75
100
AcDbEntity
  8
Visible (ISO)
100
AcDbLine
 10
359.9834914149177
 20
372.4694113184103
 30
0.0
 11
359.9834914149177
 21
402.5139782709567
 31
0.0
  0
LINE
  5
7E4
330
75
100
AcDbEntity
  8
Visible (ISO)
100
AcDbLine
 10
369.9834914149176
 20
372.4694113184103
 30
0.0
 11
369.9834914149176
 21
402.5139782709567
 31
0.0
  0
LINE
  5
7E5
330
75
100
AcDbEntity
  8
Visible (ISO)
100
AcDbLine
 10
358.9834914149177
 20
351.8139782709567
 30
0.0
 11
358.9834914149177
 21
360.6139782709567
 31
0.0
  0
LINE
  5
7E6
330
75
100
AcDbEntity
  8
Visible (ISO)
100
AcDbLine
 10
370.9834914149177
 20
351.8139782709567
 30
0.0
 11
370.9834914149177
 21
360.6139782709567
 31
0.0
  0
ENDSEC
  0
SECTION
  2
OBJECTS
  0
DICTIONARY
  5
C
330
0
100
AcDbDictionary
281
     1
  3
ACAD_COLOR
350
6B
  3
ACAD_GROUP
350
D
  3
ACAD_LAYOUT
350
6A
  3
ACAD_MATERIAL
350
10
  3
ACAD_MLEADERSTYLE
350
6E
  3
ACAD_MLINESTYLE
350
67
  3
ACAD_PLOTSETTINGS
350
69
  3
ACAD_PLOTSTYLENAME
350
E
  3
ACAD_SCALELIST
350
3A
  3
ACAD_TABLESTYLE
350
6C
  3
ACAD_VISUALSTYLE
350
29
  3
ACDB_RECOMPOSE_DATA
350
7ED
  3
AcDbVariableDictionary
350
7E7
  0
DICTIONARY
  5
6B
102
{ACAD_REACTORS
330
C
102
}
330
C
100
AcDbDictionary
281
     1
  0
DICTIONARY
  5
D
102
{ACAD_REACTORS
330
C
102
}
330
C
100
AcDbDictionary
281
     1
  0
DICTIONARY
  5
6A
102
{ACAD_REACTORS
330
C
102
}
330
C
100
AcDbDictionary
281
     1
  3
Layout1
350
74
  3
Layout2
350
7C
  3
Model
350
78
  0
DICTIONARY
  5
10
102
{ACAD_REACTORS
330
C
102
}
330
C
100
AcDbDictionary
281
     1
  3
ByBlock
350
19
  3
ByLayer
350
11
  3
Global
350
21
  0
DICTIONARY
  5
6E
102
{ACAD_REACTORS
330
C
102
}
330
C
100
AcDbDictionary
281
     1
  3
Standard
350
6F
  0
DICTIONARY
  5
67
102
{ACAD_REACTORS
330
C
102
}
330
C
100
AcDbDictionary
281
     1
  3
Standard
350
68
  0
DICTIONARY
  5
69
102
{ACAD_REACTORS
330
C
102
}
330
C
100
AcDbDictionary
281
     1
  0
ACDBDICTIONARYWDFLT
  5
E
102
{ACAD_REACTORS
330
C
102
}
330
C
100
AcDbDictionary
281
     1
  3
Normal
350
F
100
AcDbDictionaryWithDefault
340
F
  0
DICTIONARY
  5
3A
102
{ACAD_REACTORS
330
C
102
}
330
C
100
AcDbDictionary
281
     1
  3
A0
350
3B
  3
A1
350
3C
  3
A2
350
3D
  3
A3
350
3E
  3
A4
350
3F
  3
A5
350
40
  3
A6
350
41
  3
A7
350
42
  3
A8
350
43
  3
A9
350
44
  3
B0
350
45
  3
B1
350
46
  3
B2
350
47
  3
B3
350
48
  3
B4
350
49
  3
B5
350
4A
  3
B6
350
4B
  3
B7
350
4C
  3
B8
350
4D
  3
B9
350
4E
  3
C0
350
4F
  3
C1
350
50
  3
C2
350
51
  3
C3
350
52
  3
C4
350
53
  3
C5
350
54
  3
C6
350
55
  3
C7
350
56
  3
C8
350
57
  3
C9
350
58
  3
D0
350
59
  3
D1
350
5A
  3
D2
350
5B
  0
DICTIONARY
  5
6C
102
{ACAD_REACTORS
330
C
102
}
330
C
100
AcDbDictionary
281
     1
  3
Standard
350
6D
  0
DICTIONARY
  5
29
102
{ACAD_REACTORS
330
C
102
}
330
C
100
AcDbDictionary
281
     1
  3
2dWireframe
350
2F
  3
3D Hidden
350
31
  3
3dWireframe
350
30
  3
Basic
350
2E
  3
Brighten
350
35
  3
ColorChange
350
39
  3
Conceptual
350
32
  3
Dim
350
34
  3
Facepattern
350
38
  3
Flat
350
2A
  3
FlatWithEdges
350
2B
  3
Gouraud
350
2C
  3
GouraudWithEdges
350
2D
  3
Linepattern
350
37
  3
Realistic
350
33
  3
Thicken
350
36
  0
XRECORD
  5
7ED
102
{ACAD_REACTORS
330
C
102
}
330
C
100
AcDbXrecord
280
     1
 90
        1
330
6D
  0
DICTIONARY
  5
7E7
102
{ACAD_REACTORS
330
C
102
}
330
C
100
AcDbDictionary
281
     1
  3
CANNOSCALE
350
7EA
  3
CMLEADERSTYLE
350
7E9
  3
CTABLESTYLE
350
7E8
  0
LAYOUT
  5
74
102
{ACAD_REACTORS
330
6A
102
}
330
6A
100
AcDbPlotSettings
  1

  2

  4

  6

 40
0.0
 41
0.0
 42
0.0
 43
0.0
 44
0.0
 45
0.0
 46
0.0
 47
0.0
 48
0.0
 49
0.0
140
0.0
141
0.0
142
1.0
143
1.0
 70
   688
 72
     0
 73
     0
 74
     5
  7

 75
    16
147
1.0
 76
     0
 77
     2
 78
   300
148
0.0
149
0.0
100
AcDbLayout
  1
Layout1
 70
     1
 71
     1
 10
0.0
 20
0.0
 11
12.0
 21
9.0
 12
0.0
 22
0.0
 32
0.0
 14
0.0
 24
0.0
 34
0.0
 15
0.0
 25
0.0
 35
0.0
146
0.0
 13
0.0
 23
0.0
 33
0.0
 16
1.0
 26
0.0
 36
0.0
 17
0.0
 27
1.0
 37
0.0
 76
     0
330
71
  0
LAYOUT
  5
7C
102
{ACAD_REACTORS
330
6A
102
}
330
6A
100
AcDbPlotSettings
  1

  2

  4

  6

 40
0.0
 41
0.0
 42
0.0
 43
0.0
 44
0.0
 45
0.0
 46
0.0
 47
0.0
 48
0.0
 49
0.0
140
0.0
141
0.0
142
1.0
143
1.0
 70
   688
 72
     0
 73
     0
 74
     5
  7

 75
    16
147
1.0
 76
     0
 77
     2
 78
   300
148
0.0
149
0.0
100
AcDbLayout
  1
Layout2
 70
     1
 71
     2
 10
0.0
 20
0.0
 11
12.0
 21
9.0
 12
0.0
 22
0.0
 32
0.0
 14
0.0
 24
0.0
 34
0.0
 15
0.0
 25
0.0
 35
0.0
146
0.0
 13
0.0
 23
0.0
 33
0.0
 16
1.0
 26
0.0
 36
0.0
 17
0.0
 27
1.0
 37
0.0
 76
     0
330
79
  0
LAYOUT
  5
78
102
{ACAD_REACTORS
330
6A
102
}
330
6A
100
AcDbPlotSettings
  1

  2

  4

  6

 40
0.0
 41
0.0
 42
0.0
 43
0.0
 44
0.0
 45
0.0
 46
0.0
 47
0.0
 48
0.0
 49
0.0
140
0.0
141
0.0
142
1.0
143
1.0
 70
  1712
 72
     0
 73
     0
 74
     0
  7

 75
     0
147
1.0
 76
     0
 77
     2
 78
   300
148
0.0
149
0.0
100
AcDbLayout
  1
Model
 70
     1
 71
     0
 10
0.0
 20
0.0
 11
12.0
 21
9.0
 12
0.0
 22
0.0
 32
0.0
 14
0.0
 24
0.0
 34
0.0
 15
0.0
 25
0.0
 35
0.0
146
0.0
 13
0.0
 23
0.0
 33
0.0
 16
1.0
 26
0.0
 36
0.0
 17
0.0
 27
1.0
 37
0.0
 76
     0
330
75
  0
MATERIAL
  5
19
102
{ACAD_XDICTIONARY
360
1A
102
}
102
{ACAD_REACTORS
330
10
102
}
330
10
100
AcDbMaterial
  1
ByBlock
 72
     0
 43
0.0208333333333333
 43
0.0
 43
0.0
 43
0.0
 43
0.0
 43
0.0208333333333333
 43
0.0
 43
0.0
 43
0.0
 43
0.0
 43
1.0
 43
0.0
 43
0.0
 43
0.0
 43
0.0
 43
1.0
 77
     0
 47
0.0208333333333333
 47
0.0
 47
0.0
 47
0.0
 47
0.0
 47
0.0208333333333333
 47
0.0
 47
0.0
 47
0.0
 47
0.0
 47
1.0
 47
0.0
 47
0.0
 47
0.0
 47
0.0
 47
1.0
171
     0
 49
0.0208333333333333
 49
0.0
 49
0.0
 49
0.0
 49
0.0
 49
0.0208333333333333
 49
0.0
 49
0.0
 49
0.0
 49
0.0
 49
1.0
 49
0.0
 49
0.0
 49
0.0
 49
0.0
 49
1.0
175
     0
142
0.0208333333333333
142
0.0
142
0.0
142
0.0
142
0.0
142
0.0208333333333333
142
0.0
142
0.0
142
0.0
142
0.0
142
1.0
142
0.0
142
0.0
142
0.0
142
0.0
142
1.0
179
     0
144
0.0208333333333333
144
0.0
144
0.0
144
0.0
144
0.0
144
0.0208333333333333
144
0.0
144
0.0
144
0.0
144
0.0
144
1.0
144
0.0
144
0.0
144
0.0
144
0.0
144
1.0
147
0.0208333333333333
147
0.0
147
0.0
147
0.0
147
0.0
147
0.0208333333333333
147
0.0
147
0.0
147
0.0
147
0.0
147
1.0
147
0.0
147
0.0
147
0.0
147
0.0
147
1.0
  0
MATERIAL
  5
11
102
{ACAD_XDICTIONARY
360
12
102
}
102
{ACAD_REACTORS
330
10
102
}
330
10
100
AcDbMaterial
  1
ByLayer
 72
     0
 43
0.0208333333333333
 43
0.0
 43
0.0
 43
0.0
 43
0.0
 43
0.0208333333333333
 43
0.0
 43
0.0
 43
0.0
 43
0.0
 43
1.0
 43
0.0
 43
0.0
 43
0.0
 43
0.0
 43
1.0
 77
     0
 47
0.0208333333333333
 47
0.0
 47
0.0
 47
0.0
 47
0.0
 47
0.0208333333333333
 47
0.0
 47
0.0
 47
0.0
 47
0.0
 47
1.0
 47
0.0
 47
0.0
 47
0.0
 47
0.0
 47
1.0
171
     0
 49
0.0208333333333333
 49
0.0
 49
0.0
 49
0.0
 49
0.0
 49
0.0208333333333333
 49
0.0
 49
0.0
 49
0.0
 49
0.0
 49
1.0
 49
0.0
 49
0.0
 49
0.0
 49
0.0
 49
1.0
175
     0
142
0.0208333333333333
142
0.0
142
0.0
142
0.0
142
0.0
142
0.0208333333333333
142
0.0
142
0.0
142
0.0
142
0.0
142
1.0
142
0.0
142
0.0
142
0.0
142
0.0
142
1.0
179
     0
144
0.0208333333333333
144
0.0
144
0.0
144
0.0
144
0.0
144
0.0208333333333333
144
0.0
144
0.0
144
0.0
144
0.0
144
1.0
144
0.0
144
0.0
144
0.0
144
0.0
144
1.0
147
0.0208333333333333
147
0.0
147
0.0
147
0.0
147
0.0
147
0.0208333333333333
147
0.0
147
0.0
147
0.0
147
0.0
147
1.0
147
0.0
147
0.0
147
0.0
147
0.0
147
1.0
  0
MATERIAL
  5
21
102
{ACAD_XDICTIONARY
360
22
102
}
102
{ACAD_REACTORS
330
10
102
}
330
10
100
AcDbMaterial
  1
Global
 72
     0
 43
0.0208333333333333
 43
0.0
 43
0.0
 43
0.0
 43
0.0
 43
0.0208333333333333
 43
0.0
 43
0.0
 43
0.0
 43
0.0
 43
1.0
 43
0.0
 43
0.0
 43
0.0
 43
0.0
 43
1.0
 77
     0
 47
0.0208333333333333
 47
0.0
 47
0.0
 47
0.0
 47
0.0
 47
0.0208333333333333
 47
0.0
 47
0.0
 47
0.0
 47
0.0
 47
1.0
 47
0.0
 47
0.0
 47
0.0
 47
0.0
 47
1.0
171
     0
 49
0.0208333333333333
 49
0.0
 49
0.0
 49
0.0
 49
0.0
 49
0.0208333333333333
 49
0.0
 49
0.0
 49
0.0
 49
0.0
 49
1.0
 49
0.0
 49
0.0
 49
0.0
 49
0.0
 49
1.0
175
     0
142
0.0208333333333333
142
0.0
142
0.0
142
0.0
142
0.0
142
0.0208333333333333
142
0.0
142
0.0
142
0.0
142
0.0
142
1.0
142
0.0
142
0.0
142
0.0
142
0.0
142
1.0
179
     0
144
0.0208333333333333
144
0.0
144
0.0
144
0.0
144
0.0
144
0.0208333333333333
144
0.0
144
0.0
144
0.0
144
0.0
144
1.0
144
0.0
144
0.0
144
0.0
144
0.0
144
1.0
147
0.0208333333333333
147
0.0
147
0.0
147
0.0
147
0.0
147
0.0208333333333333
147
0.0
147
0.0
147
0.0
147
0.0
147
1.0
147
0.0
147
0.0
147
0.0
147
0.0
147
1.0
  0
MLEADERSTYLE
  5
6F
102
{ACAD_REACTORS
330
6E
102
}
330
6E
100
AcDbMLeaderStyle
170
     2
171
     1
172
     0
 90
        2
 40
0.0
 41
0.0
173
     1
 91
-1056964608
340
63
 92
       -2
290
     1
 42
0.09
291
     1
 43
0.36
  3
Standard
 44
0.18
300

342
5D
174
     1
178
     6
175
     1
176
     0
 93
-1056964608
 45
0.18
292
     0
297
     0
 46
0.18
 94
-1056964608
 47
1.0
 49
1.0
140
1.0
293
     1
141
0.0
294
     1
177
     0
142
1.0
295
     1
296
     0
143
0.125
1001
ACAD_MLEADERVER
1070
     2
  0
MLINESTYLE
  5
68
102
{ACAD_REACTORS
330
67
102
}
330
67
100
AcDbMlineStyle
  2
STANDARD
 70
     0
  3

 62
   256
 51
90.0
 52
90.0
 71
     2
 49
0.5
 62
   256
  6
BYLAYER
 49
-0.5
 62
   256
  6
BYLAYER
  0
ACDBPLACEHOLDER
  5
F
102
{ACAD_REACTORS
330
E
102
}
330
E
  0
SCALE
  5
3B
102
{ACAD_REACTORS
330
3A
102
}
330
3A
100
AcDbScale
 70
     0
300
1:1
140
1.0
141
1.0
290
     1
  0
SCALE
  5
3C
102
{ACAD_REACTORS
330
3A
102
}
330
3A
100
AcDbScale
 70
     0
300
1:2
140
1.0
141
2.0
290
     0
  0
SCALE
  5
3D
102
{ACAD_REACTORS
330
3A
102
}
330
3A
100
AcDbScale
 70
     0
300
1:4
140
1.0
141
4.0
290
     0
  0
SCALE
  5
3E
102
{ACAD_REACTORS
330
3A
102
}
330
3A
100
AcDbScale
 70
     0
300
1:5
140
1.0
141
5.0
290
     0
  0
SCALE
  5
3F
102
{ACAD_REACTORS
330
3A
102
}
330
3A
100
AcDbScale
 70
     0
300
1:8
140
1.0
141
8.0
290
     0
  0
SCALE
  5
40
102
{ACAD_REACTORS
330
3A
102
}
330
3A
100
AcDbScale
 70
     0
300
1:10
140
1.0
141
10.0
290
     0
  0
SCALE
  5
41
102
{ACAD_REACTORS
330
3A
102
}
330
3A
100
AcDbScale
 70
     0
300
1:16
140
1.0
141
16.0
290
     0
  0
SCALE
  5
42
102
{ACAD_REACTORS
330
3A
102
}
330
3A
100
AcDbScale
 70
     0
300
1:20
140
1.0
141
20.0
290
     0
  0
SCALE
  5
43
102
{ACAD_REACTORS
330
3A
102
}
330
3A
100
AcDbScale
 70
     0
300
1:30
140
1.0
141
30.0
290
     0
  0
SCALE
  5
44
102
{ACAD_REACTORS
330
3A
102
}
330
3A
100
AcDbScale
 70
     0
300
1:40
140
1.0
141
40.0
290
     0
  0
SCALE
  5
45
102
{ACAD_REACTORS
330
3A
102
}
330
3A
100
AcDbScale
 70
     0
300
1:50
140
1.0
141
50.0
290
     0
  0
SCALE
  5
46
102
{ACAD_REACTORS
330
3A
102
}
330
3A
100
AcDbScale
 70
     0
300
1:100
140
1.0
141
100.0
290
     0
  0
SCALE
  5
47
102
{ACAD_REACTORS
330
3A
102
}
330
3A
100
AcDbScale
 70
     0
300
2:1
140
2.0
141
1.0
290
     0
  0
SCALE
  5
48
102
{ACAD_REACTORS
330
3A
102
}
330
3A
100
AcDbScale
 70
     0
300
4:1
140
4.0
141
1.0
290
     0
  0
SCALE
  5
49
102
{ACAD_REACTORS
330
3A
102
}
330
3A
100
AcDbScale
 70
     0
300
8:1
140
8.0
141
1.0
290
     0
  0
SCALE
  5
4A
102
{ACAD_REACTORS
330
3A
102
}
330
3A
100
AcDbScale
 70
     0
300
10:1
140
10.0
141
1.0
290
     0
  0
SCALE
  5
4B
102
{ACAD_REACTORS
330
3A
102
}
330
3A
100
AcDbScale
 70
     0
300
100:1
140
100.0
141
1.0
290
     0
  0
SCALE
  5
4C
102
{ACAD_REACTORS
330
3A
102
}
330
3A
100
AcDbScale
 70
     0
300
1/128" = 1'-0"
140
0.0078125
141
12.0
290
     0
  0
SCALE
  5
4D
102
{ACAD_REACTORS
330
3A
102
}
330
3A
100
AcDbScale
 70
     0
300
1/64" = 1'-0"
140
0.015625
141
12.0
290
     0
  0
SCALE
  5
4E
102
{ACAD_REACTORS
330
3A
102
}
330
3A
100
AcDbScale
 70
     0
300
1/32" = 1'-0"
140
0.03125
141
12.0
290
     0
  0
SCALE
  5
4F
102
{ACAD_REACTORS
330
3A
102
}
330
3A
100
AcDbScale
 70
     0
300
1/16" = 1'-0"
140
0.0625
141
12.0
290
     0
  0
SCALE
  5
50
102
{ACAD_REACTORS
330
3A
102
}
330
3A
100
AcDbScale
 70
     0
300
3/32" = 1'-0"
140
0.09375
141
12.0
290
     0
  0
SCALE
  5
51
102
{ACAD_REACTORS
330
3A
102
}
330
3A
100
AcDbScale
 70
     0
300
1/8" = 1'-0"
140
0.125
141
12.0
290
     0
  0
SCALE
  5
52
102
{ACAD_REACTORS
330
3A
102
}
330
3A
100
AcDbScale
 70
     0
300
3/16" = 1'-0"
140
0.1875
141
12.0
290
     0
  0
SCALE
  5
53
102
{ACAD_REACTORS
330
3A
102
}
330
3A
100
AcDbScale
 70
     0
300
1/4" = 1'-0"
140
0.25
141
12.0
290
     0
  0
SCALE
  5
54
102
{ACAD_REACTORS
330
3A
102
}
330
3A
100
AcDbScale
 70
     0
300
3/8" = 1'-0"
140
0.375
141
12.0
290
     0
  0
SCALE
  5
55
102
{ACAD_REACTORS
330
3A
102
}
330
3A
100
AcDbScale
 70
     0
300
1/2" = 1'-0"
140
0.5
141
12.0
290
     0
  0
SCALE
  5
56
102
{ACAD_REACTORS
330
3A
102
}
330
3A
100
AcDbScale
 70
     0
300
3/4" = 1'-0"
140
0.75
141
12.0
290
     0
  0
SCALE
  5
57
102
{ACAD_REACTORS
330
3A
102
}
330
3A
100
AcDbScale
 70
     0
300
1" = 1'-0"
140
1.0
141
12.0
290
     0
  0
SCALE
  5
58
102
{ACAD_REACTORS
330
3A
102
}
330
3A
100
AcDbScale
 70
     0
300
1-1/2" = 1'-0"
140
1.5
141
12.0
290
     0
  0
SCALE
  5
59
102
{ACAD_REACTORS
330
3A
102
}
330
3A
100
AcDbScale
 70
     0
300
3" = 1'-0"
140
3.0
141
12.0
290
     0
  0
SCALE
  5
5A
102
{ACAD_REACTORS
330
3A
102
}
330
3A
100
AcDbScale
 70
     0
300
6" = 1'-0"
140
6.0
141
12.0
290
     0
  0
SCALE
  5
5B
102
{ACAD_REACTORS
330
3A
102
}
330
3A
100
AcDbScale
 70
     0
300
1'-0" = 1'-0"
140
12.0
141
12.0
290
     0
  0
TABLESTYLE
  5
6D
102
{ACAD_XDICTIONARY
360
7EB
102
}
102
{ACAD_REACTORS
330
6C
102
}
330
6C
100
AcDbTableStyle
  3
Standard
 70
     0
 71
     0
 40
0.06
 41
0.06
280
     0
281
     0
  7
Standard
140
0.18
170
     2
 62
     0
 63
     7
283
     0
 90
      512
 91
        0
  1

274
    -2
284
     1
 64
     0
275
    -2
285
     1
 65
     0
276
    -2
286
     1
 66
     0
277
    -2
287
     1
 67
     0
278
    -2
288
     1
 68
     0
279
    -2
289
     1
 69
     0
  7
Standard
140
0.25
170
     5
 62
     0
 63
     7
283
     0
 90
      512
 91
        0
  1

274
    -2
284
     1
 64
     0
275
    -2
285
     1
 65
     0
276
    -2
286
     1
 66
     0
277
    -2
287
     1
 67
     0
278
    -2
288
     1
 68
     0
279
    -2
289
     1
 69
     0
  7
Standard
140
0.18
170
     5
 62
     0
 63
     7
283
     0
 90
      512
 91
        0
  1

274
    -2
284
     1
 64
     0
275
    -2
285
     1
 65
     0
276
    -2
286
     1
 66
     0
277
    -2
287
     1
 67
     0
278
    -2
288
     1
 68
     0
279
    -2
289
     1
 69
     0
  0
VISUALSTYLE
  5
2F
102
{ACAD_REACTORS
330
29
102
}
330
29
100
AcDbVisualStyle
  2
2dWireframe
 70
     4
 71
     0
 72
     2
 73
     0
 90
        0
 40
-0.6
 41
-30.0
 62
     5
 63
     7
421
 16777215
 74
     1
 91
        4
 64
     7
 65
   257
 75
     1
175
     1
 42
1.0
 92
        0
 66
   257
 43
1.0
 76
     1
 77
     6
 78
     2
 67
     7
 79
     5
170
     0
171
     0
290
     0
174
     0
 93
        1
 44
0.0
173
     0
291
     0
 45
0.0
  0
VISUALSTYLE
  5
31
102
{ACAD_REACTORS
330
29
102
}
330
29
100
AcDbVisualStyle
  2
3D Hidden
 70
     6
 71
     1
 72
     2
 73
     2
 90
        0
 40
-0.6
 41
-30.0
 62
     5
 63
     7
421
 16777215
 74
     2
 91
        2
 64
     7
 65
   257
 75
     2
175
     1
 42
40.0
 92
        0
 66
   257
 43
1.0
 76
     1
 77
     6
 78
     2
 67
     7
 79
     3
170
     0
171
     0
290
     0
174
     0
 93
        1
 44
0.0
173
     0
291
     0
 45
0.0
  0
VISUALSTYLE
  5
30
102
{ACAD_REACTORS
330
29
102
}
330
29
100
AcDbVisualStyle
  2
3dWireframe
 70
     5
 71
     0
 72
     2
 73
     0
 90
        0
 40
-0.6
 41
-30.0
 62
     5
 63
     7
421
 16777215
 74
     1
 91
        4
 64
     7
 65
   257
 75
     1
175
     1
 42
1.0
 92
        0
 66
   257
 43
1.0
 76
     1
 77
     6
 78
     2
 67
     7
 79
     5
170
     0
171
     0
290
     0
174
     0
 93
        1
 44
0.0
173
     0
291
     0
 45
0.0
  0
VISUALSTYLE
  5
2E
102
{ACAD_REACTORS
330
29
102
}
330
29
100
AcDbVisualStyle
  2
Basic
 70
     7
 71
     1
 72
     0
 73
     1
 90
        0
 40
-0.6
 41
-30.0
 62
     5
 63
     7
421
 16777215
 74
     0
 91
        4
 64
     7
 65
   257
 75
     1
175
     1
 42
1.0
 92
        8
 66
     7
 43
1.0
 76
     1
 77
     6
 78
     2
 67
     7
 79
     5
170
     0
171
     0
290
     0
174
     0
 93
        1
 44
0.0
173
     0
291
     1
 45
0.0
  0
VISUALSTYLE
  5
35
102
{ACAD_REACTORS
330
29
102
}
330
29
100
AcDbVisualStyle
  2
Brighten
 70
    12
 71
     2
 72
     2
 73
     0
 90
        0
 40
-0.6
 41
-30.0
 62
     5
 63
     7
421
 16777215
 74
     1
 91
        4
 64
     7
 65
   257
 75
     1
175
     1
 42
1.0
 92
        8
 66
     7
 43
1.0
 76
     1
 77
     6
 78
     2
 67
     7
 79
     5
170
     0
171
     0
290
     0
174
     0
 93
        1
 44
50.0
173
     0
291
     1
 45
0.0
  0
VISUALSTYLE
  5
39
102
{ACAD_REACTORS
330
29
102
}
330
29
100
AcDbVisualStyle
  2
ColorChange
 70
    16
 71
     2
 72
     2
 73
     3
 90
        0
 40
-0.6
 41
-30.0
 62
     5
 63
     8
421
  8421504
 74
     1
 91
        4
 64
     7
 65
   257
 75
     1
175
     1
 42
1.0
 92
        8
 66
     8
424
  8421504
 43
1.0
 76
     1
 77
     6
 78
     2
 67
     7
 79
     5
170
     0
171
     0
290
     0
174
     0
 93
        1
 44
0.0
173
     0
291
     1
 45
0.0
  0
VISUALSTYLE
  5
32
102
{ACAD_REACTORS
330
29
102
}
330
29
100
AcDbVisualStyle
  2
Conceptual
 70
     9
 71
     3
 72
     2
 73
     0
 90
        0
 40
-0.6
 41
-30.0
 62
     5
 63
     7
421
 16777215
 74
     2
 91
        2
 64
     7
 65
   257
 75
     1
175
     1
 42
40.0
 92
        8
 66
     7
 43
1.0
 76
     1
 77
     6
 78
     2
 67
     7
 79
     3
170
     0
171
     0
290
     0
174
     0
 93
        1
 44
0.0
173
     0
291
     0
 45
0.0
  0
VISUALSTYLE
  5
34
102
{ACAD_REACTORS
330
29
102
}
330
29
100
AcDbVisualStyle
  2
Dim
 70
    11
 71
     2
 72
     2
 73
     0
 90
        0
 40
-0.6
 41
-30.0
 62
     5
 63
     7
421
 16777215
 74
     1
 91
        4
 64
     7
 65
   257
 75
     1
175
     1
 42
1.0
 92
        8
 66
     7
 43
1.0
 76
     1
 77
     6
 78
     2
 67
     7
 79
     5
170
     0
171
     0
290
     0
174
     0
 93
        1
 44
-50.0
173
     0
291
     1
 45
0.0
  0
VISUALSTYLE
  5
38
102
{ACAD_REACTORS
330
29
102
}
330
29
100
AcDbVisualStyle
  2
Facepattern
 70
    15
 71
     2
 72
     2
 73
     0
 90
        0
 40
-0.6
 41
-30.0
 62
     5
 63
     7
421
 16777215
 74
     1
 91
        4
 64
     7
 65
   257
 75
     1
175
     1
 42
1.0
 92
        8
 66
     7
 43
1.0
 76
     1
 77
     6
 78
     2
 67
     7
 79
     5
170
     0
171
     0
290
     0
174
     0
 93
        1
 44
0.0
173
     0
291
     1
 45
0.0
  0
VISUALSTYLE
  5
2A
102
{ACAD_REACTORS
330
29
102
}
330
29
100
AcDbVisualStyle
  2
Flat
 70
     0
 71
     2
 72
     1
 73
     1
 90
        2
 40
-0.6
 41
30.0
 62
     5
 63
     7
421
 16777215
 74
     0
 91
        4
 64
     7
 65
   257
 75
     1
175
     1
 42
1.0
 92
        8
 66
     7
 43
1.0
 76
     1
 77
     6
 78
     2
 67
     7
 79
     5
170
     0
171
     0
290
     0
174
     0
 93
       13
 44
0.0
173
     0
291
     1
 45
0.0
  0
VISUALSTYLE
  5
2B
102
{ACAD_REACTORS
330
29
102
}
330
29
100
AcDbVisualStyle
  2
FlatWithEdges
 70
     1
 71
     2
 72
     1
 73
     1
 90
        2
 40
-0.6
 41
30.0
 62
     5
 63
     7
421
 16777215
 74
     1
 91
        4
 64
     7
 65
   257
 75
     1
175
     1
 42
1.0
 92
        0
 66
   257
 43
1.0
 76
     1
 77
     6
 78
     2
 67
     7
 79
     5
170
     0
171
     0
290
     0
174
     0
 93
       13
 44
0.0
173
     0
291
     1
 45
0.0
  0
VISUALSTYLE
  5
2C
102
{ACAD_REACTORS
330
29
102
}
330
29
100
AcDbVisualStyle
  2
Gouraud
 70
     2
 71
     2
 72
     2
 73
     1
 90
        2
 40
-0.6
 41
30.0
 62
     5
 63
     7
421
 16777215
 74
     0
 91
        4
 64
     7
 65
   257
 75
     1
175
     1
 42
1.0
 92
        0
 66
     7
 43
1.0
 76
     1
 77
     6
 78
     2
 67
     7
 79
     5
170
     0
171
     0
290
     0
174
     0
 93
       13
 44
0.0
173
     0
291
     1
 45
0.0
  0
VISUALSTYLE
  5
2D
102
{ACAD_REACTORS
330
29
102
}
330
29
100
AcDbVisualStyle
  2
GouraudWithEdges
 70
     3
 71
     2
 72
     2
 73
     1
 90
        2
 40
-0.6
 41
30.0
 62
     5
 63
     7
421
 16777215
 74
     1
 91
        4
 64
     7
 65
   257
 75
     1
175
     1
 42
1.0
 92
        0
 66
   257
 43
1.0
 76
     1
 77
     6
 78
     2
 67
     7
 79
     5
170
     0
171
     0
290
     0
174
     0
 93
       13
 44
0.0
173
     0
291
     1
 45
0.0
  0
VISUALSTYLE
  5
37
102
{ACAD_REACTORS
330
29
102
}
330
29
100
AcDbVisualStyle
  2
Linepattern
 70
    14
 71
     2
 72
     2
 73
     0
 90
        0
 40
-0.6
 41
-30.0
 62
     5
 63
     7
421
 16777215
 74
     1
 91
        4
 64
     7
 65
   257
 75
     7
175
     7
 42
1.0
 92
        8
 66
     7
 43
1.0
 76
     1
 77
     6
 78
     2
 67
     7
 79
     5
170
     0
171
     0
290
     0
174
     0
 93
        1
 44
0.0
173
     0
291
     1
 45
0.0
  0
VISUALSTYLE
  5
33
102
{ACAD_REACTORS
330
29
102
}
330
29
100
AcDbVisualStyle
  2
Realistic
 70
     8
 71
     2
 72
     2
 73
     0
 90
        0
 40
-0.6
 41
-30.0
 62
     5
 63
     7
421
 16777215
 74
     1
 91
        0
 64
     7
 65
   257
 75
     1
175
     1
 42
1.0
 92
        8
 66
     8
424
  7895160
 43
1.0
 76
     1
 77
     6
 78
     2
 67
     7
 79
     5
170
     0
171
     0
290
     0
174
     0
 93
       13
 44
0.0
173
     0
291
     0
 45
0.0
  0
VISUALSTYLE
  5
36
102
{ACAD_REACTORS
330
29
102
}
330
29
100
AcDbVisualStyle
  2
Thicken
 70
    13
 71
     2
 72
     2
 73
     0
 90
        0
 40
-0.6
 41
-30.0
 62
     5
 63
     7
421
 16777215
 74
     1
 91
        4
 64
     7
 65
   257
 75
     1
175
     1
 42
1.0
 92
       12
 66
     7
 43
1.0
 76
     1
 77
     6
 78
     2
 67
     7
 79
     5
170
     0
171
     0
290
     0
174
     0
 93
        1
 44
0.0
173
     0
291
     1
 45
0.0
  0
DICTIONARYVAR
  5
7EA
102
{ACAD_REACTORS
330
7E7
102
}
330
7E7
100
DictionaryVariables
280
     0
  1
1:1
  0
DICTIONARYVAR
  5
7E9
102
{ACAD_REACTORS
330
7E7
102
}
330
7E7
100
DictionaryVariables
280
     0
  1
STANDARD
  0
DICTIONARYVAR
  5
7E8
102
{ACAD_REACTORS
330
7E7
102
}
330
7E7
100
DictionaryVariables
280
     0
  1
STANDARD
  0
DICTIONARY
  5
1A
330
19
100
AcDbDictionary
280
     1
281
     1
  3
BUMPTILE
360
1C
  3
DIFFUSETILE
360
1B
  3
OPACITYTILE
360
1F
  3
REFLECTIONTILE
360
1E
  3
REFRACTIONTILE
360
20
  3
SPECULARTILE
360
1D
  0
DICTIONARY
  5
12
330
11
100
AcDbDictionary
280
     1
281
     1
  3
BUMPTILE
360
14
  3
DIFFUSETILE
360
13
  3
OPACITYTILE
360
17
  3
REFLECTIONTILE
360
16
  3
REFRACTIONTILE
360
18
  3
SPECULARTILE
360
15
  0
DICTIONARY
  5
22
330
21
100
AcDbDictionary
280
     1
281
     1
  3
BUMPTILE
360
24
  3
DIFFUSETILE
360
23
  3
OPACITYTILE
360
27
  3
REFLECTIONTILE
360
26
  3
REFRACTIONTILE
360
28
  3
SPECULARTILE
360
25
  0
DICTIONARY
  5
7EB
330
6D
100
AcDbDictionary
280
     1
281
     1
  3
ACAD_ROUNDTRIP_2008_TABLESTYLE_CELLSTYLEMAP
360
7EC
  0
XRECORD
  5
1C
102
{ACAD_REACTORS
330
1A
102
}
330
1A
100
AcDbXrecord
280
     1
270
     1
271
     1
  0
XRECORD
  5
1B
102
{ACAD_REACTORS
330
1A
102
}
330
1A
100
AcDbXrecord
280
     1
270
     1
271
     1
  0
XRECORD
  5
1F
102
{ACAD_REACTORS
330
1A
102
}
330
1A
100
AcDbXrecord
280
     1
270
     1
271
     1
  0
XRECORD
  5
1E
102
{ACAD_REACTORS
330
1A
102
}
330
1A
100
AcDbXrecord
280
     1
270
     1
271
     1
  0
XRECORD
  5
20
102
{ACAD_REACTORS
330
1A
102
}
330
1A
100
AcDbXrecord
280
     1
270
     1
271
     1
  0
XRECORD
  5
1D
102
{ACAD_REACTORS
330
1A
102
}
330
1A
100
AcDbXrecord
280
     1
270
     1
271
     1
  0
XRECORD
  5
14
102
{ACAD_REACTORS
330
12
102
}
330
12
100
AcDbXrecord
280
     1
270
     1
271
     1
  0
XRECORD
  5
13
102
{ACAD_REACTORS
330
12
102
}
330
12
100
AcDbXrecord
280
     1
270
     1
271
     1
  0
XRECORD
  5
17
102
{ACAD_REACTORS
330
12
102
}
330
12
100
AcDbXrecord
280
     1
270
     1
271
     1
  0
XRECORD
  5
16
102
{ACAD_REACTORS
330
12
102
}
330
12
100
AcDbXrecord
280
     1
270
     1
271
     1
  0
XRECORD
  5
18
102
{ACAD_REACTORS
330
12
102
}
330
12
100
AcDbXrecord
280
     1
270
     1
271
     1
  0
XRECORD
  5
15
102
{ACAD_REACTORS
330
12
102
}
330
12
100
AcDbXrecord
280
     1
270
     1
271
     1
  0
XRECORD
  5
24
102
{ACAD_REACTORS
330
22
102
}
330
22
100
AcDbXrecord
280
     1
270
     1
271
     1
  0
XRECORD
  5
23
102
{ACAD_REACTORS
330
22
102
}
330
22
100
AcDbXrecord
280
     1
270
     1
271
     1
  0
XRECORD
  5
27
102
{ACAD_REACTORS
330
22
102
}
330
22
100
AcDbXrecord
280
     1
270
     1
271
     1
  0
XRECORD
  5
26
102
{ACAD_REACTORS
330
22
102
}
330
22
100
AcDbXrecord
280
     1
270
     1
271
     1
  0
XRECORD
  5
28
102
{ACAD_REACTORS
330
22
102
}
330
22
100
AcDbXrecord
280
     1
270
     1
271
     1
  0
XRECORD
  5
25
102
{ACAD_REACTORS
330
22
102
}
330
22
100
AcDbXrecord
280
     1
270
     1
271
     1
  0
CELLSTYLEMAP
  5
7EC
102
{ACAD_REACTORS
330
7EB
102
}
330
7EB
100
AcDbCellStyleMap
 90
        3
300
CELLSTYLE
  1
TABLEFORMAT_BEGIN
 90
        5
170
     1
 91
        0
 92
    32768
 62
   257
 93
        1
300
CONTENTFORMAT
  1
CONTENTFORMAT_BEGIN
 90
        0
 91
        0
 92
      512
 93
        0
300

 40
0.0
140
1.0
 94
        5
 62
     0
340
5D
144
0.25
309
CONTENTFORMAT_END
171
     0
 94
        0
309
TABLEFORMAT_END
  1
CELLSTYLE_BEGIN
 90
        1
 91
        1
300
_TITLE
309
CELLSTYLE_END
300
CELLSTYLE
  1
TABLEFORMAT_BEGIN
 90
        5
170
     1
 91
        0
 92
        0
 62
   257
 93
        1
300
CONTENTFORMAT
  1
CONTENTFORMAT_BEGIN
 90
        0
 91
        0
 92
      512
 93
        0
300

 40
0.0
140
1.0
 94
        5
 62
     0
340
5D
144
0.18
309
CONTENTFORMAT_END
171
     0
 94
        0
309
TABLEFORMAT_END
  1
CELLSTYLE_BEGIN
 90
        2
 91
        1
300
_HEADER
309
CELLSTYLE_END
300
CELLSTYLE
  1
TABLEFORMAT_BEGIN
 90
        5
170
     1
 91
        0
 92
        0
 62
   257
 93
        1
300
CONTENTFORMAT
  1
CONTENTFORMAT_BEGIN
 90
        0
 91
        0
 92
      512
 93
        0
300

 40
0.0
140
1.0
 94
        2
 62
     0
340
5D
144
0.18
309
CONTENTFORMAT_END
171
     0
 94
        0
309
TABLEFORMAT_END
  1
CELLSTYLE_BEGIN
 90
        3
 91
        2
300
_DATA
309
CELLSTYLE_END
  0
ENDSEC
  0
EOF
